  0
SECTION
  2
HEADER
  9
$ACADVER
  1
AC1009
  9
$INSBASE
 10
4186.791768180805775
 20
159.1116603754551022
 30
0.0
  9
$EXTMIN
 10
4179.0379364745513158
 20
135.9160308123157961
 30
-0.0000000000000053
  9
$EXTMAX
 10
4194.3989825832395582
 20
159.1158175232041003
 30
0.0000000000000099
  9
$LIMMIN
 10
0.0
 20
0.0
  9
$LIMMAX
 10
11.6929133858000007
 20
8.2677165353999982
  9
$ORTHOMODE
 70
     0
  9
$REGENMODE
 70
     1
  9
$FILLMODE
 70
     1
  9
$QTEXTMODE
 70
     0
  9
$MIRRTEXT
 70
     0
  9
$DRAGMODE
 70
     2
  9
$LTSCALE
 40
0.6431102362
  9
$OSMODE
 70
  4095
  9
$ATTMODE
 70
     1
  9
$TEXTSIZE
 40
0.2
  9
$TRACEWID
 40
0.05
  9
$TEXTSTYLE
  7
STANDARD
  9
$CLAYER
  8
0
  9
$CELTYPE
  6
BYLAYER
  9
$CECOLOR
 62
   256
  9
$DIMSCALE
 40
1.0
  9
$DIMASZ
 40
0.1875
  9
$DIMEXO
 40
0.0625
  9
$DIMDLI
 40
0.4443307087
  9
$DIMRND
 40
0.0
  9
$DIMDLE
 40
0.0
  9
$DIMEXE
 40
0.125
  9
$DIMTP
 40
0.01
  9
$DIMTM
 40
0.01
  9
$DIMTXT
 40
2.0
  9
$DIMCEN
 40
0.1052362205
  9
$DIMTSZ
 40
0.0
  9
$DIMTOL
 70
     1
  9
$DIMLIM
 70
     0
  9
$DIMTIH
 70
     1
  9
$DIMTOH
 70
     1
  9
$DIMSE1
 70
     0
  9
$DIMSE2
 70
     0
  9
$DIMTAD
 70
     0
  9
$DIMZIN
 70
     0
  9
$DIMBLK
  1

  9
$DIMASO
 70
     1
  9
$DIMSHO
 70
     1
  9
$DIMPOST
  1
\X
  9
$DIMAPOST
  1

  9
$DIMALT
 70
     1
  9
$DIMALTD
 70
     2
  9
$DIMALTF
 40
25.3999999999999986
  9
$DIMLFAC
 40
1.0
  9
$DIMTOFL
 70
     0
  9
$DIMTVP
 40
0.0
  9
$DIMTIX
 70
     0
  9
$DIMSOXD
 70
     0
  9
$DIMSAH
 70
     0
  9
$DIMBLK1
  1

  9
$DIMBLK2
  1

  9
$DIMSTYLE
  2
STANDARD
  9
$DIMCLRD
 70
     0
  9
$DIMCLRE
 70
     0
  9
$DIMCLRT
 70
     0
  9
$DIMTFAC
 40
1.0
  9
$DIMGAP
 40
0.09
  9
$LUNITS
 70
     2
  9
$LUPREC
 70
     4
  9
$SKETCHINC
 40
0.1
  9
$FILLETRAD
 40
0.0
  9
$AUNITS
 70
     0
  9
$AUPREC
 70
     0
  9
$MENU
  1
.
  9
$ELEVATION
 40
0.0
  9
$PELEVATION
 40
0.0
  9
$THICKNESS
 40
0.0
  9
$LIMCHECK
 70
     0
  9
$BLIPMODE
 70
     0
  9
$CHAMFERA
 40
0.0
  9
$CHAMFERB
 40
0.0
  9
$SKPOLY
 70
     0
  9
$TDCREATE
 40
2458060.468368056230247
  9
$TDUPDATE
 40
2459073.4925925931893289
  9
$TDINDWG
 40
0.318409838
  9
$TDUSRTIMER
 40
0.318409838
  9
$USRTIMER
 70
     1
  9
$ANGBASE
 50
0.0
  9
$ANGDIR
 70
     0
  9
$PDMODE
 70
     0
  9
$PDSIZE
 40
0.3125
  9
$PLINEWID
 40
0.0
  9
$COORDS
 70
     1
  9
$SPLFRAME
 70
     0
  9
$SPLINETYPE
 70
     6
  9
$SPLINESEGS
 70
     8
  9
$ATTDIA
 70
     1
  9
$ATTREQ
 70
     1
  9
$HANDLING
 70
     1
  9
$HANDSEED
  5
75AD
  9
$SURFTAB1
 70
     6
  9
$SURFTAB2
 70
     6
  9
$SURFTYPE
 70
     6
  9
$SURFU
 70
     6
  9
$SURFV
 70
     6
  9
$UCSNAME
  2

  9
$UCSORG
 10
0.0
 20
0.0
 30
0.0
  9
$UCSXDIR
 10
1.0
 20
0.0
 30
0.0
  9
$UCSYDIR
 10
0.0
 20
1.0
 30
0.0
  9
$PUCSNAME
  2

  9
$PUCSORG
 10
0.0
 20
0.0
 30
0.0
  9
$PUCSXDIR
 10
1.0
 20
0.0
 30
0.0
  9
$PUCSYDIR
 10
0.0
 20
1.0
 30
0.0
  9
$USERI1
 70
     0
  9
$USERI2
 70
     0
  9
$USERI3
 70
     0
  9
$USERI4
 70
     0
  9
$USERI5
 70
     0
  9
$USERR1
 40
0.0
  9
$USERR2
 40
0.0
  9
$USERR3
 40
0.0
  9
$USERR4
 40
0.0
  9
$USERR5
 40
0.0
  9
$WORLDVIEW
 70
     1
  9
$SHADEDGE
 70
     3
  9
$SHADEDIF
 70
    70
  9
$TILEMODE
 70
     1
  9
$MAXACTVP
 70
    64
  9
$PLIMCHECK
 70
     0
  9
$PEXTMIN
 10
1.0000000000000000E+20
 20
1.0000000000000000E+20
 30
1.0000000000000000E+20
  9
$PEXTMAX
 10
-1.0000000000000000E+20
 20
-1.0000000000000000E+20
 30
-1.0000000000000000E+20
  9
$PLIMMIN
 10
0.0
 20
0.0
  9
$PLIMMAX
 10
12.0
 20
9.0
  9
$UNITMODE
 70
     0
  9
$VISRETAIN
 70
     1
  9
$PLINEGEN
 70
     0
  9
$PSLTSCALE
 70
     1
  0
ENDSEC
  0
SECTION
  2
TABLES
  0
TABLE
  2
VPORT
 70
     1
  0
VPORT
  2
*ACTIVE
 70
     0
 10
0.0
 20
0.0
 11
1.0
 21
1.0
 12
111.1079858960828943
 22
21.5502411843615391
 13
0.0
 23
0.0
 14
1.0
 24
1.0
 15
0.0
 25
0.0
 16
0.0
 26
0.0
 36
53.3788880271138382
 17
4075.6104736328129547
 27
125.9656829833983949
 37
0.0
 40
23.3450880890357695
 41
2.005224660397074
 42
50.0
 43
0.0
 44
0.0
 50
0.0
 51
0.0
 71
     0
 72
   100
 73
     1
 74
     1
 75
     0
 76
     0
 77
     0
 78
     0
  0
ENDTAB
  0
TABLE
  2
LTYPE
 70
     2
  0
LTYPE
  2
CONTINUOUS
 70
     0
  3
Solid line
 72
    65
 73
     0
 40
0.0
  0
LTYPE
  2
PHANTOM2
 70
     0
  3
___ _ _ ___ _ _ ___ _ _ ___ _ _
 72
    65
 73
     6
 40
1.25
 49
0.625
 49
-0.125
 49
0.125
 49
-0.125
 49
0.125
 49
-0.125
  0
ENDTAB
  0
TABLE
  2
LAYER
 70
     2
  0
LAYER
  2
0
 70
     0
 62
   255
  6
CONTINUOUS
  0
LAYER
  2
DEFPOINTS
 70
     0
 62
     7
  6
CONTINUOUS
  0
ENDTAB
  0
TABLE
  2
STYLE
 70
     1
  0
STYLE
  2
STANDARD
 70
     0
 40
0.0
 41
0.8
 50
0.0
 71
     0
 42
0.2
  3
txt
  4

  0
ENDTAB
  0
TABLE
  2
VIEW
 70
     0
  0
ENDTAB
  0
TABLE
  2
UCS
 70
     0
  0
ENDTAB
  0
TABLE
  2
APPID
 70
     9
  0
APPID
  2
ACAD
 70
     0
  0
APPID
  2
ACAD_MLEADERVER
 70
     0
  0
APPID
  2
ACAD_EXEMPT_FROM_CAD_STANDARDS
 70
     0
  0
APPID
  2
ACAD_NAV_VCDISPLAY
 70
     0
  0
APPID
  2
ACAECLAYERSTANDARD
 70
     0
  0
APPID
  2
ACCMTRANSPARENCY
 70
     0
  0
APPID
  2
ACAD_DSTYLE_DIMJAG
 70
     0
  0
APPID
  2
ACAD_DSTYLE_DIMTALN
 70
     0
  0
APPID
  2
ACDBATTR
 70
     0
  0
ENDTAB
  0
TABLE
  2
DIMSTYLE
 70
     1
  0
DIMSTYLE
  2
STANDARD
 70
     0
  3

  4

  5

  6

  7

 40
1.0
 41
0.1875
 42
0.0625
 43
0.38
 44
0.125
 45
0.0
 46
0.0
 47
0.01
 48
0.01
140
0.15625
141
0.09
142
0.0
143
25.3999999999999986
144
1.0
145
0.0
146
1.0
147
0.09
 71
     1
 72
     0
 73
     1
 74
     1
 75
     0
 76
     0
 77
     0
 78
     4
170
     0
171
     2
172
     0
173
     0
174
     0
175
     0
176
     0
177
     0
178
     0
  0
ENDTAB
  0
ENDSEC
  0
SECTION
  2
BLOCKS
  0
BLOCK
  8
0
  2
$MODEL_SPACE
 70
     0
 10
0.0
 20
0.0
 30
0.0
  3
$MODEL_SPACE
  1

  0
ENDBLK
  5
21
  8
0
  0
BLOCK
 67
     1
  8
0
  2
$PAPER_SPACE
 70
     0
 10
0.0
 20
0.0
 30
0.0
  3
$PAPER_SPACE
  1

  0
ENDBLK
  5
1D
 67
     1
  8
0
  0
ENDSEC
  0
SECTION
  2
ENTITIES
  0
ATTDEF
  5
3930
  8
DEFPOINTS
 10
4186.7873417154141862
 20
159.1095628730986107
 30
0.0
 40
0.001
  1
K-18132IN-SR
  3

  2
MODELNUMBER
 70
     0
1001
ACDBATTR
1070
     0
1070
     1
  0
ATTDEF
  5
3931
  8
DEFPOINTS
 10
4186.7873417154141862
 20
159.1078962064318887
 30
0.0
 40
0.001
  1
FREELANCE
  3

  2
TRADENAME
 70
     0
1001
ACDBATTR
1070
     0
1070
     1
  0
ATTDEF
  5
3932
  8
DEFPOINTS
 10
4186.7873417154141862
 20
159.1062295397651951
 30
0.0
 40
0.001
  1
TOILET
  3

  2
PRODUCT
 70
     0
1001
ACDBATTR
1070
     0
1070
     1
  0
LINE
  5
735A
  8
0
 10
4181.3163629100899925
 20
159.1116603754551022
 30
0.0
 11
4192.2671734515242861
 21
159.1116603754551022
 31
0.0
  0
LINE
  5
735B
  8
0
 10
4181.0751483288668169
 20
158.8741300220814878
 30
0.0
 11
4181.0751483288668169
 21
153.0109706937317071
 31
0.0
  0
ARC
  5
735C
  8
0
 10
4181.3116769956577627
 20
158.8751758175901898
 30
0.0
 40
0.2365309787376374
 50
88.8648392418040487
 51
180.2533277646309102
  0
ARC
  5
735D
  8
0
 10
4181.7269419238327828
 20
153.5971028325431007
 30
0.0
 40
0.0404589737463123
 50
89.3284465036006026
 51
177.2270508586784956
  0
ARC
  5
735E
  8
0
 10
4179.2946987408668065
 20
153.5854742210501058
 30
0.0
 40
2.3918701678017689
 50
346.5703720999396182
 51
0.3254446838422038
  0
ARC
  5
735F
  8
0
 10
4179.7851878005976687
 20
153.4808934854015092
 30
0.0
 40
1.8905434504541501
 50
313.5726033310630214
 51
346.2007678362703018
  0
ARC
  5
7360
  8
0
 10
4184.3442119866349458
 20
148.5083440649083002
 30
0.0
 40
4.8560836670789023
 50
132.1043812668380895
 51
137.666403271892392
  0
ARC
  5
7361
  8
0
 10
4185.8659042306162519
 20
146.9835774070820094
 30
0.0
 40
7.0085699052957828
 50
136.8293639121853005
 51
145.2055606603470039
  0
ARC
  5
7362
  8
0
 10
4183.4428145196689002
 20
148.670264188733114
 30
0.0
 40
4.0562376161566931
 50
145.2397139582502064
 51
152.1758817852089862
  0
ARC
  5
7363
  8
0
 10
4183.435857066517201
 20
148.6792708265737986
 30
0.0
 40
4.0458833737707316
 50
152.2426940321851134
 51
170.9912568669419102
  0
ARC
  5
7364
  8
0
 10
4189.92284562331497
 20
147.6704386816442991
 30
0.0
 40
10.6108372687786598
 50
171.0958964857204023
 51
174.5557153900670073
  0
ARC
  5
7365
  8
0
 10
4207.2668440414790894
 20
146.0163974632764052
 30
0.0
 40
28.0335274481871508
 50
174.5536309311810896
 51
190.512573144658802
  0
ARC
  5
7366
  8
0
 10
4186.0111475366365994
 20
142.0720621437450859
 30
0.0
 40
6.4149610059172497
 50
190.5125731478271121
 51
212.1926883650050968
  0
ARC
  5
7367
  8
0
 10
4185.0819790215864487
 20
141.4870990833551048
 30
0.0
 40
5.3169920121000018
 50
212.1926883635867966
 51
253.3984504007381133
  0
ARC
  5
7368
  8
0
 10
4186.7917652982905565
 20
147.2218965960292962
 30
0.0
 40
11.3012439806741796
 50
253.3984504010115018
 51
270.0000146139429944
  0
ARC
  5
7369
  8
0
 10
4331.5215001638325703
 20
153.3943517656464053
 30
0.0
 40
149.8181891884948982
 50
179.9429257885672087
 51
180.0417529418475908
  0
ARC
  5
736A
  8
0
 10
4179.783842887191895
 20
153.2837765233556979
 30
0.0
 40
1.9195083776912221
 50
314.1406007976440264
 51
0.0417529418485158
  0
ARC
  5
736B
  8
0
 10
4185.7050870911889433
 20
147.1821841118911891
 30
0.0
 40
6.5828773392126392
 50
134.140600797643998
 51
145.8119112762437908
  0
ARC
  5
736C
  8
0
 10
4183.6214139300736861
 20
148.5976137774908921
 30
0.0
 40
4.063922202531784
 50
145.8119112762437908
 51
170.2621582856342002
  0
ARC
  5
736D
  8
0
 10
4189.4474165637602709
 20
147.5977961786745993
 30
0.0
 40
9.9750931456369827
 50
170.2621582856342002
 51
177.4478434129981963
  0
ARC
  5
736E
  8
0
 10
4207.1343702737131025
 20
146.0379641548861969
 30
0.0
 40
27.7246749633171206
 50
175.8548983731506041
 51
190.6063444906029929
  0
ARC
  5
736F
  8
0
 10
4185.8911874410014207
 20
142.0182243486933942
 30
0.0
 40
6.1046963240095868
 50
190.2211771732023919
 51
212.3649139434722883
  0
ARC
  5
7370
  8
0
 10
4185.0525700563475766
 20
141.4586447311905886
 30
0.0
 40
5.0968600900883532
 50
212.0981297143046049
 51
253.6218971627424992
  0
ARC
  5
7371
  8
0
 10
4186.7791215489851311
 20
147.2872098992457097
 30
0.0
 40
11.1757641941388002
 50
253.5553380380748933
 51
270.0648366205891762
  0
LINE
  5
7372
  8
0
 10
4181.7730648084107088
 20
153.6235845632023995
 30
0.0
 11
4191.8104715532017508
 21
153.6235845632023995
 31
0.0
  0
LINE
  5
7373
  8
0
 10
4181.727416125309901
 20
153.6375590272417071
 30
0.0
 11
4182.3371590302549521
 21
153.6375590272417071
 31
0.0
  0
LINE
  5
7374
  8
0
 10
4182.3419864783272715
 20
153.6297346812156093
 30
0.0
 11
4182.3419864783272715
 21
153.6235845632023995
 31
0.0
  0
ARC
  5
7375
  8
0
 10
4182.3339850189213394
 20
153.6301993453571129
 30
0.0
 40
0.0080149401323172
 50
356.6764280024110008
 51
66.6709040724762048
  0
ARC
  5
7376
  8
0
 10
4181.786031361750247
 20
153.5419454461984969
 30
0.0
 40
0.0826624275626571
 50
99.0247738068671737
 51
178.8596410749620986
  0
ARC
  5
7377
  8
0
 10
4179.0193211858650102
 20
152.9702321006159025
 30
0.0
 40
2.0562307445583752
 50
328.5493891757876099
 51
1.1352335745034769
  0
ARC
  5
7378
  8
0
 10
4185.5779185480369051
 20
148.9949690831572866
 30
0.0
 40
5.6130757713801618
 50
148.8635579571883909
 51
151.9081814774417865
  0
LINE
  5
7379
  8
0
 10
4192.5083880327483712
 20
158.8741300220814878
 30
0.0
 11
4192.5083880327483712
 21
153.0109706937317071
 31
0.0
  0
ARC
  5
737A
  8
0
 10
4192.2718593659556063
 20
158.8751758175901898
 30
0.0
 40
0.2365309787376374
 50
359.7466722353690898
 51
91.1351607581959371
  0
ARC
  5
737B
  8
0
 10
4191.8565944377787673
 20
153.5971028325431007
 30
0.0
 40
0.0404589737463123
 50
2.772949141321428
 51
90.671553496399369
  0
ARC
  5
737C
  8
0
 10
4194.2888376207456531
 20
153.5854742210501058
 30
0.0
 40
2.3918701678017689
 50
179.6745553161586031
 51
193.4296279000604102
  0
ARC
  5
737D
  8
0
 10
4193.7983485610157004
 20
153.4808934854015092
 30
0.0
 40
1.8905434504541501
 50
193.7992321637296129
 51
226.427396668937007
  0
ARC
  5
737E
  8
0
 10
4189.2393243749793328
 20
148.5083440649083002
 30
0.0
 40
4.8560836670789023
 50
42.3335967281075867
 51
47.8956187331618111
  0
ARC
  5
737F
  8
0
 10
4187.7176321309980267
 20
146.9835774070820094
 30
0.0
 40
7.0085699052957828
 50
34.7944393396530103
 51
43.1706360878146924
  0
ARC
  5
7380
  8
0
 10
4190.1407218419435594
 20
148.670264188733114
 30
0.0
 40
4.0562376161566931
 50
27.8241182147909996
 51
34.7602860417497794
  0
ARC
  5
7381
  8
0
 10
4190.1476792950970776
 20
148.6792708265737986
 30
0.0
 40
4.0458833737707316
 50
9.0087431330580507
 51
27.7573059678148617
  0
ARC
  5
7382
  8
0
 10
4183.6606907382993086
 20
147.6704386816442991
 30
0.0
 40
10.6108372687786598
 50
5.4442846099329998
 51
8.9041035142795266
  0
ARC
  5
7383
  8
0
 10
4166.3166923201351892
 20
146.0163974632764052
 30
0.0
 40
28.0335274481871508
 50
349.4874268553410843
 51
5.4463690688188828
  0
ARC
  5
7384
  8
0
 10
4187.5723888249758602
 20
142.0720621437450859
 30
0.0
 40
6.4149610059172497
 50
327.8073116349950169
 51
349.4874268521729164
  0
ARC
  5
7385
  8
0
 10
4188.5015573400269204
 20
141.4870990833551048
 30
0.0
 40
5.3169920121000018
 50
286.6015495992618867
 51
327.8073116364132034
  0
ARC
  5
7386
  8
0
 10
4186.7917710633219031
 20
147.2218965960292962
 30
0.0
 40
11.3012439806741796
 50
269.9999853860568919
 51
286.6015495989885267
  0
ARC
  5
7387
  8
0
 10
4042.0620361977807988
 20
153.3943517656464053
 30
0.0
 40
149.8181891884948982
 50
359.9582470581515281
 51
0.0570742114328382
  0
ARC
  5
7388
  8
0
 10
4193.7996934744205646
 20
153.2837765233556979
 30
0.0
 40
1.9195083776912221
 50
179.9582470581514997
 51
225.859399202356002
  0
ARC
  5
7389
  8
0
 10
4187.8784492704244258
 20
147.1821841118911891
 30
0.0
 40
6.5828773392126392
 50
34.1880887237562234
 51
45.8593992023559878
  0
ARC
  5
738A
  8
0
 10
4189.9621224315387735
 20
148.5976137774908921
 30
0.0
 40
4.063922202531784
 50
9.7378417143657892
 51
34.1880887237562234
  0
ARC
  5
738B
  8
0
 10
4184.1361197978540076
 20
147.5977961786745993
 30
0.0
 40
9.9750931456369827
 50
2.5521565870017571
 51
9.7378417143657892
  0
ARC
  5
738C
  8
0
 10
4166.4491660878993571
 20
146.0379641548861969
 30
0.0
 40
27.7246749633171206
 50
349.3936555093969218
 51
4.1451016268493444
  0
ARC
  5
738D
  8
0
 10
4187.6923489206119484
 20
142.0182243486933942
 30
0.0
 40
6.1046963240095868
 50
327.6350860565269727
 51
349.7788228267975796
  0
ARC
  5
738E
  8
0
 10
4188.5309663052657925
 20
141.4586447311905886
 30
0.0
 40
5.0968600900883532
 50
286.3781028372574724
 51
327.9018702856953951
  0
ARC
  5
738F
  8
0
 10
4186.8044148126291475
 20
147.2872098992457097
 30
0.0
 40
11.1757641941388002
 50
269.9351633794108238
 51
286.4446619619250782
  0
LINE
  5
7390
  8
0
 10
4191.8561202363043776
 20
153.6375590272417071
 30
0.0
 11
4191.2463773313593265
 21
153.6375590272417071
 31
0.0
  0
LINE
  5
7391
  8
0
 10
4191.2415498832870071
 20
153.6297346812156093
 30
0.0
 11
4191.2415498832870071
 21
153.6235845632023995
 31
0.0
  0
ARC
  5
7392
  8
0
 10
4191.2495513426920297
 20
153.6301993453571129
 30
0.0
 40
0.0080149401323172
 50
113.3290959275237952
 51
183.3235719975889992
  0
ARC
  5
7393
  8
0
 10
4191.7975049998631221
 20
153.5419454461984969
 30
0.0
 40
0.0826624275626571
 50
1.140358925037948
 51
80.9752261931328547
  0
ARC
  5
7394
  8
0
 10
4194.5642151757483589
 20
152.9702321006159025
 30
0.0
 40
2.0562307445583752
 50
178.864766425496498
 51
211.4506108242123901
  0
ARC
  5
7395
  8
0
 10
4188.0056178135755545
 20
148.9949690831572866
 30
0.0
 40
5.6130757713801618
 50
28.0918185225581709
 51
31.1364420428115984
  0
ENDSEC
  0
EOF
