  0
SECTION
  2
HEADER
  9
$ACADVER
  1
AC1009
  9
$INSBASE
 10
214.3046469712392934
 20
-21.8468712517321109
 30
0.0
  9
$EXTMIN
 10
206.5509844096218046
 20
-21.8514943423331687
 30
0.0
  9
$EXTMAX
 10
222.0583095328568106
 20
-3.106871251732112
 30
0.0
  9
$LIMMIN
 10
0.0
 20
0.0
  9
$LIMMAX
 10
11.6929133858000007
 20
8.2677165353999982
  9
$ORTHOMODE
 70
     0
  9
$REGENMODE
 70
     1
  9
$FILLMODE
 70
     1
  9
$QTEXTMODE
 70
     0
  9
$MIRRTEXT
 70
     0
  9
$DRAGMODE
 70
     2
  9
$LTSCALE
 40
0.6431102362
  9
$OSMODE
 70
  3839
  9
$ATTMODE
 70
     1
  9
$TEXTSIZE
 40
0.2
  9
$TRACEWID
 40
0.05
  9
$TEXTSTYLE
  7
STANDARD
  9
$CLAYER
  8
0
  9
$CELTYPE
  6
BYLAYER
  9
$CECOLOR
 62
   256
  9
$DIMSCALE
 40
1.0
  9
$DIMASZ
 40
0.1875
  9
$DIMEXO
 40
0.0625
  9
$DIMDLI
 40
0.4443307087
  9
$DIMRND
 40
0.0
  9
$DIMDLE
 40
0.0
  9
$DIMEXE
 40
0.125
  9
$DIMTP
 40
0.01
  9
$DIMTM
 40
0.01
  9
$DIMTXT
 40
1.0
  9
$DIMCEN
 40
0.1052362205
  9
$DIMTSZ
 40
0.0
  9
$DIMTOL
 70
     1
  9
$DIMLIM
 70
     0
  9
$DIMTIH
 70
     1
  9
$DIMTOH
 70
     1
  9
$DIMSE1
 70
     0
  9
$DIMSE2
 70
     0
  9
$DIMTAD
 70
     0
  9
$DIMZIN
 70
     0
  9
$DIMBLK
  1

  9
$DIMASO
 70
     1
  9
$DIMSHO
 70
     1
  9
$DIMPOST
  1
\X
  9
$DIMAPOST
  1

  9
$DIMALT
 70
     1
  9
$DIMALTD
 70
     2
  9
$DIMALTF
 40
25.3999999999999986
  9
$DIMLFAC
 40
1.0
  9
$DIMTOFL
 70
     0
  9
$DIMTVP
 40
0.0
  9
$DIMTIX
 70
     0
  9
$DIMSOXD
 70
     0
  9
$DIMSAH
 70
     0
  9
$DIMBLK1
  1

  9
$DIMBLK2
  1

  9
$DIMSTYLE
  2
STANDARD
  9
$DIMCLRD
 70
     0
  9
$DIMCLRE
 70
     0
  9
$DIMCLRT
 70
     0
  9
$DIMTFAC
 40
1.0
  9
$DIMGAP
 40
0.09
  9
$LUNITS
 70
     2
  9
$LUPREC
 70
     4
  9
$SKETCHINC
 40
0.1
  9
$FILLETRAD
 40
0.0
  9
$AUNITS
 70
     0
  9
$AUPREC
 70
     0
  9
$MENU
  1
.
  9
$ELEVATION
 40
0.0
  9
$PELEVATION
 40
0.0
  9
$THICKNESS
 40
0.0
  9
$LIMCHECK
 70
     0
  9
$BLIPMODE
 70
     0
  9
$CHAMFERA
 40
0.0
  9
$CHAMFERB
 40
0.0
  9
$SKPOLY
 70
     0
  9
$TDCREATE
 40
2458172.4620254631154239
  9
$TDUPDATE
 40
2459074.696574074216187
  9
$TDINDWG
 40
0.104461956
  9
$TDUSRTIMER
 40
0.104461956
  9
$USRTIMER
 70
     1
  9
$ANGBASE
 50
0.0
  9
$ANGDIR
 70
     0
  9
$PDMODE
 70
     0
  9
$PDSIZE
 40
0.3125
  9
$PLINEWID
 40
0.0
  9
$COORDS
 70
     1
  9
$SPLFRAME
 70
     0
  9
$SPLINETYPE
 70
     6
  9
$SPLINESEGS
 70
     8
  9
$ATTDIA
 70
     1
  9
$ATTREQ
 70
     1
  9
$HANDLING
 70
     1
  9
$HANDSEED
  5
3C13
  9
$SURFTAB1
 70
     6
  9
$SURFTAB2
 70
     6
  9
$SURFTYPE
 70
     6
  9
$SURFU
 70
     6
  9
$SURFV
 70
     6
  9
$UCSNAME
  2

  9
$UCSORG
 10
0.0
 20
0.0
 30
0.0
  9
$UCSXDIR
 10
1.0
 20
0.0
 30
0.0
  9
$UCSYDIR
 10
0.0
 20
1.0
 30
0.0
  9
$PUCSNAME
  2

  9
$PUCSORG
 10
0.0
 20
0.0
 30
0.0
  9
$PUCSXDIR
 10
1.0
 20
0.0
 30
0.0
  9
$PUCSYDIR
 10
0.0
 20
1.0
 30
0.0
  9
$USERI1
 70
     0
  9
$USERI2
 70
     0
  9
$USERI3
 70
     0
  9
$USERI4
 70
     0
  9
$USERI5
 70
     0
  9
$USERR1
 40
0.0
  9
$USERR2
 40
0.0
  9
$USERR3
 40
0.0
  9
$USERR4
 40
0.0
  9
$USERR5
 40
0.0
  9
$WORLDVIEW
 70
     1
  9
$SHADEDGE
 70
     3
  9
$SHADEDIF
 70
    70
  9
$TILEMODE
 70
     1
  9
$MAXACTVP
 70
    64
  9
$PLIMCHECK
 70
     0
  9
$PEXTMIN
 10
1.0000000000000000E+20
 20
1.0000000000000000E+20
 30
1.0000000000000000E+20
  9
$PEXTMAX
 10
-1.0000000000000000E+20
 20
-1.0000000000000000E+20
 30
-1.0000000000000000E+20
  9
$PLIMMIN
 10
0.0
 20
0.0
  9
$PLIMMAX
 10
12.0
 20
9.0
  9
$UNITMODE
 70
     0
  9
$VISRETAIN
 70
     1
  9
$PLINEGEN
 70
     0
  9
$PSLTSCALE
 70
     1
  0
ENDSEC
  0
SECTION
  2
TABLES
  0
TABLE
  2
VPORT
 70
     1
  0
VPORT
  2
*ACTIVE
 70
     0
 10
0.0
 20
0.0
 11
1.0
 21
1.0
 12
0.0
 22
0.0
 13
0.0
 23
0.0
 14
1.0
 24
1.0
 15
0.0
 25
0.0
 16
-0.0000000000000284
 26
0.0
 36
93.0765402607620729
 17
214.3046417236328125
 27
-12.4952910096675591
 37
0.0
 40
24.3029065676137392
 41
3.0287253141831241
 42
50.0
 43
0.0
 44
0.0
 50
0.0
 51
0.0
 71
     0
 72
   100
 73
     1
 74
     1
 75
     0
 76
     0
 77
     0
 78
     0
  0
ENDTAB
  0
TABLE
  2
LTYPE
 70
     2
  0
LTYPE
  2
CONTINUOUS
 70
     0
  3
Solid line
 72
    65
 73
     0
 40
0.0
  0
LTYPE
  2
PHANTOM2
 70
     0
  3
___ _ _ ___ _ _ ___ _ _ ___ _ _
 72
    65
 73
     6
 40
1.25
 49
0.625
 49
-0.125
 49
0.125
 49
-0.125
 49
0.125
 49
-0.125
  0
ENDTAB
  0
TABLE
  2
LAYER
 70
     2
  0
LAYER
  2
0
 70
     0
 62
   255
  6
CONTINUOUS
  0
LAYER
  2
DEFPOINTS
 70
     0
 62
     7
  6
CONTINUOUS
  0
ENDTAB
  0
TABLE
  2
STYLE
 70
     1
  0
STYLE
  2
STANDARD
 70
     0
 40
0.0
 41
0.8
 50
0.0
 71
     0
 42
0.2
  3
txt
  4

  0
ENDTAB
  0
TABLE
  2
VIEW
 70
     0
  0
ENDTAB
  0
TABLE
  2
UCS
 70
     0
  0
ENDTAB
  0
TABLE
  2
APPID
 70
    10
  0
APPID
  2
ACAD
 70
     0
  0
APPID
  2
ACAD_MLEADERVER
 70
     0
  0
APPID
  2
ACAD_EXEMPT_FROM_CAD_STANDARDS
 70
     0
  0
APPID
  2
ACAD_DSTYLE_DIMJAG
 70
     0
  0
APPID
  2
ACAD_DSTYLE_DIMTALN
 70
     0
  0
APPID
  2
ACAD_NAV_VCDISPLAY
 70
     0
  0
APPID
  2
ACAECLAYERSTANDARD
 70
     0
  0
APPID
  2
ACCMTRANSPARENCY
 70
     0
  0
APPID
  2
ACDBATTR
 70
     0
  0
APPID
  2
ACADANNOTATIVE
 70
     0
  0
ENDTAB
  0
TABLE
  2
DIMSTYLE
 70
     2
  0
DIMSTYLE
  2
STANDARD
 70
     0
  3

  4

  5

  6

  7

 40
1.0
 41
0.1875
 42
0.0625
 43
0.38
 44
0.125
 45
0.0
 46
0.0
 47
0.01
 48
0.01
140
0.15625
141
0.09
142
0.0
143
25.3999999999999986
144
1.0
145
0.0
146
1.0
147
0.09
 71
     1
 72
     0
 73
     1
 74
     1
 75
     0
 76
     0
 77
     0
 78
     4
170
     0
171
     2
172
     0
173
     0
174
     0
175
     0
176
     0
177
     0
178
     0
  0
DIMSTYLE
  2
ANNOTATIVE
 70
     0
  3

  4

  5

  6

  7

 40
0.0
 41
0.18
 42
0.0625
 43
0.38
 44
0.18
 45
0.0
 46
0.0
 47
0.0
 48
0.0
140
0.18
141
0.09
142
0.0
143
25.3999999999999986
144
1.0
145
0.0
146
1.0
147
0.09
 71
     0
 72
     0
 73
     1
 74
     1
 75
     0
 76
     0
 77
     0
 78
     0
170
     0
171
     2
172
     0
173
     0
174
     0
175
     0
176
     0
177
     0
178
     0
  0
ENDTAB
  0
ENDSEC
  0
SECTION
  2
BLOCKS
  0
BLOCK
  8
0
  2
$MODEL_SPACE
 70
     0
 10
0.0
 20
0.0
 30
0.0
  3
$MODEL_SPACE
  1

  0
ENDBLK
  5
21
  8
0
  0
BLOCK
 67
     1
  8
0
  2
$PAPER_SPACE
 70
     0
 10
0.0
 20
0.0
 30
0.0
  3
$PAPER_SPACE
  1

  0
ENDBLK
  5
1D
 67
     1
  8
0
  0
BLOCK
  8
0
  2
_FILLED
 70
     0
 10
0.0
 20
0.0
 30
0.0
  3
_FILLED
  1

  0
SOLID
  5
2F2B
  8
0
  6
BYBLOCK
 62
     0
 10
0.0
 20
0.0
 30
0.0
 11
-1.0
 21
0.1666666667
 31
0.0
 12
-1.0
 22
-0.1666666667
 32
0.0
 13
-1.0
 23
-0.1666666667
 33
0.0
  0
ENDBLK
  5
2F2C
  8
0
  6
BYBLOCK
 62
     0
  0
BLOCK
  8
0
  2
A$CBC74E0AA
 70
     0
 10
0.0
 20
0.0
 30
0.0
  3
A$CBC74E0AA
  1

  0
ARC
  5
3264
  8
0
 62
     3
 10
-61.9647946134706729
 20
0.5679703708157513
 30
0.0
 40
62.1265672047464719
 50
359.476186115906728
 51
4.1356679026520551
  0
ENDBLK
  5
3268
  8
0
  0
ENDSEC
  0
SECTION
  2
ENTITIES
  0
ATTDEF
  5
2E1C
  8
DEFPOINTS
 10
214.3047855859221045
 20
-21.8481610089998384
 30
0.0
 40
0.001
  1
K-18133IN-2SP
  3

  2
MODELNUMBER
 70
     0
1001
ACDBATTR
1070
     0
1070
     1
  0
ATTDEF
  5
2E1D
  8
DEFPOINTS
 10
214.3047855859221045
 20
-21.8498276756665106
 30
0.0
 40
0.001
  1
PRESQUILE
  3

  2
TRADENAME
 70
     0
1001
ACDBATTR
1070
     0
1070
     1
  0
ATTDEF
  5
2E1E
  8
DEFPOINTS
 10
214.3047855859221045
 20
-21.8514943423331687
 30
0.0
 40
0.001
  1
TOILET
  3

  2
PRODUCT
 70
     0
1001
ACDBATTR
1070
     0
1070
     1
  0
LINE
  5
39A0
  8
0
 10
207.0545637809034076
 20
-6.1229475299247467
 30
0.0
 11
221.5547301615752076
 21
-6.1229475299247467
 31
0.0
  0
LINE
  5
39A1
  8
0
 10
221.9800053914393061
 20
-5.989212120268891
 30
0.0
 11
206.6292885510393091
 21
-5.989212120268891
 31
0.0
  0
ARC
  5
39A2
  8
0
 10
221.979898627717688
 20
-5.9102900049177443
 30
0.0
 40
0.0789221875646647
 50
270.0775081470363261
 51
353.4746585435835868
  0
ARC
  5
39A3
  8
0
 10
219.0741519405829081
 20
-6.0079447742146463
 30
0.0
 40
2.985475123696705
 50
1.7022657680427791
 51
24.0168691962397816
  0
ARC
  5
39A4
  8
0
 10
220.288424333716705
 20
-5.4926611591669321
 30
0.0
 40
1.6667705120491929
 50
24.8261730230441593
 51
71.8955812121360367
  0
ARC
  5
39A5
  8
0
 10
221.5114607444201908
 20
-6.3691951221231484
 30
0.0
 40
0.2500202374297856
 50
355.0294874784256081
 51
80.0340053098914268
  0
ARC
  5
39A6
  8
0
 10
185.4740475613359081
 20
-0.0539618178823993
 30
0.0
 40
36.8356598600277181
 50
333.6213067584125724
 51
350.0940410349332979
  0
ARC
  5
39A7
  8
0
 10
214.11343106603141
 20
-16.9674410038256092
 30
0.0
 40
2.245324568580954
 50
318.0019437475301061
 51
353.7793840020934795
  0
ARC
  5
39A8
  8
0
 10
220.9504061128274088
 20
-5.457693788138914
 30
0.0
 40
0.6102584896212051
 50
270.0009907231402053
 51
299.4281581034003921
  0
LINE
  5
39A9
  8
0
 10
220.9504166650393131
 20
-6.0679522776688897
 30
0.0
 11
220.2572984491148986
 21
-6.0679642626398858
 31
0.0
  0
ARC
  5
39AA
  8
0
 10
220.2572879011806037
 20
-5.4579531593114039
 30
0.0
 40
0.6100111034196725
 50
240.5634499312112098
 51
270.0009907231402053
  0
ARC
  5
39AB
  8
0
 10
220.5800857901126051
 20
-5.726415371245781
 30
0.0
 40
0.4039250109550686
 50
237.7331026009188975
 51
259.0211235848257729
  0
ARC
  5
39AC
  8
0
 10
219.1492253509775878
 20
-5.4816373845400816
 30
0.0
 40
0.6747219615864326
 50
288.1064750787746789
 51
311.2123911384600774
  0
ARC
  5
39AD
  8
0
 10
218.6667400579891876
 20
-5.4966693496743453
 30
0.0
 40
0.65696361456529
 50
228.5666576611934886
 51
252.4192179044036948
  0
LINE
  5
39AE
  8
0
 10
218.424450776023491
 20
-6.1073223564688881
 30
0.0
 11
208.1636153065034023
 21
-6.1073223564688881
 31
0.0
  0
ARC
  5
39AF
  8
0
 10
206.6293953147608988
 20
-5.9102900049177443
 30
0.0
 40
0.0789221875646647
 50
186.5253414564161005
 51
269.9224918529636739
  0
ARC
  5
39B0
  8
0
 10
209.5351420018957072
 20
-6.0079447742146463
 30
0.0
 40
2.985475123696705
 50
155.98313080376019
 51
178.2977342319570084
  0
ARC
  5
39B1
  8
0
 10
208.3208696087619103
 20
-5.4926611591669321
 30
0.0
 40
1.6667705120491929
 50
108.1044187878639065
 51
155.1738269769558087
  0
ARC
  5
39B2
  8
0
 10
207.097833198058396
 20
-6.3691951221231484
 30
0.0
 40
0.2500202374297856
 50
99.9659946901086016
 51
184.9705125215745056
  0
ARC
  5
39B3
  8
0
 10
243.1352463811427072
 20
-0.0539618178823993
 30
0.0
 40
36.8356598600277181
 50
189.9059589650667021
 51
206.3786932415872002
  0
ARC
  5
39B4
  8
0
 10
207.6588878296512064
 20
-5.457693788138914
 30
0.0
 40
0.6102584896212051
 50
240.5718418965994942
 51
269.9990092768597947
  0
LINE
  5
39B5
  8
0
 10
207.6588772774393021
 20
-6.0679522776688897
 30
0.0
 11
208.3519954933636882
 21
-6.0679642626398858
 31
0.0
  0
ARC
  5
39B6
  8
0
 10
208.3520060412978978
 20
-5.4579531593114039
 30
0.0
 40
0.6100111034196725
 50
269.9990092768597947
 51
299.4365500687887902
  0
ARC
  5
39B7
  8
0
 10
208.0292081523660102
 20
-5.726415371245781
 30
0.0
 40
0.4039250109550686
 50
280.9788764151742839
 51
302.2668973990795962
  0
ARC
  5
39B8
  8
0
 10
209.460068591500999
 20
-5.4816373845400816
 30
0.0
 40
0.6747219615864326
 50
228.7876088615398089
 51
251.8935249212252074
  0
ARC
  5
39B9
  8
0
 10
209.942553884489314
 20
-5.4966693496743453
 30
0.0
 40
0.65696361456529
 50
287.5807820955963052
 51
311.433342338806483
  0
ARC
  5
39BA
  8
0
 10
214.3046469712392934
 20
-29.8772109101466583
 30
0.0
 40
26.7703396584145494
 50
75.9439780773826385
 51
104.0560219226174041
  0
ARC
  5
39BB
  8
0
 10
211.840508903714607
 20
-6.0036931102748126
 30
0.0
 40
12.3494436392870099
 50
291.1117001124703734
 51
302.4912514123387837
  0
ARC
  5
39BC
  8
0
 10
216.3621105447901982
 20
-6.8087264429201708
 30
0.0
 40
11.4523148144372602
 50
237.0613706181717077
 51
249.3356521562971011
  0
ARC
  5
39BD
  8
0
 10
214.3046469712392934
 20
-8.4545308841444644
 30
0.0
 40
8.9909056329011161
 50
242.369996676411688
 51
297.6300033235867204
  0
ARC
  5
39BF
  8
0
 10
214.4958628764470916
 20
-16.9674410038256092
 30
0.0
 40
2.245324568580954
 50
186.2206159979064068
 51
221.9980562524698087
  0
ARC
  5
39C0
  8
0
 10
214.3046469712392934
 20
-16.9004967253233893
 30
0.0
 40
2.1553492537013592
 50
226.7270849228196994
 51
313.2729150771803006
  0
ENDSEC
  0
EOF
