  0
SECTION
  2
HEADER
  9
$ACADVER
  1
AC1009
  9
$INSBASE
 10
213.3932703580568955
 20
-22.8120600182281095
 30
0.0
  9
$EXTMIN
 10
205.639607796439293
 20
-44.9494600182281232
 30
0.0
  9
$EXTMAX
 10
221.146932919674299
 20
-22.8075196419816209
 30
0.0
  9
$LIMMIN
 10
0.0
 20
0.0
  9
$LIMMAX
 10
11.6929133858000007
 20
8.2677165353999982
  9
$ORTHOMODE
 70
     0
  9
$REGENMODE
 70
     1
  9
$FILLMODE
 70
     1
  9
$QTEXTMODE
 70
     0
  9
$MIRRTEXT
 70
     0
  9
$DRAGMODE
 70
     2
  9
$LTSCALE
 40
0.6431102362
  9
$OSMODE
 70
  3839
  9
$ATTMODE
 70
     1
  9
$TEXTSIZE
 40
0.2
  9
$TRACEWID
 40
0.05
  9
$TEXTSTYLE
  7
STANDARD
  9
$CLAYER
  8
0
  9
$CELTYPE
  6
BYLAYER
  9
$CECOLOR
 62
   256
  9
$DIMSCALE
 40
1.0
  9
$DIMASZ
 40
0.1875
  9
$DIMEXO
 40
0.0625
  9
$DIMDLI
 40
0.4443307087
  9
$DIMRND
 40
0.0
  9
$DIMDLE
 40
0.0
  9
$DIMEXE
 40
0.125
  9
$DIMTP
 40
0.01
  9
$DIMTM
 40
0.01
  9
$DIMTXT
 40
1.0
  9
$DIMCEN
 40
0.1052362205
  9
$DIMTSZ
 40
0.0
  9
$DIMTOL
 70
     1
  9
$DIMLIM
 70
     0
  9
$DIMTIH
 70
     1
  9
$DIMTOH
 70
     1
  9
$DIMSE1
 70
     0
  9
$DIMSE2
 70
     0
  9
$DIMTAD
 70
     0
  9
$DIMZIN
 70
     0
  9
$DIMBLK
  1

  9
$DIMASO
 70
     1
  9
$DIMSHO
 70
     1
  9
$DIMPOST
  1
\X
  9
$DIMAPOST
  1

  9
$DIMALT
 70
     1
  9
$DIMALTD
 70
     2
  9
$DIMALTF
 40
25.3999999999999986
  9
$DIMLFAC
 40
1.0
  9
$DIMTOFL
 70
     0
  9
$DIMTVP
 40
0.0
  9
$DIMTIX
 70
     0
  9
$DIMSOXD
 70
     0
  9
$DIMSAH
 70
     0
  9
$DIMBLK1
  1

  9
$DIMBLK2
  1

  9
$DIMSTYLE
  2
STANDARD
  9
$DIMCLRD
 70
     0
  9
$DIMCLRE
 70
     0
  9
$DIMCLRT
 70
     0
  9
$DIMTFAC
 40
1.0
  9
$DIMGAP
 40
0.09
  9
$LUNITS
 70
     2
  9
$LUPREC
 70
     4
  9
$SKETCHINC
 40
0.1
  9
$FILLETRAD
 40
0.0
  9
$AUNITS
 70
     0
  9
$AUPREC
 70
     0
  9
$MENU
  1
.
  9
$ELEVATION
 40
0.0
  9
$PELEVATION
 40
0.0
  9
$THICKNESS
 40
0.0
  9
$LIMCHECK
 70
     0
  9
$BLIPMODE
 70
     0
  9
$CHAMFERA
 40
0.0
  9
$CHAMFERB
 40
0.0
  9
$SKPOLY
 70
     0
  9
$TDCREATE
 40
2458172.4620254631154239
  9
$TDUPDATE
 40
2459074.6616203710436821
  9
$TDINDWG
 40
0.1003878819
  9
$TDUSRTIMER
 40
0.1003878819
  9
$USRTIMER
 70
     1
  9
$ANGBASE
 50
0.0
  9
$ANGDIR
 70
     0
  9
$PDMODE
 70
     0
  9
$PDSIZE
 40
0.3125
  9
$PLINEWID
 40
0.0
  9
$COORDS
 70
     1
  9
$SPLFRAME
 70
     0
  9
$SPLINETYPE
 70
     6
  9
$SPLINESEGS
 70
     8
  9
$ATTDIA
 70
     1
  9
$ATTREQ
 70
     1
  9
$HANDLING
 70
     1
  9
$HANDSEED
  5
3D25
  9
$SURFTAB1
 70
     6
  9
$SURFTAB2
 70
     6
  9
$SURFTYPE
 70
     6
  9
$SURFU
 70
     6
  9
$SURFV
 70
     6
  9
$UCSNAME
  2

  9
$UCSORG
 10
0.0
 20
0.0
 30
0.0
  9
$UCSXDIR
 10
1.0
 20
0.0
 30
0.0
  9
$UCSYDIR
 10
0.0
 20
1.0
 30
0.0
  9
$PUCSNAME
  2

  9
$PUCSORG
 10
0.0
 20
0.0
 30
0.0
  9
$PUCSXDIR
 10
1.0
 20
0.0
 30
0.0
  9
$PUCSYDIR
 10
0.0
 20
1.0
 30
0.0
  9
$USERI1
 70
     0
  9
$USERI2
 70
     0
  9
$USERI3
 70
     0
  9
$USERI4
 70
     0
  9
$USERI5
 70
     0
  9
$USERR1
 40
0.0
  9
$USERR2
 40
0.0
  9
$USERR3
 40
0.0
  9
$USERR4
 40
0.0
  9
$USERR5
 40
0.0
  9
$WORLDVIEW
 70
     1
  9
$SHADEDGE
 70
     3
  9
$SHADEDIF
 70
    70
  9
$TILEMODE
 70
     1
  9
$MAXACTVP
 70
    64
  9
$PLIMCHECK
 70
     0
  9
$PEXTMIN
 10
1.0000000000000000E+20
 20
1.0000000000000000E+20
 30
1.0000000000000000E+20
  9
$PEXTMAX
 10
-1.0000000000000000E+20
 20
-1.0000000000000000E+20
 30
-1.0000000000000000E+20
  9
$PLIMMIN
 10
0.0
 20
0.0
  9
$PLIMMAX
 10
12.0
 20
9.0
  9
$UNITMODE
 70
     0
  9
$VISRETAIN
 70
     1
  9
$PLINEGEN
 70
     0
  9
$PSLTSCALE
 70
     1
  0
ENDSEC
  0
SECTION
  2
TABLES
  0
TABLE
  2
VPORT
 70
     1
  0
VPORT
  2
*ACTIVE
 70
     0
 10
0.0
 20
0.0
 11
1.0
 21
1.0
 12
0.0
 22
0.0
 13
0.0
 23
0.0
 14
1.0
 24
1.0
 15
0.0
 25
0.0
 16
-0.0000000000000284
 26
0.0
 36
103.4306675781321019
 17
213.3932647705078125
 27
-33.8627289372017515
 37
0.0
 40
27.0064383929076612
 41
3.0287253141831241
 42
50.0
 43
0.0
 44
0.0
 50
0.0
 51
0.0
 71
     0
 72
   100
 73
     1
 74
     1
 75
     0
 76
     0
 77
     0
 78
     0
  0
ENDTAB
  0
TABLE
  2
LTYPE
 70
     2
  0
LTYPE
  2
CONTINUOUS
 70
     0
  3
Solid line
 72
    65
 73
     0
 40
0.0
  0
LTYPE
  2
PHANTOM2
 70
     0
  3
___ _ _ ___ _ _ ___ _ _ ___ _ _
 72
    65
 73
     6
 40
1.25
 49
0.625
 49
-0.125
 49
0.125
 49
-0.125
 49
0.125
 49
-0.125
  0
ENDTAB
  0
TABLE
  2
LAYER
 70
     2
  0
LAYER
  2
0
 70
     0
 62
   255
  6
CONTINUOUS
  0
LAYER
  2
DEFPOINTS
 70
     0
 62
     7
  6
CONTINUOUS
  0
ENDTAB
  0
TABLE
  2
STYLE
 70
     1
  0
STYLE
  2
STANDARD
 70
     0
 40
0.0
 41
0.8
 50
0.0
 71
     0
 42
0.2
  3
txt
  4

  0
ENDTAB
  0
TABLE
  2
VIEW
 70
     0
  0
ENDTAB
  0
TABLE
  2
UCS
 70
     0
  0
ENDTAB
  0
TABLE
  2
APPID
 70
    10
  0
APPID
  2
ACAD
 70
     0
  0
APPID
  2
ACAD_MLEADERVER
 70
     0
  0
APPID
  2
ACAD_EXEMPT_FROM_CAD_STANDARDS
 70
     0
  0
APPID
  2
ACAD_DSTYLE_DIMJAG
 70
     0
  0
APPID
  2
ACAD_DSTYLE_DIMTALN
 70
     0
  0
APPID
  2
ACAD_NAV_VCDISPLAY
 70
     0
  0
APPID
  2
ACAECLAYERSTANDARD
 70
     0
  0
APPID
  2
ACCMTRANSPARENCY
 70
     0
  0
APPID
  2
ACDBATTR
 70
     0
  0
APPID
  2
ACADANNOTATIVE
 70
     0
  0
ENDTAB
  0
TABLE
  2
DIMSTYLE
 70
     2
  0
DIMSTYLE
  2
STANDARD
 70
     0
  3

  4

  5

  6

  7

 40
1.0
 41
0.1875
 42
0.0625
 43
0.38
 44
0.125
 45
0.0
 46
0.0
 47
0.01
 48
0.01
140
0.15625
141
0.09
142
0.0
143
25.3999999999999986
144
1.0
145
0.0
146
1.0
147
0.09
 71
     1
 72
     0
 73
     1
 74
     1
 75
     0
 76
     0
 77
     0
 78
     4
170
     0
171
     2
172
     0
173
     0
174
     0
175
     0
176
     0
177
     0
178
     0
  0
DIMSTYLE
  2
ANNOTATIVE
 70
     0
  3

  4

  5

  6

  7

 40
0.0
 41
0.18
 42
0.0625
 43
0.38
 44
0.18
 45
0.0
 46
0.0
 47
0.0
 48
0.0
140
0.18
141
0.09
142
0.0
143
25.3999999999999986
144
1.0
145
0.0
146
1.0
147
0.09
 71
     0
 72
     0
 73
     1
 74
     1
 75
     0
 76
     0
 77
     0
 78
     0
170
     0
171
     2
172
     0
173
     0
174
     0
175
     0
176
     0
177
     0
178
     0
  0
ENDTAB
  0
ENDSEC
  0
SECTION
  2
BLOCKS
  0
BLOCK
  8
0
  2
$MODEL_SPACE
 70
     0
 10
0.0
 20
0.0
 30
0.0
  3
$MODEL_SPACE
  1

  0
ENDBLK
  5
21
  8
0
  0
BLOCK
 67
     1
  8
0
  2
$PAPER_SPACE
 70
     0
 10
0.0
 20
0.0
 30
0.0
  3
$PAPER_SPACE
  1

  0
ENDBLK
  5
1D
 67
     1
  8
0
  0
BLOCK
  8
0
  2
_FILLED
 70
     0
 10
0.0
 20
0.0
 30
0.0
  3
_FILLED
  1

  0
SOLID
  5
2F2B
  8
0
  6
BYBLOCK
 62
     0
 10
0.0
 20
0.0
 30
0.0
 11
-1.0
 21
0.1666666667
 31
0.0
 12
-1.0
 22
-0.1666666667
 32
0.0
 13
-1.0
 23
-0.1666666667
 33
0.0
  0
ENDBLK
  5
2F2C
  8
0
  6
BYBLOCK
 62
     0
  0
BLOCK
  8
0
  2
A$CBC74E0AA
 70
     0
 10
0.0
 20
0.0
 30
0.0
  3
A$CBC74E0AA
  1

  0
ARC
  5
3264
  8
0
 62
     3
 10
-61.9647946134706729
 20
0.5679703708157513
 30
0.0
 40
62.1265672047464719
 50
359.476186115906728
 51
4.1356679026520551
  0
ENDBLK
  5
3268
  8
0
  0
ENDSEC
  0
SECTION
  2
ENTITIES
  0
ATTDEF
  5
2E1C
  8
DEFPOINTS
 10
213.3935201295828961
 20
-22.8085196419816185
 30
0.0
 40
0.001
  1
K-18133IN-SP
  3

  2
MODELNUMBER
 70
     0
1001
ACDBATTR
1070
     0
1070
     1
  0
ATTDEF
  5
2E1D
  8
DEFPOINTS
 10
213.3935201295828961
 20
-22.8101863086482801
 30
0.0
 40
0.001
  1
PRESQUILE
  3

  2
TRADENAME
 70
     0
1001
ACDBATTR
1070
     0
1070
     1
  0
ATTDEF
  5
2E1E
  8
DEFPOINTS
 10
213.3935201295828961
 20
-22.8118529753149488
 30
0.0
 40
0.001
  1
TOILET
  3

  2
PRODUCT
 70
     0
1001
ACDBATTR
1070
     0
1070
     1
  0
LINE
  5
391B
  8
0
 10
218.5215286213569073
 20
-22.8120600182281095
 30
0.0
 11
208.2650120947793937
 21
-22.8120600182281095
 31
0.0
  0
ARC
  5
391C
  8
0
 10
218.5214178231991866
 20
-23.0622071183757384
 30
0.0
 40
0.2501471246856431
 50
15.9675716484214707
 51
89.9746218669114768
  0
ARC
  5
391D
  8
0
 10
-535.4963942554387586
 20
-240.2080260828585097
 30
0.0
 40
784.9126013374211652
 50
15.7513267043513796
 51
16.0655756319969711
  0
ARC
  5
391E
  8
0
 10
211.3160350914700985
 20
-31.4494336908800918
 30
0.0
 40
9.6453647547718138
 50
9.6324932569354331
 51
26.5809349657739205
  0
ARC
  5
391F
  8
0
 10
186.6993058483423056
 20
-34.5665792479979714
 30
0.0
 40
34.452493808776893
 50
0.9630556192873132
 51
7.8929093290664181
  0
ARC
  5
3920
  8
0
 10
205.3321988729287
 20
-33.8723771543744476
 30
0.0
 40
15.8151531455681198
 50
336.9093553549868147
 51
359.5828808693029259
  0
ARC
  5
3921
  8
0
 10
212.5774059968782979
 20
-37.4908028452385267
 30
0.0
 40
7.7466195632369841
 50
300.3411207795155065
 51
340.5141557562042749
  0
ARC
  5
3922
  8
0
 10
219.6969882142711015
 20
-27.2899929623904995
 30
0.0
 40
0.2906512581406131
 50
32.5753374357073824
 51
65.4016567701076639
  0
ARC
  5
3923
  8
0
 10
219.7600493349241049
 20
-27.1650264448610486
 30
0.0
 40
0.1508700466587123
 50
67.4225732744873056
 51
90.9126863877774269
  0
ARC
  5
3924
  8
0
 10
203.7070628183489021
 20
972.0212944368939816
 30
0.0
 40
999.1643966315195939
 50
270.8659614536480262
 51
270.9204393637286898
  0
ARC
  5
3925
  8
0
 10
218.8078147820438062
 20
-27.0367332957061812
 30
0.0
 40
0.00774854107573
 50
90.5733080674283428
 51
132.5086771023082122
  0
ARC
  5
3926
  8
0
 10
223.6911602439980129
 20
-31.8694147049271486
 30
0.0
 40
6.8781012563989661
 50
135.2956231974144998
 51
135.471746492167199
  0
ARC
  5
3927
  8
0
 10
208.2651228929146043
 20
-23.0622071183757384
 30
0.0
 40
0.2501471246856431
 50
90.0253781330868748
 51
164.0324283515784884
  0
ARC
  5
3928
  8
0
 10
962.2829349715525495
 20
-240.2080260828585097
 30
0.0
 40
784.9126013374211652
 50
163.9344243680029933
 51
164.2486732956481887
  0
ARC
  5
3929
  8
0
 10
215.4705056246436072
 20
-31.4494336908800918
 30
0.0
 40
9.6453647547718138
 50
153.4190650342260938
 51
170.3675067430644958
  0
ARC
  5
392A
  8
0
 10
240.0872348677714001
 20
-34.5665792479979714
 30
0.0
 40
34.452493808776893
 50
172.1070906709335873
 51
179.036944380712697
  0
ARC
  5
392B
  8
0
 10
221.4543418431850057
 20
-33.8723771543744476
 30
0.0
 40
15.8151531455681198
 50
180.4171191306965909
 51
203.0906446450132137
  0
ARC
  5
392C
  8
0
 10
214.2091347192354078
 20
-37.4908028452385267
 30
0.0
 40
7.7466195632369841
 50
199.4858442437956967
 51
239.6588792204831009
  0
ARC
  5
392D
  8
0
 10
207.0895525018426042
 20
-27.2899929623904995
 30
0.0
 40
0.2906512581406131
 50
114.5983432298922935
 51
147.4246625642925892
  0
ARC
  5
392E
  8
0
 10
207.0264913811896861
 20
-27.1650264448610486
 30
0.0
 40
0.1508700466587123
 50
89.0873136122225588
 51
112.5774267255126944
  0
ARC
  5
392F
  8
0
 10
223.0794778977648036
 20
972.0212944368939816
 30
0.0
 40
999.1643966315195939
 50
269.0795606362711965
 51
269.1340385463519738
  0
ARC
  5
3930
  8
0
 10
207.9787259340698995
 20
-27.0367332957061812
 30
0.0
 40
0.00774854107573
 50
47.491322897691802
 51
89.4266919325716714
  0
ARC
  5
3931
  8
0
 10
203.0953804721156928
 20
-31.8694147049271486
 30
0.0
 40
6.8781012563989661
 50
44.5282535078327726
 51
44.7043768025854718
  0
ARC
  5
3932
  8
0
 10
213.3932703580568955
 20
-38.3581727769071676
 30
0.0
 40
6.5912872413209582
 50
241.9714802024853952
 51
298.0285197975140932
  0
ARC
  5
3933
  8
0
 10
213.3932703580568955
 20
272.6744795989371823
 30
0.0
 40
299.7690924637652756
 50
268.9688849765763052
 51
271.0311150234236948
  0
ARC
  5
3936
  8
0
 10
213.3932703580568955
 20
-45.8112076568919804
 30
0.0
 40
20.9083925561638999
 50
72.8024314780982849
 51
107.1975685219017009
  0
ARC
  5
3937
  8
0
 10
213.393270316690689
 20
-49.8740134448094992
 30
0.0
 40
23.8830793980813993
 50
74.2597084338421638
 51
105.740291342116393
  0
ENDSEC
  0
EOF
