  0
SECTION
  2
HEADER
  9
$ACADVER
  1
AC1009
  9
$INSBASE
 10
232.5047028818374883
 20
-21.9642158670826504
 30
0.0
  9
$EXTMIN
 10
224.7510403202199996
 20
-21.9687727604120404
 30
0.0
  9
$EXTMAX
 10
240.2583654434550056
 20
-3.224215867082648
 30
0.0
  9
$LIMMIN
 10
0.0
 20
0.0
  9
$LIMMAX
 10
11.6929133858000007
 20
8.2677165353999982
  9
$ORTHOMODE
 70
     0
  9
$REGENMODE
 70
     1
  9
$FILLMODE
 70
     1
  9
$QTEXTMODE
 70
     0
  9
$MIRRTEXT
 70
     0
  9
$DRAGMODE
 70
     2
  9
$LTSCALE
 40
0.6431102362
  9
$OSMODE
 70
  3839
  9
$ATTMODE
 70
     1
  9
$TEXTSIZE
 40
0.2
  9
$TRACEWID
 40
0.05
  9
$TEXTSTYLE
  7
STANDARD
  9
$CLAYER
  8
0
  9
$CELTYPE
  6
BYLAYER
  9
$CECOLOR
 62
   256
  9
$DIMSCALE
 40
1.0
  9
$DIMASZ
 40
0.1875
  9
$DIMEXO
 40
0.0625
  9
$DIMDLI
 40
0.4443307087
  9
$DIMRND
 40
0.0
  9
$DIMDLE
 40
0.0
  9
$DIMEXE
 40
0.125
  9
$DIMTP
 40
0.01
  9
$DIMTM
 40
0.01
  9
$DIMTXT
 40
1.0
  9
$DIMCEN
 40
0.1052362205
  9
$DIMTSZ
 40
0.0
  9
$DIMTOL
 70
     1
  9
$DIMLIM
 70
     0
  9
$DIMTIH
 70
     1
  9
$DIMTOH
 70
     1
  9
$DIMSE1
 70
     0
  9
$DIMSE2
 70
     0
  9
$DIMTAD
 70
     0
  9
$DIMZIN
 70
     0
  9
$DIMBLK
  1

  9
$DIMASO
 70
     1
  9
$DIMSHO
 70
     1
  9
$DIMPOST
  1
\X
  9
$DIMAPOST
  1

  9
$DIMALT
 70
     1
  9
$DIMALTD
 70
     2
  9
$DIMALTF
 40
25.3999999999999986
  9
$DIMLFAC
 40
1.0
  9
$DIMTOFL
 70
     0
  9
$DIMTVP
 40
0.0
  9
$DIMTIX
 70
     0
  9
$DIMSOXD
 70
     0
  9
$DIMSAH
 70
     0
  9
$DIMBLK1
  1

  9
$DIMBLK2
  1

  9
$DIMSTYLE
  2
STANDARD
  9
$DIMCLRD
 70
     0
  9
$DIMCLRE
 70
     0
  9
$DIMCLRT
 70
     0
  9
$DIMTFAC
 40
1.0
  9
$DIMGAP
 40
0.09
  9
$LUNITS
 70
     2
  9
$LUPREC
 70
     4
  9
$SKETCHINC
 40
0.1
  9
$FILLETRAD
 40
0.0
  9
$AUNITS
 70
     0
  9
$AUPREC
 70
     0
  9
$MENU
  1
.
  9
$ELEVATION
 40
0.0
  9
$PELEVATION
 40
0.0
  9
$THICKNESS
 40
0.0
  9
$LIMCHECK
 70
     0
  9
$BLIPMODE
 70
     0
  9
$CHAMFERA
 40
0.0
  9
$CHAMFERB
 40
0.0
  9
$SKPOLY
 70
     0
  9
$TDCREATE
 40
2458172.4620254631154239
  9
$TDUPDATE
 40
2459074.666678240057081
  9
$TDINDWG
 40
0.1065337153
  9
$TDUSRTIMER
 40
0.1065337153
  9
$USRTIMER
 70
     1
  9
$ANGBASE
 50
0.0
  9
$ANGDIR
 70
     0
  9
$PDMODE
 70
     0
  9
$PDSIZE
 40
0.3125
  9
$PLINEWID
 40
0.0
  9
$COORDS
 70
     1
  9
$SPLFRAME
 70
     0
  9
$SPLINETYPE
 70
     6
  9
$SPLINESEGS
 70
     8
  9
$ATTDIA
 70
     1
  9
$ATTREQ
 70
     1
  9
$HANDLING
 70
     1
  9
$HANDSEED
  5
3D1C
  9
$SURFTAB1
 70
     6
  9
$SURFTAB2
 70
     6
  9
$SURFTYPE
 70
     6
  9
$SURFU
 70
     6
  9
$SURFV
 70
     6
  9
$UCSNAME
  2

  9
$UCSORG
 10
0.0
 20
0.0
 30
0.0
  9
$UCSXDIR
 10
1.0
 20
0.0
 30
0.0
  9
$UCSYDIR
 10
0.0
 20
1.0
 30
0.0
  9
$PUCSNAME
  2

  9
$PUCSORG
 10
0.0
 20
0.0
 30
0.0
  9
$PUCSXDIR
 10
1.0
 20
0.0
 30
0.0
  9
$PUCSYDIR
 10
0.0
 20
1.0
 30
0.0
  9
$USERI1
 70
     0
  9
$USERI2
 70
     0
  9
$USERI3
 70
     0
  9
$USERI4
 70
     0
  9
$USERI5
 70
     0
  9
$USERR1
 40
0.0
  9
$USERR2
 40
0.0
  9
$USERR3
 40
0.0
  9
$USERR4
 40
0.0
  9
$USERR5
 40
0.0
  9
$WORLDVIEW
 70
     1
  9
$SHADEDGE
 70
     3
  9
$SHADEDIF
 70
    70
  9
$TILEMODE
 70
     1
  9
$MAXACTVP
 70
    64
  9
$PLIMCHECK
 70
     0
  9
$PEXTMIN
 10
1.0000000000000000E+20
 20
1.0000000000000000E+20
 30
1.0000000000000000E+20
  9
$PEXTMAX
 10
-1.0000000000000000E+20
 20
-1.0000000000000000E+20
 30
-1.0000000000000000E+20
  9
$PLIMMIN
 10
0.0
 20
0.0
  9
$PLIMMAX
 10
12.0
 20
9.0
  9
$UNITMODE
 70
     0
  9
$VISRETAIN
 70
     1
  9
$PLINEGEN
 70
     0
  9
$PSLTSCALE
 70
     1
  0
ENDSEC
  0
SECTION
  2
TABLES
  0
TABLE
  2
VPORT
 70
     1
  0
VPORT
  2
*ACTIVE
 70
     0
 10
0.0
 20
0.0
 11
1.0
 21
1.0
 12
0.0
 22
0.0
 13
0.0
 23
0.0
 14
1.0
 24
1.0
 15
0.0
 25
0.0
 16
-0.0000000000000284
 26
0.0
 36
93.0763450473835263
 17
232.5046997070311932
 27
-12.6126025276288107
 37
0.0
 40
24.30285559609624
 41
3.0287253141831241
 42
50.0
 43
0.0
 44
0.0
 50
0.0
 51
0.0
 71
     0
 72
   100
 73
     1
 74
     1
 75
     0
 76
     0
 77
     0
 78
     0
  0
ENDTAB
  0
TABLE
  2
LTYPE
 70
     2
  0
LTYPE
  2
CONTINUOUS
 70
     0
  3
Solid line
 72
    65
 73
     0
 40
0.0
  0
LTYPE
  2
PHANTOM2
 70
     0
  3
___ _ _ ___ _ _ ___ _ _ ___ _ _
 72
    65
 73
     6
 40
1.25
 49
0.625
 49
-0.125
 49
0.125
 49
-0.125
 49
0.125
 49
-0.125
  0
ENDTAB
  0
TABLE
  2
LAYER
 70
     2
  0
LAYER
  2
0
 70
     0
 62
   255
  6
CONTINUOUS
  0
LAYER
  2
DEFPOINTS
 70
     0
 62
     7
  6
CONTINUOUS
  0
ENDTAB
  0
TABLE
  2
STYLE
 70
     1
  0
STYLE
  2
STANDARD
 70
     0
 40
0.0
 41
0.8
 50
0.0
 71
     0
 42
0.2
  3
txt
  4

  0
ENDTAB
  0
TABLE
  2
VIEW
 70
     0
  0
ENDTAB
  0
TABLE
  2
UCS
 70
     0
  0
ENDTAB
  0
TABLE
  2
APPID
 70
    10
  0
APPID
  2
ACAD
 70
     0
  0
APPID
  2
ACAD_MLEADERVER
 70
     0
  0
APPID
  2
ACAD_EXEMPT_FROM_CAD_STANDARDS
 70
     0
  0
APPID
  2
ACAD_DSTYLE_DIMJAG
 70
     0
  0
APPID
  2
ACAD_DSTYLE_DIMTALN
 70
     0
  0
APPID
  2
ACAD_NAV_VCDISPLAY
 70
     0
  0
APPID
  2
ACAECLAYERSTANDARD
 70
     0
  0
APPID
  2
ACCMTRANSPARENCY
 70
     0
  0
APPID
  2
ACDBATTR
 70
     0
  0
APPID
  2
ACADANNOTATIVE
 70
     0
  0
ENDTAB
  0
TABLE
  2
DIMSTYLE
 70
     2
  0
DIMSTYLE
  2
STANDARD
 70
     0
  3

  4

  5

  6

  7

 40
1.0
 41
0.1875
 42
0.0625
 43
0.38
 44
0.125
 45
0.0
 46
0.0
 47
0.01
 48
0.01
140
0.15625
141
0.09
142
0.0
143
25.3999999999999986
144
1.0
145
0.0
146
1.0
147
0.09
 71
     1
 72
     0
 73
     1
 74
     1
 75
     0
 76
     0
 77
     0
 78
     4
170
     0
171
     2
172
     0
173
     0
174
     0
175
     0
176
     0
177
     0
178
     0
  0
DIMSTYLE
  2
ANNOTATIVE
 70
     0
  3

  4

  5

  6

  7

 40
0.0
 41
0.18
 42
0.0625
 43
0.38
 44
0.18
 45
0.0
 46
0.0
 47
0.0
 48
0.0
140
0.18
141
0.09
142
0.0
143
25.3999999999999986
144
1.0
145
0.0
146
1.0
147
0.09
 71
     0
 72
     0
 73
     1
 74
     1
 75
     0
 76
     0
 77
     0
 78
     0
170
     0
171
     2
172
     0
173
     0
174
     0
175
     0
176
     0
177
     0
178
     0
  0
ENDTAB
  0
ENDSEC
  0
SECTION
  2
BLOCKS
  0
BLOCK
  8
0
  2
$MODEL_SPACE
 70
     0
 10
0.0
 20
0.0
 30
0.0
  3
$MODEL_SPACE
  1

  0
ENDBLK
  5
21
  8
0
  0
BLOCK
 67
     1
  8
0
  2
$PAPER_SPACE
 70
     0
 10
0.0
 20
0.0
 30
0.0
  3
$PAPER_SPACE
  1

  0
ENDBLK
  5
1D
 67
     1
  8
0
  0
BLOCK
  8
0
  2
_FILLED
 70
     0
 10
0.0
 20
0.0
 30
0.0
  3
_FILLED
  1

  0
SOLID
  5
2F2B
  8
0
  6
BYBLOCK
 62
     0
 10
0.0
 20
0.0
 30
0.0
 11
-1.0
 21
0.1666666667
 31
0.0
 12
-1.0
 22
-0.1666666667
 32
0.0
 13
-1.0
 23
-0.1666666667
 33
0.0
  0
ENDBLK
  5
2F2C
  8
0
  6
BYBLOCK
 62
     0
  0
BLOCK
  8
0
  2
A$CBC74E0AA
 70
     0
 10
0.0
 20
0.0
 30
0.0
  3
A$CBC74E0AA
  1

  0
ARC
  5
3264
  8
0
 62
     3
 10
-61.9647946134706729
 20
0.5679703708157513
 30
0.0
 40
62.1265672047464719
 50
359.476186115906728
 51
4.1356679026520551
  0
ENDBLK
  5
3268
  8
0
  0
ENDSEC
  0
SECTION
  2
ENTITIES
  0
ATTDEF
  5
2E1C
  8
DEFPOINTS
 10
232.5049011106812031
 20
-21.9654394270787101
 30
0.0
 40
0.001
  1
K-18133IN-SR
  3

  2
MODELNUMBER
 70
     0
1001
ACDBATTR
1070
     0
1070
     1
  0
ATTDEF
  5
2E1D
  8
DEFPOINTS
 10
232.5049011106812031
 20
-21.9671060937453788
 30
0.0
 40
0.001
  1
PRESQUILE
  3

  2
TRADENAME
 70
     0
1001
ACDBATTR
1070
     0
1070
     1
  0
ATTDEF
  5
2E1E
  8
DEFPOINTS
 10
232.5049011106812031
 20
-21.9687727604120404
 30
0.0
 40
0.001
  1
TOILET
  3

  2
PRODUCT
 70
     0
1001
ACDBATTR
1070
     0
1070
     1
  0
LINE
  5
3789
  8
0
 10
225.2546196915014889
 20
-6.2402921452752871
 30
0.0
 11
239.7547860721734025
 21
-6.2402921452752871
 31
0.0
  0
LINE
  5
378A
  8
0
 10
240.180061302037501
 20
-6.1065567356194244
 30
0.0
 11
224.8293444616375041
 21
-6.1065567356194244
 31
0.0
  0
ARC
  5
378B
  8
0
 10
240.1799545383159113
 20
-6.0276346202682758
 30
0.0
 40
0.0789221875646647
 50
270.0775081470363261
 51
353.4746585435835868
  0
ARC
  5
378C
  8
0
 10
237.2742078511809893
 20
-6.1252893895651823
 30
0.0
 40
2.985475123696705
 50
1.7022657680427791
 51
24.0168691962397816
  0
ARC
  5
378D
  8
0
 10
238.4884802443148999
 20
-5.6100057745174681
 30
0.0
 40
1.6667705120491929
 50
24.8261730230441593
 51
71.8955812121361078
  0
ARC
  5
378E
  8
0
 10
239.7115166550183858
 20
-6.48653973747368
 30
0.0
 40
0.2500202374297856
 50
355.0294874784256081
 51
80.0340053098914268
  0
ARC
  5
378F
  8
0
 10
203.674103471934103
 20
-0.1713064332329353
 30
0.0
 40
36.8356598600277181
 50
333.6213067584125724
 51
350.0940410349332979
  0
ARC
  5
3790
  8
0
 10
232.5048752604486992
 20
-16.9724889118141391
 30
0.0
 40
2.2482351367445719
 50
312.6067145801179095
 51
350.5422346959530273
  0
ARC
  5
3791
  8
0
 10
239.1504620234256038
 20
-5.57503840348945
 30
0.0
 40
0.6102584896212051
 50
270.0009907231402053
 51
299.4281581034003921
  0
LINE
  5
3792
  8
0
 10
239.150472575637508
 20
-6.1852968930194256
 30
0.0
 11
238.4573543597130936
 21
-6.1853088779904217
 31
0.0
  0
ARC
  5
3793
  8
0
 10
238.4573438117787987
 20
-5.5752977746619443
 30
0.0
 40
0.6100111034196725
 50
240.5634499312112098
 51
270.0009907231402053
  0
ARC
  5
3794
  8
0
 10
238.7801417007108
 20
-5.8437599865963206
 30
0.0
 40
0.4039250109550686
 50
237.7331026009188975
 51
259.0211235848257729
  0
ARC
  5
3795
  8
0
 10
237.3492812615758112
 20
-5.5989819998906141
 30
0.0
 40
0.6747219615864326
 50
288.1064750787746789
 51
311.2123911384600206
  0
ARC
  5
3796
  8
0
 10
236.8667959685874962
 20
-5.6140139650248813
 30
0.0
 40
0.65696361456529
 50
228.5666576611934886
 51
252.4192179044036948
  0
LINE
  5
3797
  8
0
 10
236.624506686621686
 20
-6.2246669718194241
 30
0.0
 11
228.3848990770532907
 21
-6.2246669718194241
 31
0.0
  0
ARC
  5
3798
  8
0
 10
224.8294512253590938
 20
-6.0276346202682758
 30
0.0
 40
0.0789221875646647
 50
186.5253414564162995
 51
269.9224918529636739
  0
ARC
  5
3799
  8
0
 10
227.7351979124939021
 20
-6.1252893895651823
 30
0.0
 40
2.985475123696705
 50
155.98313080376019
 51
178.2977342319570084
  0
ARC
  5
379A
  8
0
 10
226.5209255193599915
 20
-5.6100057745174681
 30
0.0
 40
1.6667705120491929
 50
108.1044187878639065
 51
155.1738269769556098
  0
ARC
  5
379B
  8
0
 10
225.2978891086565909
 20
-6.48653973747368
 30
0.0
 40
0.2500202374297856
 50
99.9659946901086016
 51
184.9705125215745056
  0
ARC
  5
379C
  8
0
 10
261.3353022917407884
 20
-0.1713064332329353
 30
0.0
 40
36.8356598600277181
 50
189.9059589650667021
 51
206.3786932415872002
  0
ARC
  5
379D
  8
0
 10
232.5045305032261922
 20
-16.9724889118141391
 30
0.0
 40
2.2482351367445719
 50
189.4577672289854888
 51
227.3932854198822042
  0
ARC
  5
379E
  8
0
 10
225.8589437402494013
 20
-5.57503840348945
 30
0.0
 40
0.6102584896212051
 50
240.5718418965994942
 51
269.9990092768597947
  0
LINE
  5
379F
  8
0
 10
225.8589331880374971
 20
-6.1852968930194256
 30
0.0
 11
226.5520514039619115
 21
-6.1853088779904217
 31
0.0
  0
ARC
  5
37A0
  8
0
 10
226.5520619518960928
 20
-5.5752977746619443
 30
0.0
 40
0.6100111034196725
 50
269.9990092768597947
 51
299.4365500687887902
  0
ARC
  5
37A1
  8
0
 10
226.2292640629642051
 20
-5.8437599865963206
 30
0.0
 40
0.4039250109550686
 50
280.9788764151742839
 51
302.2668973990795962
  0
ARC
  5
37A2
  8
0
 10
227.6601245020991939
 20
-5.5989819998906141
 30
0.0
 40
0.6747219615864326
 50
228.7876088615398089
 51
251.8935249212252074
  0
ARC
  5
37A3
  8
0
 10
228.1426097950875942
 20
-5.6140139650248813
 30
0.0
 40
0.65696361456529
 50
287.5807820955963052
 51
311.433342338806483
  0
ARC
  5
37A4
  8
0
 10
232.5047028818374883
 20
-16.9739737910609811
 30
0.0
 40
2.2472592182084381
 50
227.3644220564767977
 51
312.6355779435230033
  0
ARC
  5
37A5
  8
0
 10
232.5047028818374883
 20
-29.9945555254971907
 30
0.0
 40
26.7703396584145494
 50
75.9439780773826385
 51
104.0560219226174041
  0
ARC
  5
37A6
  8
0
 10
234.2722942262643073
 20
-13.2875806876226399
 30
0.0
 40
4.0412261341282898
 50
282.838964427547694
 51
306.468576862866712
  0
ARC
  5
37A7
  8
0
 10
230.7371112261558039
 20
-13.2875806876226399
 30
0.0
 40
4.0412261341282898
 50
233.5314231371330891
 51
257.161035572452306
  0
ARC
  5
37A8
  8
0
 10
232.504702726210013
 20
-7.7072406520803396
 30
0.0
 40
9.8866523878294004
 50
254.3585870882102995
 51
285.6414129117895868
  0
ENDSEC
  0
EOF
