  0
SECTION
  2
HEADER
  9
$ACADVER
  1
AC1009
  9
$INSBASE
 10
198.230012181198191
 20
-23.2023606769500397
 30
0.0
  9
$EXTMIN
 10
176.3971942300804017
 20
-23.2067500955038
 30
0.0
  9
$EXTMAX
 10
198.230012181198191
 20
-5.1284643458030077
 30
0.0
  9
$LIMMIN
 10
0.0
 20
0.0
  9
$LIMMAX
 10
11.6929133858000007
 20
8.2677165353999982
  9
$ORTHOMODE
 70
     0
  9
$REGENMODE
 70
     1
  9
$FILLMODE
 70
     1
  9
$QTEXTMODE
 70
     0
  9
$MIRRTEXT
 70
     0
  9
$DRAGMODE
 70
     2
  9
$LTSCALE
 40
0.6431102362
  9
$OSMODE
 70
  4095
  9
$ATTMODE
 70
     1
  9
$TEXTSIZE
 40
0.2
  9
$TRACEWID
 40
0.05
  9
$TEXTSTYLE
  7
STANDARD
  9
$CLAYER
  8
0
  9
$CELTYPE
  6
BYLAYER
  9
$CECOLOR
 62
   256
  9
$DIMSCALE
 40
1.0
  9
$DIMASZ
 40
0.1875
  9
$DIMEXO
 40
0.0625
  9
$DIMDLI
 40
0.4443307087
  9
$DIMRND
 40
0.0
  9
$DIMDLE
 40
0.0
  9
$DIMEXE
 40
0.125
  9
$DIMTP
 40
0.01
  9
$DIMTM
 40
0.01
  9
$DIMTXT
 40
1.0
  9
$DIMCEN
 40
0.1052362205
  9
$DIMTSZ
 40
0.0
  9
$DIMTOL
 70
     1
  9
$DIMLIM
 70
     0
  9
$DIMTIH
 70
     1
  9
$DIMTOH
 70
     1
  9
$DIMSE1
 70
     0
  9
$DIMSE2
 70
     0
  9
$DIMTAD
 70
     0
  9
$DIMZIN
 70
     0
  9
$DIMBLK
  1

  9
$DIMASO
 70
     1
  9
$DIMSHO
 70
     1
  9
$DIMPOST
  1
\X
  9
$DIMAPOST
  1

  9
$DIMALT
 70
     1
  9
$DIMALTD
 70
     2
  9
$DIMALTF
 40
25.3999999999999986
  9
$DIMLFAC
 40
1.0
  9
$DIMTOFL
 70
     0
  9
$DIMTVP
 40
0.0
  9
$DIMTIX
 70
     0
  9
$DIMSOXD
 70
     0
  9
$DIMSAH
 70
     0
  9
$DIMBLK1
  1

  9
$DIMBLK2
  1

  9
$DIMSTYLE
  2
STANDARD
  9
$DIMCLRD
 70
     0
  9
$DIMCLRE
 70
     0
  9
$DIMCLRT
 70
     0
  9
$DIMTFAC
 40
1.0
  9
$DIMGAP
 40
0.09
  9
$LUNITS
 70
     2
  9
$LUPREC
 70
     4
  9
$SKETCHINC
 40
0.1
  9
$FILLETRAD
 40
0.0
  9
$AUNITS
 70
     0
  9
$AUPREC
 70
     0
  9
$MENU
  1
.
  9
$ELEVATION
 40
0.0
  9
$PELEVATION
 40
0.0
  9
$THICKNESS
 40
0.0
  9
$LIMCHECK
 70
     0
  9
$BLIPMODE
 70
     0
  9
$CHAMFERA
 40
0.0
  9
$CHAMFERB
 40
0.0
  9
$SKPOLY
 70
     0
  9
$TDCREATE
 40
2458172.4620254631154239
  9
$TDUPDATE
 40
2459075.5219560191035271
  9
$TDINDWG
 40
0.1058508449
  9
$TDUSRTIMER
 40
0.1058508449
  9
$USRTIMER
 70
     1
  9
$ANGBASE
 50
0.0
  9
$ANGDIR
 70
     0
  9
$PDMODE
 70
     0
  9
$PDSIZE
 40
0.3125
  9
$PLINEWID
 40
0.0
  9
$COORDS
 70
     1
  9
$SPLFRAME
 70
     0
  9
$SPLINETYPE
 70
     6
  9
$SPLINESEGS
 70
     8
  9
$ATTDIA
 70
     1
  9
$ATTREQ
 70
     1
  9
$HANDLING
 70
     1
  9
$HANDSEED
  5
3D21
  9
$SURFTAB1
 70
     6
  9
$SURFTAB2
 70
     6
  9
$SURFTYPE
 70
     6
  9
$SURFU
 70
     6
  9
$SURFV
 70
     6
  9
$UCSNAME
  2

  9
$UCSORG
 10
0.0
 20
0.0
 30
0.0
  9
$UCSXDIR
 10
1.0
 20
0.0
 30
0.0
  9
$UCSYDIR
 10
0.0
 20
1.0
 30
0.0
  9
$PUCSNAME
  2

  9
$PUCSORG
 10
0.0
 20
0.0
 30
0.0
  9
$PUCSXDIR
 10
1.0
 20
0.0
 30
0.0
  9
$PUCSYDIR
 10
0.0
 20
1.0
 30
0.0
  9
$USERI1
 70
     0
  9
$USERI2
 70
     0
  9
$USERI3
 70
     0
  9
$USERI4
 70
     0
  9
$USERI5
 70
     0
  9
$USERR1
 40
0.0
  9
$USERR2
 40
0.0
  9
$USERR3
 40
0.0
  9
$USERR4
 40
0.0
  9
$USERR5
 40
0.0
  9
$WORLDVIEW
 70
     1
  9
$SHADEDGE
 70
     3
  9
$SHADEDIF
 70
    70
  9
$TILEMODE
 70
     1
  9
$MAXACTVP
 70
    64
  9
$PLIMCHECK
 70
     0
  9
$PEXTMIN
 10
1.0000000000000000E+20
 20
1.0000000000000000E+20
 30
1.0000000000000000E+20
  9
$PEXTMAX
 10
-1.0000000000000000E+20
 20
-1.0000000000000000E+20
 30
-1.0000000000000000E+20
  9
$PLIMMIN
 10
0.0
 20
0.0
  9
$PLIMMAX
 10
12.0
 20
9.0
  9
$UNITMODE
 70
     0
  9
$VISRETAIN
 70
     1
  9
$PLINEGEN
 70
     0
  9
$PSLTSCALE
 70
     1
  0
ENDSEC
  0
SECTION
  2
TABLES
  0
TABLE
  2
VPORT
 70
     1
  0
VPORT
  2
*ACTIVE
 70
     0
 10
0.0
 20
0.0
 11
1.0
 21
1.0
 12
0.0
 22
0.0
 13
0.0
 23
0.0
 14
1.0
 24
1.0
 15
0.0
 25
0.0
 16
-0.0000000000000284
 26
0.0
 36
97.6197398257631335
 17
187.3136062622070028
 27
-14.1676071587290693
 37
0.0
 40
28.3460048071863397
 41
2.6818181818181812
 42
50.0
 43
0.0
 44
0.0
 50
0.0
 51
0.0
 71
     0
 72
   100
 73
     1
 74
     1
 75
     0
 76
     0
 77
     0
 78
     0
  0
ENDTAB
  0
TABLE
  2
LTYPE
 70
     3
  0
LTYPE
  2
CONTINUOUS
 70
     0
  3
Solid line
 72
    65
 73
     0
 40
0.0
  0
LTYPE
  2
PHANTOM2
 70
     0
  3
___ _ _ ___ _ _ ___ _ _ ___ _ _
 72
    65
 73
     6
 40
1.25
 49
0.625
 49
-0.125
 49
0.125
 49
-0.125
 49
0.125
 49
-0.125
  0
ENDTAB
  0
TABLE
  2
LAYER
 70
     2
  0
LAYER
  2
0
 70
     0
 62
   255
  6
CONTINUOUS
  0
LAYER
  2
DEFPOINTS
 70
     0
 62
     7
  6
CONTINUOUS
  0
ENDTAB
  0
TABLE
  2
STYLE
 70
     1
  0
STYLE
  2
STANDARD
 70
     0
 40
0.0
 41
0.8
 50
0.0
 71
     0
 42
0.2
  3
txt
  4

  0
ENDTAB
  0
TABLE
  2
VIEW
 70
     0
  0
ENDTAB
  0
TABLE
  2
UCS
 70
     0
  0
ENDTAB
  0
TABLE
  2
APPID
 70
    10
  0
APPID
  2
ACAD
 70
     0
  0
APPID
  2
ACAD_MLEADERVER
 70
     0
  0
APPID
  2
ACAD_EXEMPT_FROM_CAD_STANDARDS
 70
     0
  0
APPID
  2
ACAD_DSTYLE_DIMJAG
 70
     0
  0
APPID
  2
ACAD_DSTYLE_DIMTALN
 70
     0
  0
APPID
  2
ACAD_NAV_VCDISPLAY
 70
     0
  0
APPID
  2
ACAECLAYERSTANDARD
 70
     0
  0
APPID
  2
ACCMTRANSPARENCY
 70
     0
  0
APPID
  2
ACDBATTR
 70
     0
  0
APPID
  2
ACADANNOTATIVE
 70
     0
  0
ENDTAB
  0
TABLE
  2
DIMSTYLE
 70
     3
  0
DIMSTYLE
  2
STANDARD
 70
     0
  3

  4

  5

  6

  7

 40
1.0
 41
0.1875
 42
0.0625
 43
0.38
 44
0.125
 45
0.0
 46
0.0
 47
0.01
 48
0.01
140
0.15625
141
0.09
142
0.0
143
25.3999999999999986
144
1.0
145
0.0
146
1.0
147
0.09
 71
     1
 72
     0
 73
     1
 74
     1
 75
     0
 76
     0
 77
     0
 78
     4
170
     0
171
     2
172
     0
173
     0
174
     0
175
     0
176
     0
177
     0
178
     0
  0
DIMSTYLE
  2
ANNOTATIVE
 70
     0
  3

  4

  5

  6

  7

 40
0.0
 41
0.18
 42
0.0625
 43
0.38
 44
0.18
 45
0.0
 46
0.0
 47
0.0
 48
0.0
140
0.18
141
0.09
142
0.0
143
25.3999999999999986
144
1.0
145
0.0
146
1.0
147
0.09
 71
     0
 72
     0
 73
     1
 74
     1
 75
     0
 76
     0
 77
     0
 78
     0
170
     0
171
     2
172
     0
173
     0
174
     0
175
     0
176
     0
177
     0
178
     0
  0
ENDTAB
  0
ENDSEC
  0
SECTION
  2
BLOCKS
  0
BLOCK
  8
0
  2
$MODEL_SPACE
 70
     0
 10
0.0
 20
0.0
 30
0.0
  3
$MODEL_SPACE
  1

  0
ENDBLK
  5
21
  8
0
  0
BLOCK
 67
     1
  8
0
  2
$PAPER_SPACE
 70
     0
 10
0.0
 20
0.0
 30
0.0
  3
$PAPER_SPACE
  1

  0
ENDBLK
  5
1D
 67
     1
  8
0
  0
BLOCK
  8
0
  2
_FILLED
 70
     0
 10
0.0
 20
0.0
 30
0.0
  3
_FILLED
  1

  0
SOLID
  5
2F2B
  8
0
  6
BYBLOCK
 62
     0
 10
0.0
 20
0.0
 30
0.0
 11
-1.0
 21
0.1666666667
 31
0.0
 12
-1.0
 22
-0.1666666667
 32
0.0
 13
-1.0
 23
-0.1666666667
 33
0.0
  0
ENDBLK
  5
2F2C
  8
0
  6
BYBLOCK
 62
     0
  0
BLOCK
  8
0
  2
A$CBC74E0AA
 70
     0
 10
0.0
 20
0.0
 30
0.0
  3
A$CBC74E0AA
  1

  0
ARC
  5
3264
  8
0
 62
     3
 10
-61.9647946134706729
 20
0.5679703708157513
 30
0.0
 40
62.1265672047464719
 50
359.476186115906728
 51
4.1356679026520551
  0
ENDBLK
  5
3268
  8
0
  0
ENDSEC
  0
SECTION
  2
ENTITIES
  0
ATTDEF
  5
2E1C
  8
DEFPOINTS
 10
198.2191261714172867
 20
-23.2034167621704697
 30
0.0
 40
0.001
  1
K-18133IN-SS
  3

  2
MODELNUMBER
 70
     0
1001
ACDBATTR
1070
     0
1070
     1
  0
ATTDEF
  5
2E1D
  8
DEFPOINTS
 10
198.2191261714172867
 20
-23.2050834288371384
 30
0.0
 40
0.001
  1
PRESQUILE
  3

  2
TRADENAME
 70
     0
1001
ACDBATTR
1070
     0
1070
     1
  0
ATTDEF
  5
2E1E
  8
DEFPOINTS
 10
198.2191261714172867
 20
-23.2067500955038
 30
0.0
 40
0.001
  1
TOILET
  3

  2
PRODUCT
 70
     0
1001
ACDBATTR
1070
     0
1070
     1
  0
LINE
  5
3AAC
  8
0
 10
176.6047980672354072
 20
-7.4784369551426764
 30
0.0
 11
194.2588431055426099
 21
-7.4784369551426764
 31
0.0
  0
LINE
  5
3AAD
  8
0
 10
198.230012181198191
 20
-6.3348117785868183
 30
0.0
 11
198.230012181198191
 21
-18.9341476098094503
 31
0.0
  0
LINE
  5
3AAE
  8
0
 10
195.9139896702974966
 20
-6.0896190987385914
 30
0.0
 11
197.9800121812004932
 21
-6.0848117816868159
 31
0.0
  0
ARC
  5
3AAF
  8
0
 10
197.9800086846663874
 20
-6.3348152782186338
 30
0.0
 40
0.2500034965562627
 50
0.0008020453141935
 51
89.9991986646263058
  0
ARC
  5
3AB0
  8
0
 10
198.0066347061145962
 20
-18.907238555015379
 30
0.0
 40
0.224992430105228
 50
268.9572280034063851
 51
353.1309922071692995
  0
ARC
  5
3AB1
  8
0
 10
197.9398886058880009
 20
8598.2038869868101756
 30
0.0
 40
8617.3360809382629668
 50
269.9995834365755059
 51
270.0004165634197193
  0
ARC
  5
3AB2
  8
0
 10
197.8772211519003861
 20
-19.0141067928765288
 30
0.0
 40
0.1180869319026508
 50
200.3342844237654106
 51
270.0077366511745822
  0
ARC
  5
3AB3
  8
0
 10
197.652141288475093
 20
-19.0956157621844618
 30
0.0
 40
0.121303459035658
 50
19.4910869732172998
 51
88.8647797693700738
  0
ARC
  5
3AB4
  8
0
 10
196.8975414742191106
 20
653.8675163549240779
 30
0.0
 40
672.8422783128271476
 50
269.9782344849645028
 51
270.0644624933025852
  0
ARC
  5
3AB5
  8
0
 10
196.6418188851012872
 20
-19.0927598598215091
 30
0.0
 40
0.1180465148398667
 50
89.9401362298021354
 51
161.4009456772772069
  0
ARC
  5
3AB6
  8
0
 10
196.4200913748364883
 20
-19.0147910617883618
 30
0.0
 40
0.1170118063496146
 50
269.5684903684414735
 51
339.8445281679466916
  0
ARC
  5
3AB7
  8
0
 10
196.3606486907048065
 20
-15.2765730683484708
 30
0.0
 40
3.8556712340984691
 50
269.6930198757427206
 51
270.8702642145232744
  0
ARC
  5
3AB8
  8
0
 10
196.3400857861647069
 20
-18.8959021633428712
 30
0.0
 40
0.2362868175435039
 50
186.8491515040732054
 51
269.9769723625220763
  0
LINE
  5
3AB9
  8
0
 10
196.1054852131329937
 20
-18.924080723952649
 30
0.0
 11
196.048901190782999
 21
-18.1746332296026516
 31
0.0
  0
LINE
  5
3ABA
  8
0
 10
193.1511980158921062
 20
-17.8976575450861084
 30
0.0
 11
189.6549887013424041
 21
-17.8773757646146798
 31
0.0
  0
ARC
  5
3ABB
  8
0
 10
189.4302122444217957
 20
-33.2309225266369168
 30
0.0
 40
15.3551920414298095
 50
89.1612477214260508
 51
104.3500232699691992
  0
ARC
  5
3ABC
  8
0
 10
186.2799598979133009
 20
-21.51147521987399
 30
0.0
 40
3.2239901202502899
 50
101.7303107193219063
 51
123.7887643330101071
  0
ARC
  5
3ABD
  8
0
 10
186.4535972901138905
 20
9.4210663876838723
 30
0.0
 40
28.32146586268113
 50
263.3899732666977229
 51
266.0182558383633022
  0
ARC
  5
3ABE
  8
0
 10
183.3677185344741076
 20
-17.7312200938263409
 30
0.0
 40
0.9962700382649975
 50
221.3640368444631008
 51
259.9280055276572057
  0
ARC
  5
3ABF
  8
0
 10
204.3000607008067107
 20
1.356026586608138
 30
0.0
 40
29.3243072499090403
 50
197.9125838933796899
 51
222.3264142503697087
  0
ARC
  5
3AC0
  8
0
 10
176.593387602269388
 20
-7.6746364092853829
 30
0.0
 40
0.1965309759723305
 50
86.671571295207201
 51
176.6411704396153084
  0
ARC
  5
3AC1
  8
0
 10
194.2134902981721041
 20
-6.8176103419942962
 30
0.0
 40
0.662381075953674
 50
273.9260769635394013
 51
334.5394478102954281
  0
ARC
  5
3AC2
  8
0
 10
196.2347549714401111
 20
-7.5824978885021457
 30
0.0
 40
1.502020912031065
 50
133.715208907399898
 51
161.3576023778882131
  0
ARC
  5
3AC3
  8
0
 10
197.2581642786520888
 20
-9.1144997709881341
 30
0.0
 40
3.3318870056270891
 50
117.3023419515476036
 51
128.2208008873857921
  0
ARC
  5
3AC4
  8
0
 10
195.9417175343145914
 20
-6.4653845168758863
 30
0.0
 40
0.3767870537994082
 50
94.2202273280303189
 51
124.2104852580483936
  0
ARC
  5
3AC5
  8
0
 10
189.7059898409818004
 20
-15.1864104251130101
 30
0.0
 40
5.1669442342867509
 50
217.8217538145873107
 51
250.6353715572863052
  0
ARC
  5
3AC6
  8
0
 10
189.8809188777335919
 20
-15.1472057006137
 30
0.0
 40
5.2641297036289849
 50
248.9803810821750858
 51
273.9104024479984218
  0
ARC
  5
3AC7
  8
0
 10
189.9110014210243946
 20
-17.2741606113366686
 30
0.0
 40
3.1421815400779818
 50
276.0085235869232179
 51
307.7326479984361072
  0
ARC
  5
3AC8
  8
0
 10
188.4652469995498905
 20
-15.9787093414763497
 30
0.0
 40
5.0636448469157394
 50
311.703174774180809
 51
337.7303635688857071
  0
CIRCLE
  5
3ACA
  8
0
 10
195.7890255044142123
 20
-10.3563747991425394
 30
0.0
 40
0.5375411469736279
  0
ARC
  5
3ACB
  8
0
 10
191.5372994724395141
 20
-89.2638033297624531
 30
0.0
 40
71.3843920802429039
 50
86.7349920029107437
 51
88.7045143649437051
  0
ARC
  5
3ACC
  8
0
 10
195.5940639338672042
 20
-18.6614795627051606
 30
0.0
 40
0.6662554182399328
 50
46.946810101816979
 51
89.2359949306351865
  0
LINE
  5
3ACD
  8
0
 10
176.8243369811669936
 20
-6.7889910414030359
 30
0.0
 11
192.2912232039981859
 21
-6.6698040789030344
 31
0.0
  0
LINE
  5
3ACE
  8
0
 10
176.4768412798900101
 20
-6.9072305657599129
 30
0.0
 11
191.5396678906055001
 21
-6.8149287038538162
 31
0.0
  0
LINE
  5
3ACF
  8
0
 10
176.777915517798192
 20
-7.263257432903039
 30
0.0
 11
192.3564320777356897
 21
-7.1682234509560203
 31
0.0
  0
LINE
  5
3AD0
  8
0
 10
176.4824476679534939
 20
-7.1572049324869047
 30
0.0
 11
192.3694667712981925
 21
-7.0759916750030376
 31
0.0
  0
LINE
  5
3AD1
  8
0
 10
176.4428440442879946
 20
-6.63417616529967
 30
0.0
 11
192.3551719430982132
 21
-6.5395352847030379
 31
0.0
  0
LINE
  5
3AD2
  8
0
 10
176.4343294846050867
 20
-6.4224830475258647
 30
0.0
 11
192.3428405049982075
 21
-6.375196571303035
 31
0.0
  0
ARC
  5
3AD3
  8
0
 10
192.345619844028505
 20
-5.2935373833991122
 30
0.0
 40
1.081662758674079
 50
269.8527779844249039
 51
300.5839024591617203
  0
ARC
  5
3AD4
  8
0
 10
191.8898016139704907
 20
-4.454633169074163
 30
0.0
 40
2.0360740157668391
 50
299.6150688975753837
 51
318.3595792440307264
  0
ARC
  5
3AD5
  8
0
 10
196.1834179736146098
 20
-6.4485071246090442
 30
0.0
 40
2.7830853867098519
 50
151.6856236138953022
 51
162.4786007749067949
  0
ARC
  5
3AD6
  8
0
 10
193.0610121997299871
 20
-5.4636107097362014
 30
0.0
 40
0.4909706186039299
 50
315.5370774740239881
 51
342.5761537073100271
  0
ARC
  5
3AD7
  8
0
 10
192.3165759977732989
 20
-5.4727064248948016
 30
0.0
 40
1.0675267973757221
 50
272.0719543823078084
 51
295.5787607850566019
  0
ARC
  5
3AD8
  8
0
 10
191.6077753929293124
 20
-4.1687949936988771
 30
0.0
 40
2.5508143848375808
 50
297.2943615316509067
 51
321.1602189581175253
  0
ARC
  5
3AD9
  8
0
 10
193.4069470938032964
 20
-5.9171429306565422
 30
0.0
 40
0.2393852831749281
 50
13.9370243886401397
 51
38.3769204063224691
  0
LINE
  5
3ADA
  8
0
 10
193.63928512419821
 20
-5.8594857244030356
 30
0.0
 11
193.6663709577269117
 21
-6.0024784822784554
 31
0.0
  0
ARC
  5
3ADB
  8
0
 10
193.3080783256750976
 20
-6.3676490930940437
 30
0.0
 40
0.5115888829774179
 50
23.5815532466014588
 51
69.0973894838572846
  0
ARC
  5
3ADC
  8
0
 10
193.3105588170124918
 20
-6.366566343984668
 30
0.0
 40
0.5088823754661032
 50
331.8061557602418929
 51
23.5815532466010893
  0
ARC
  5
3ADD
  8
0
 10
193.2694430072658065
 20
-6.3364898385053223
 30
0.0
 40
0.5593746365212456
 50
296.9432755249349043
 51
331.0806736911782195
  0
ARC
  5
3ADE
  8
0
 10
192.3652308021553949
 20
-4.9549905441236808
 30
0.0
 40
2.2079829063978131
 50
285.4264107440575913
 51
301.6218622114574828
  0
ARC
  5
3ADF
  8
0
 10
192.3376166742399107
 20
-4.898184178530534
 30
0.0
 40
2.2701172475805591
 50
270.4748898122010132
 51
285.7168827884535176
  0
ARC
  5
3AE0
  8
0
 10
192.2457421639687993
 20
-6.2337637064036002
 30
0.0
 40
0.4384058980574993
 50
275.9546841487609754
 51
309.7828688177397112
  0
ARC
  5
3AE1
  8
0
 10
193.0452991263923082
 20
-7.1985594340053112
 30
0.0
 40
0.8146410691058228
 50
119.2292947968059025
 51
129.5779187049674874
  0
ARC
  5
3AE2
  8
0
 10
177.2124224482541877
 20
-9.4967257763024691
 30
0.0
 40
2.292689174810127
 50
61.6803929680219269
 51
77.5905295346572075
  0
LINE
  5
3AE3
  8
0
 10
179.5012533402606891
 20
-7.24664419271038
 30
0.0
 11
179.6089127603266888
 21
-7.3606281735585659
 31
0.0
  0
ARC
  5
3AE4
  8
0
 10
179.6802810884327926
 20
-7.2932198170701517
 30
0.0
 40
0.0981698771575921
 50
223.3655171564032003
 51
274.3069481232382145
  0
LINE
  5
3AE5
  8
0
 10
179.6876536120981882
 20
-7.3911124658030358
 30
0.0
 11
180.6543265491031036
 21
-7.3853874299947
 31
0.0
  0
ARC
  5
3AE6
  8
0
 10
180.6600554546864998
 20
-7.2833507724470792
 30
0.0
 40
0.1021973573174707
 50
266.7864700646874212
 51
318.0601639023698795
  0
LINE
  5
3AE7
  8
0
 10
180.7360746565981913
 20
-7.3516543652030348
 30
0.0
 11
180.8209170471050982
 21
-7.2385938179259881
 31
0.0
  0
LINE
  5
3AE8
  8
0
 10
186.9461128029398935
 20
-7.2012281457426113
 30
0.0
 11
187.0640377854981864
 21
-7.3169157725030374
 31
0.0
  0
ARC
  5
3AE9
  8
0
 10
187.1426309824906866
 20
-7.2235195398552534
 30
0.0
 40
0.122064519358802
 50
229.9192928549335022
 51
270.6604703967622072
  0
LINE
  5
3AEA
  8
0
 10
187.1440380357981894
 20
-7.3455759493030364
 30
0.0
 11
188.303775460998196
 21
-7.3384920668030338
 31
0.0
  0
ARC
  5
3AEB
  8
0
 10
188.3039607857398039
 20
-7.2171079416279076
 30
0.0
 40
0.1213842666484843
 50
269.9125230151536243
 51
310.9000497968718832
  0
LINE
  5
3AEC
  8
0
 10
188.3834360989982031
 20
-7.3088565916030346
 30
0.0
 11
188.4998474384539975
 21
-7.191749862702383
 31
0.0
  0
ARC
  5
3AED
  8
0
 10
191.231394328997311
 20
-9.1642832731063102
 30
0.0
 40
2.1370566685310668
 50
111.7905791343884943
 51
127.9205559772329934
  0
LINE
  5
3AEE
  8
0
 10
192.7033183805814076
 20
-7.4784369551426764
 30
0.0
 11
192.7334949690053065
 21
-7.1335169710910371
 31
0.0
  0
LINE
  5
3AEF
  8
0
 10
193.9138868258118862
 20
-7.4784369551426764
 30
0.0
 11
193.8188163519320142
 21
-6.391776466109774
 31
0.0
  0
LINE
  5
3AF0
  8
0
 10
193.7589328969662859
 20
-6.1258778360515711
 30
0.0
 11
193.6658489903981888
 21
-5.6503625979030359
 31
0.0
  0
ARC
  5
3AF1
  8
0
 10
207.9057118451171107
 20
-13.35840533340245
 30
0.0
 40
16.1922085255066115
 50
150.2509538111224003
 51
151.5733011736836886
  0
LINE
  5
3AF2
  8
0
 10
193.8475218440981962
 20
-5.3237982597030387
 30
0.0
 11
193.7927284320890067
 21
-5.1680130716079651
 31
0.0
  0
ARC
  5
3AF3
  8
0
 10
193.7284860876918913
 20
-5.200122206663143
 30
0.0
 40
0.0718197421857622
 50
26.5564620857759905
 51
86.1523488103756279
  0
ARC
  5
3AF4
  8
0
 10
195.0828174609654013
 20
-178.5228440497174063
 30
0.0
 40
173.39963118630709
 50
90.4459186108819324
 51
94.9950973628302648
  0
ARC
  5
3AF5
  8
0
 10
181.6086432769974977
 20
-24.9498090310196794
 30
0.0
 40
19.2367085557855688
 50
94.8422418667117029
 51
105.5921460153953007
  0
ARC
  5
3AF6
  8
0
 10
176.4577588237982013
 20
-6.4767085436030341
 30
0.0
 40
0.0590706217999991
 50
109.4894468998007966
 51
178.0242228241519058
  0
LINE
  5
3AF7
  8
0
 10
176.3987233199495961
 20
-6.4746719667735562
 30
0.0
 11
176.3976521522982068
 21
-6.5681241014030363
 31
0.0
  0
ARC
  5
3AF8
  8
0
 10
176.4685186502981935
 20
-6.5681241014030496
 30
0.0
 40
0.0708664979999829
 50
179.9999999999897966
 51
248.7587687176888096
  0
ARC
  5
3AF9
  8
0
 10
176.1401928483197139
 20
-7.8430480580837516
 30
0.0
 40
1.2461817682763601
 50
58.8576296564114472
 51
75.944432931351983
  0
ARC
  5
3AFA
  8
0
 10
176.8273887750981999
 20
-6.710303644703103
 30
0.0
 40
0.0787465544999299
 50
237.152435928756006
 51
267.7789668049687748
  0
LINE
  5
3AFB
  8
0
 10
179.4999169784773017
 20
-6.7683731711859236
 30
0.0
 11
179.6136561188644976
 21
-6.88800881823704
 31
0.0
  0
LINE
  5
3AFC
  8
0
 10
180.7487054691420099
 20
-6.8810534723983352
 30
0.0
 11
180.8420180682196872
 21
-6.758031015049915
 31
0.0
  0
ARC
  5
3AFD
  8
0
 10
192.2463184893155983
 20
-12.5686715647540304
 30
0.0
 40
5.9407484574473512
 50
97.2911775042080507
 51
104.6007813955688022
  0
ARC
  5
3AFE
  8
0
 10
191.7354205171891977
 20
3.3794308078842539
 30
0.0
 40
10.1962387646317296
 50
268.8999386247151051
 51
273.719523636803217
  0
ARC
  5
3AFF
  8
0
 10
191.8580803451741872
 20
-2.558623319447924
 30
0.0
 40
4.2708295611121176
 50
277.2475632053249228
 51
297.3355360265525178
  0
ARC
  5
3B00
  8
0
 10
192.3336872417013979
 20
-4.8964986745444881
 30
0.0
 40
2.1797866670355539
 50
270.9405085993067246
 51
290.0772203629185242
  0
ARC
  5
3B01
  8
0
 10
192.1024602992062
 20
-4.1571830278873882
 30
0.0
 40
2.9537787712376491
 50
289.3668390571880877
 51
304.196778438942772
  0
ARC
  5
3B02
  8
0
 10
176.7821510236516929
 20
-7.1844477748555127
 30
0.0
 40
0.0789233914083954
 50
239.3084987303138007
 51
266.923684563606173
  0
ARC
  5
3B03
  8
0
 10
176.3569872249753985
 20
-7.9007472303833479
 30
0.0
 40
0.7540526981009754
 50
59.3084987303137723
 51
80.4225001345431849
  0
ARC
  5
3B04
  8
0
 10
176.5144832541830056
 20
-7.0443734493493926
 30
0.0
 40
0.117291186250642
 50
180.3478951079106025
 51
254.1494736281597113
  0
LINE
  5
3B05
  8
0
 10
176.3971942300804017
 20
-7.0450856270963476
 30
0.0
 11
176.3975261898627025
 21
-6.984606795930361
 31
0.0
  0
ARC
  5
3B06
  8
0
 10
176.4762893758584141
 20
-6.9860042139376262
 30
0.0
 40
0.078775581529341
 50
89.5985808065200331
 51
178.9835637861687019
  0
ENDSEC
  0
EOF
