  0
SECTION
  2
HEADER
  9
$ACADVER
  1
AC1009
  9
$INSBASE
 10
3658.9840287267370513
 20
201.3219164988956038
 30
0.0
  9
$EXTMIN
 10
3651.3736744322040977
 20
173.1930226666410135
 30
-0.0015258207003583
  9
$EXTMAX
 10
3666.4786356875551974
 20
201.3325109443221947
 30
0.0000000349246037
  9
$LIMMIN
 10
0.0
 20
0.0
  9
$LIMMAX
 10
11.6929133858000007
 20
8.2677165353999982
  9
$ORTHOMODE
 70
     1
  9
$REGENMODE
 70
     1
  9
$FILLMODE
 70
     1
  9
$QTEXTMODE
 70
     0
  9
$MIRRTEXT
 70
     0
  9
$DRAGMODE
 70
     2
  9
$LTSCALE
 40
0.6431102362
  9
$OSMODE
 70
  4095
  9
$ATTMODE
 70
     1
  9
$TEXTSIZE
 40
0.2
  9
$TRACEWID
 40
0.05
  9
$TEXTSTYLE
  7
STANDARD
  9
$CLAYER
  8
0
  9
$CELTYPE
  6
BYLAYER
  9
$CECOLOR
 62
   256
  9
$DIMSCALE
 40
1.0
  9
$DIMASZ
 40
0.1875
  9
$DIMEXO
 40
0.0625
  9
$DIMDLI
 40
0.4443307087
  9
$DIMRND
 40
0.0
  9
$DIMDLE
 40
0.0
  9
$DIMEXE
 40
0.125
  9
$DIMTP
 40
0.01
  9
$DIMTM
 40
0.01
  9
$DIMTXT
 40
2.0
  9
$DIMCEN
 40
0.1052362205
  9
$DIMTSZ
 40
0.0
  9
$DIMTOL
 70
     1
  9
$DIMLIM
 70
     0
  9
$DIMTIH
 70
     1
  9
$DIMTOH
 70
     1
  9
$DIMSE1
 70
     0
  9
$DIMSE2
 70
     0
  9
$DIMTAD
 70
     0
  9
$DIMZIN
 70
     0
  9
$DIMBLK
  1

  9
$DIMASO
 70
     1
  9
$DIMSHO
 70
     1
  9
$DIMPOST
  1
\X
  9
$DIMAPOST
  1

  9
$DIMALT
 70
     1
  9
$DIMALTD
 70
     2
  9
$DIMALTF
 40
25.3999999999999986
  9
$DIMLFAC
 40
1.0
  9
$DIMTOFL
 70
     0
  9
$DIMTVP
 40
0.0
  9
$DIMTIX
 70
     0
  9
$DIMSOXD
 70
     0
  9
$DIMSAH
 70
     0
  9
$DIMBLK1
  1

  9
$DIMBLK2
  1

  9
$DIMSTYLE
  2
STANDARD
  9
$DIMCLRD
 70
     0
  9
$DIMCLRE
 70
     0
  9
$DIMCLRT
 70
     0
  9
$DIMTFAC
 40
1.0
  9
$DIMGAP
 40
0.09
  9
$LUNITS
 70
     2
  9
$LUPREC
 70
     4
  9
$SKETCHINC
 40
0.1
  9
$FILLETRAD
 40
0.0
  9
$AUNITS
 70
     0
  9
$AUPREC
 70
     0
  9
$MENU
  1
.
  9
$ELEVATION
 40
0.0
  9
$PELEVATION
 40
0.0
  9
$THICKNESS
 40
0.0
  9
$LIMCHECK
 70
     0
  9
$BLIPMODE
 70
     0
  9
$CHAMFERA
 40
0.0
  9
$CHAMFERB
 40
0.0
  9
$SKPOLY
 70
     0
  9
$TDCREATE
 40
2458060.468368056230247
  9
$TDUPDATE
 40
2459403.8219444439746439
  9
$TDINDWG
 40
0.3301575231
  9
$TDUSRTIMER
 40
0.3301575231
  9
$USRTIMER
 70
     1
  9
$ANGBASE
 50
0.0
  9
$ANGDIR
 70
     0
  9
$PDMODE
 70
     0
  9
$PDSIZE
 40
0.3125
  9
$PLINEWID
 40
0.0
  9
$COORDS
 70
     1
  9
$SPLFRAME
 70
     0
  9
$SPLINETYPE
 70
     6
  9
$SPLINESEGS
 70
     8
  9
$ATTDIA
 70
     1
  9
$ATTREQ
 70
     1
  9
$HANDLING
 70
     1
  9
$HANDSEED
  5
12CAC
  9
$SURFTAB1
 70
     6
  9
$SURFTAB2
 70
     6
  9
$SURFTYPE
 70
     6
  9
$SURFU
 70
     6
  9
$SURFV
 70
     6
  9
$UCSNAME
  2

  9
$UCSORG
 10
0.0
 20
0.0
 30
0.0
  9
$UCSXDIR
 10
1.0
 20
0.0
 30
0.0
  9
$UCSYDIR
 10
0.0
 20
1.0
 30
0.0
  9
$PUCSNAME
  2

  9
$PUCSORG
 10
0.0
 20
0.0
 30
0.0
  9
$PUCSXDIR
 10
1.0
 20
0.0
 30
0.0
  9
$PUCSYDIR
 10
0.0
 20
1.0
 30
0.0
  9
$USERI1
 70
     0
  9
$USERI2
 70
     0
  9
$USERI3
 70
     0
  9
$USERI4
 70
     0
  9
$USERI5
 70
     0
  9
$USERR1
 40
0.0
  9
$USERR2
 40
0.0
  9
$USERR3
 40
0.0
  9
$USERR4
 40
0.0
  9
$USERR5
 40
0.0
  9
$WORLDVIEW
 70
     1
  9
$SHADEDGE
 70
     3
  9
$SHADEDIF
 70
    70
  9
$TILEMODE
 70
     1
  9
$MAXACTVP
 70
    64
  9
$PLIMCHECK
 70
     0
  9
$PEXTMIN
 10
1.0000000000000000E+20
 20
1.0000000000000000E+20
 30
1.0000000000000000E+20
  9
$PEXTMAX
 10
-1.0000000000000000E+20
 20
-1.0000000000000000E+20
 30
-1.0000000000000000E+20
  9
$PLIMMIN
 10
0.0
 20
0.0
  9
$PLIMMAX
 10
12.0
 20
9.0
  9
$UNITMODE
 70
     0
  9
$VISRETAIN
 70
     1
  9
$PLINEGEN
 70
     0
  9
$PSLTSCALE
 70
     1
  0
ENDSEC
  0
SECTION
  2
TABLES
  0
TABLE
  2
VPORT
 70
     1
  0
VPORT
  2
*ACTIVE
 70
     0
 10
0.0
 20
0.0
 11
1.0
 21
1.0
 12
-144.6179123229331083
 22
61.2675046087317199
 13
0.0
 23
0.0
 14
1.0
 24
1.0
 15
0.0
 25
0.0
 16
0.0
 26
0.0
 36
17.1152628219792007
 17
3803.5440673828129547
 27
125.9952621967499056
 37
0.0
 40
28.3707717429771584
 41
2.6159122085048012
 42
50.0
 43
0.0
 44
0.0
 50
0.0
 51
0.0
 71
     0
 72
   100
 73
     1
 74
     1
 75
     0
 76
     0
 77
     0
 78
     0
  0
ENDTAB
  0
TABLE
  2
LTYPE
 70
     2
  0
LTYPE
  2
CONTINUOUS
 70
     0
  3
Solid line
 72
    65
 73
     0
 40
0.0
  0
LTYPE
  2
PHANTOM2
 70
     0
  3
___ _ _ ___ _ _ ___ _ _ ___ _ _
 72
    65
 73
     6
 40
1.25
 49
0.625
 49
-0.125
 49
0.125
 49
-0.125
 49
0.125
 49
-0.125
  0
ENDTAB
  0
TABLE
  2
LAYER
 70
     2
  0
LAYER
  2
0
 70
     0
 62
   255
  6
CONTINUOUS
  0
LAYER
  2
DEFPOINTS
 70
     0
 62
     7
  6
CONTINUOUS
  0
ENDTAB
  0
TABLE
  2
STYLE
 70
     1
  0
STYLE
  2
STANDARD
 70
     0
 40
0.0
 41
0.8
 50
0.0
 71
     0
 42
0.2
  3
txt
  4

  0
ENDTAB
  0
TABLE
  2
VIEW
 70
     0
  0
ENDTAB
  0
TABLE
  2
UCS
 70
     0
  0
ENDTAB
  0
TABLE
  2
APPID
 70
     9
  0
APPID
  2
ACAD
 70
     0
  0
APPID
  2
ACAD_MLEADERVER
 70
     0
  0
APPID
  2
ACAD_EXEMPT_FROM_CAD_STANDARDS
 70
     0
  0
APPID
  2
ACAD_NAV_VCDISPLAY
 70
     0
  0
APPID
  2
ACAECLAYERSTANDARD
 70
     0
  0
APPID
  2
ACCMTRANSPARENCY
 70
     0
  0
APPID
  2
ACAD_DSTYLE_DIMJAG
 70
     0
  0
APPID
  2
ACAD_DSTYLE_DIMTALN
 70
     0
  0
APPID
  2
ACDBATTR
 70
     0
  0
ENDTAB
  0
TABLE
  2
DIMSTYLE
 70
     1
  0
DIMSTYLE
  2
STANDARD
 70
     0
  3

  4

  5

  6

  7

 40
1.0
 41
0.1875
 42
0.0625
 43
0.38
 44
0.125
 45
0.0
 46
0.0
 47
0.01
 48
0.01
140
0.15625
141
0.09
142
0.0
143
25.3999999999999986
144
1.0
145
0.0
146
1.0
147
0.09
 71
     1
 72
     0
 73
     1
 74
     1
 75
     0
 76
     0
 77
     0
 78
     4
170
     0
171
     2
172
     0
173
     0
174
     0
175
     0
176
     0
177
     0
178
     0
  0
ENDTAB
  0
ENDSEC
  0
SECTION
  2
BLOCKS
  0
BLOCK
  8
0
  2
$MODEL_SPACE
 70
     0
 10
0.0
 20
0.0
 30
0.0
  3
$MODEL_SPACE
  1

  0
ENDBLK
  5
21
  8
0
  0
BLOCK
 67
     1
  8
0
  2
$PAPER_SPACE
 70
     0
 10
0.0
 20
0.0
 30
0.0
  3
$PAPER_SPACE
  1

  0
ENDBLK
  5
1D
 67
     1
  8
0
  0
BLOCK
  8
0
  2
_FILLED
 70
     0
 10
0.0
 20
0.0
 30
0.0
  3
_FILLED
  1

  0
SOLID
  5
124E8
  8
0
  6
BYBLOCK
 62
     0
 10
0.0
 20
0.0
 30
0.0
 11
-1.0
 21
0.1666666667
 31
0.0
 12
-1.0
 22
-0.1666666667
 32
0.0
 13
-1.0
 23
-0.1666666667
 33
0.0
  0
ENDBLK
  5
124E9
  8
0
  6
BYBLOCK
 62
     0
  0
ENDSEC
  0
SECTION
  2
ENTITIES
  0
ATTDEF
  5
1279D
  8
DEFPOINTS
 10
3658.9845788334801
 20
201.3253664824478051
 30
0.0
 40
0.001
  1
K-181812MY-NS
  3

  2
MODELNUMBER
 70
     0
1001
ACDBATTR
1070
     0
1070
     1
  0
ATTDEF
  5
1279E
  8
DEFPOINTS
 10
3658.9845788334801
 20
201.3236998157811115
 30
0.0
 40
0.001
  1
PANACHE
  3

  2
TRADENAME
 70
     0
1001
ACDBATTR
1070
     0
1070
     1
  0
ATTDEF
  5
1279F
  8
DEFPOINTS
 10
3658.9845788334801
 20
201.3220331491145032
 30
0.0
 40
0.001
  1
TOILET
  3

  2
PRODUCT
 70
     0
1001
ACDBATTR
1070
     0
1070
     1
  0
ARC
  5
12B0F
  8
0
 10
3659.0191974640511035
 20
156.8942711294214973
 30
0.0
 40
44.0376594124579981
 50
90.0457567559162015
 51
94.8927243393105044
  0
ARC
  5
12B10
  8
0
 10
3658.9630033086518779
 20
157.5507270723670104
 30
0.0
 40
43.3788026843831531
 50
94.8927243393105044
 51
97.171861366762684
  0
ARC
  5
12B11
  8
0
 10
3653.8715508987238536
 20
198.5274542600909911
 30
0.0
 40
2.0880105897033991
 50
98.9327691643705833
 51
175.8054295545900914
  0
ARC
  5
12B12
  8
0
 10
3659.5856254865529991
 20
197.512769295683313
 30
0.0
 40
7.8834089770672247
 50
171.4840699336685077
 51
190.772576805626386
  0
ARC
  5
12B13
  8
0
 10
3653.909934676382818
 20
196.3413142383899981
 30
0.0
 40
2.090720185119193
 50
188.3064674939253109
 51
221.2283279085629033
  0
ARC
  5
12B14
  8
0
 10
3659.006350910411129
 20
217.6297756324576937
 30
0.0
 40
23.9761660381145099
 50
263.0210288954882003
 51
269.9466567299854205
  0
ARC
  5
12B15
  8
0
 10
3658.955994429661132
 20
217.2184068694531049
 30
0.0
 40
23.5617266163295298
 50
256.3654074952644919
 51
263.0210288933619154
  0
ARC
  5
12B16
  8
0
 10
3653.8893218039552266
 20
196.3304796606724096
 30
0.0
 40
2.0680839614559829
 50
221.3789472488180934
 51
256.3654074952644919
  0
CIRCLE
  5
12B17
  8
0
 10
3658.9876691430631581
 20
197.3914913592955998
 30
0.0
 40
0.9485221952381548
  0
ARC
  5
12B18
  8
0
 10
3658.9876686064640126
 20
197.3916850205955882
 30
0.0
 40
0.6696801150306566
 50
97.8056911216344957
 51
262.424935409824684
  0
ARC
  5
12B19
  8
0
 10
3658.898963657089098
 20
198.0334265879891973
 30
0.0
 40
0.0218491982039895
 50
2.5441093746897341
 51
95.9019368194823869
  0
ARC
  5
12B1A
  8
0
 10
3662.6945843194921508
 20
197.3915818522777101
 30
0.0
 40
3.8281489263261239
 50
170.3332187525209065
 51
189.6667371020355972
  0
ARC
  5
12B1B
  8
0
 10
3658.898632704722786
 20
196.7500302641535939
 30
0.0
 40
0.0221939202368527
 50
271.9503180162295166
 51
356.7451961309539001
  0
CIRCLE
  5
12B1C
  8
0
 10
3658.9876686064640126
 20
197.3916850205955882
 30
0.0
 40
0.6877531877661029
  0
ARC
  5
12B1D
  8
0
 10
3658.8158182877841682
 20
198.0187559545854015
 30
0.0
 40
0.032973123170075
 50
50.3911489978176519
 51
160.2603807505612963
  0
ARC
  5
12B1E
  8
0
 10
3658.5245750326489542
 20
197.850566776740294
 30
0.0
 40
0.032965003138372
 50
76.6029283753600083
 51
193.9205513534633099
  0
ARC
  5
12B1F
  8
0
 10
3658.3624460154678673
 20
197.5572784553301062
 30
0.0
 40
0.0362294455699748
 50
113.1367603099169941
 51
217.1942935786279065
  0
ARC
  5
12B20
  8
0
 10
3658.3574988452519392
 20
197.2243165601142891
 30
0.0
 40
0.0338733803228502
 50
135.0416965722037901
 51
254.706205304433098
  0
ARC
  5
12B21
  8
0
 10
3658.5252412902450487
 20
196.9339515733906865
 30
0.0
 40
0.0341599475772683
 50
167.3010260833302141
 51
282.1144313844404223
  0
ARC
  5
12B22
  8
0
 10
3658.8162650666681657
 20
196.7649814512340072
 30
0.0
 40
0.0336902564250845
 50
199.846911274354909
 51
309.5604304003285279
  0
ARC
  5
12B23
  8
0
 10
3658.9560737491237887
 20
198.0406060573091054
 30
0.0
 40
0.0196716564371751
 50
92.4361804054543654
 51
170.1819432170887012
  0
ARC
  5
12B24
  8
0
 10
3658.9825434720901285
 20
197.3915881228766125
 30
0.0
 40
0.6692291112728661
 50
267.6615769318024149
 51
92.3384324985663056
  0
ARC
  5
12B25
  8
0
 10
3658.9560738585100808
 20
196.7425702443460125
 30
0.0
 40
0.0196717167503704
 50
189.8091542925945134
 51
267.5638290249070792
  0
ARC
  5
12B26
  8
0
 10
3662.7099117332318201
 20
197.3915883047756097
 30
0.0
 40
3.829202295767268
 50
170.190804790608297
 51
189.8091542925945134
  0
ARC
  5
12B27
  8
0
 10
3659.0405652855138214
 20
198.0380693110168124
 30
0.0
 40
0.0333450468872234
 50
30.8840064268816015
 51
138.8588605033995123
  0
ARC
  5
12B28
  8
0
 10
3659.3919747919940164
 20
197.895416730411398
 30
0.0
 40
0.033718670913833
 50
356.127724708573794
 51
105.6748892252117002
  0
ARC
  5
12B29
  8
0
 10
3659.599766934940817
 20
197.5777950572353916
 30
0.0
 40
0.0387693766055118
 50
324.7154783635068043
 51
68.860050234642955
  0
ARC
  5
12B2A
  8
0
 10
3659.6027114662188069
 20
197.2021811016165884
 30
0.0
 40
0.035003466339964
 50
288.2034052379779041
 51
37.8299480404243909
  0
ARC
  5
12B2B
  8
0
 10
3659.3922016008141327
 20
196.8877291020934024
 30
0.0
 40
0.0335782935013179
 50
254.1649553072834919
 51
4.0601067258617851
  0
ARC
  5
12B2C
  8
0
 10
3659.0401606646819346
 20
196.7476156050418865
 30
0.0
 40
0.0355819387953066
 50
223.5155464666902105
 51
326.7099057530098207
  0
ARC
  5
12B2D
  8
0
 10
3658.9766291481491862
 20
196.7297644452146983
 30
0.0
 40
0.0084574487650187
 50
269.8966351842042855
 51
298.9175234779514767
  0
ARC
  5
12B2E
  8
0
 10
3658.9774175039419788
 20
197.166754637197613
 30
0.0
 40
0.4454483518672715
 50
266.7347143609839009
 51
269.8966351842042855
  0
ARC
  5
12B2F
  8
0
 10
3658.9531325215639299
 20
196.7410888801339865
 30
0.0
 40
0.0190904070537628
 50
176.9558140163252915
 51
266.7347143609839009
  0
ARC
  5
12B30
  8
0
 10
3662.6946587638631172
 20
197.3915881471955913
 30
0.0
 40
3.816263397699903
 50
170.0691934614119134
 51
189.7987989386120944
  0
ARC
  5
12B31
  8
0
 10
3658.9529476774941941
 20
198.0422529468849859
 30
0.0
 40
0.0189154252662981
 50
92.7348447942674738
 51
156.6957670175484907
  0
ARC
  5
12B32
  8
0
 10
3658.9840288425630206
 20
197.3915881472075
 30
0.0
 40
0.6703221494880718
 50
90.6338111087789571
 51
92.7348443360095018
  0
ARC
  5
12B33
  8
0
 10
3658.9766975700808871
 20
198.0539758933491044
 30
0.0
 40
0.0078938343427294
 50
60.5151995744050808
 51
90.6078260611846105
  0
LINE
  5
12B34
  8
0
 10
3658.9349132237762205
 20
198.0459426340144944
 30
0.0
 11
3658.9178403538589919
 21
198.0444292140950893
 31
0.0
  0
LINE
  5
12B35
  8
0
 10
3658.9205407985068632
 20
198.0329239636672014
 30
0.0
 11
3658.9328780616729091
 21
198.0341395219942058
 31
0.0
  0
LINE
  5
12B36
  8
0
 10
3658.9018748272860648
 20
197.9112730200575072
 30
0.0
 11
3658.9139453681609666
 21
197.9112731865955936
 31
0.0
  0
ARC
  5
12B37
  8
0
 10
3658.8570363947569604
 20
197.788374052338213
 30
0.0
 40
0.0357578544375886
 50
320.8597845712561138
 51
27.33370965228956
  0
LINE
  5
12B38
  8
0
 10
3658.8727896443569989
 20
197.6120578447093123
 30
0.0
 11
3658.8847690760771911
 21
197.6120578447093123
 31
0.0
  0
LINE
  5
12B39
  8
0
 10
3658.8877973036451294
 20
197.6593046825956037
 30
0.0
 11
3658.8758078853070401
 21
197.6593046825956037
 31
0.0
  0
ARC
  5
12B3A
  8
0
 10
3658.5222127361871571
 20
197.3928783400371003
 30
0.0
 40
0.3540985173408335
 50
347.0012006596704737
 51
12.9633656394603491
  0
LINE
  5
12B3B
  8
0
 10
3658.8727901375991678
 20
197.1710973100190927
 30
0.0
 11
3658.8847702994389692
 21
197.1710973100190927
 31
0.0
  0
LINE
  5
12B3C
  8
0
 10
3658.8758093755441223
 20
197.1238503551101076
 30
0.0
 11
3658.8877987985752043
 21
197.1238503551101076
 31
0.0
  0
ARC
  5
12B3D
  8
0
 10
3658.8570190525219914
 20
196.9946146796602022
 30
0.0
 40
0.0358716105838227
 50
332.4976777394271039
 51
39.31464794057419
  0
LINE
  5
12B3E
  8
0
 10
3658.9018732526560598
 20
196.8719033947299124
 30
0.0
 11
3658.9139453287189099
 21
196.8719033947299124
 31
0.0
  0
LINE
  5
12B3F
  8
0
 10
3658.9086468098071236
 20
196.8246591283626969
 30
0.0
 11
3658.9207406661530513
 21
196.8246591283626969
 31
0.0
  0
LINE
  5
12B40
  8
0
 10
3658.9344314934642171
 20
196.7372528418796094
 30
0.0
 11
3658.9177071054618864
 21
196.7386840166716127
 31
0.0
  0
LINE
  5
12B41
  8
0
 10
3658.9183203745678838
 20
196.7634460092129984
 30
0.0
 11
3658.9306400961900181
 21
196.762279169000891
 31
0.0
  0
ARC
  5
12B42
  8
0
 10
3657.9230724617609667
 20
73.2511091388170144
 30
0.0
 40
117.7862583274005033
 50
89.4839029685743839
 51
90.7124729183603478
  0
ARC
  5
12B43
  8
0
 10
3656.8484897753987752
 20
169.8715496752398053
 30
0.0
 40
21.1603065596327902
 50
91.056202543635905
 51
95.5845966055021137
  0
LINE
  5
12B44
  8
0
 10
3654.7892673617629953
 20
190.9314209176955899
 30
0.0
 11
3654.7795868271628024
 21
191.1037177352955894
 31
0.0
  0
ARC
  5
12B45
  8
0
 10
3654.7381387067948708
 20
191.106832065593494
 30
0.0
 40
0.0415649580201501
 50
355.7029821964435996
 51
94.9315183076065381
  0
ARC
  5
12B46
  8
0
 10
3655.9421329562778737
 20
180.9023077768788994
 30
0.0
 40
10.3168508173312397
 50
96.7217681972056909
 51
99.4577877818596221
  0
ARC
  5
12B47
  8
0
 10
3654.2549559511189727
 20
191.0382050515756021
 30
0.0
 40
0.0415132701108515
 50
101.2480376714388939
 51
169.2288449408491999
  0
ARC
  5
12B48
  8
0
 10
3292.2980772467640236
 20
2471.3360889035870969
 30
0.0
 40
2308.8322411832009493
 50
278.9626125578283222
 51
279.0184715559814208
  0
ARC
  5
12B49
  8
0
 10
3657.9736718427629967
 20
148.9973553543262028
 30
0.0
 40
42.1238772112583888
 50
98.1652254177918167
 51
98.2359271695136158
  0
ARC
  5
12B4A
  8
0
 10
3651.9956288586140545
 20
190.2971600483143959
 30
0.0
 40
0.3936620078682074
 50
98.2052277954532542
 51
181.3521218574963996
  0
ARC
  5
12B4B
  8
0
 10
3762.3446590878079405
 20
189.8782266932502125
 30
0.0
 40
110.7433402726488936
 50
179.788060058431995
 51
184.2949735536898004
  0
ARC
  5
12B4C
  8
0
 10
3667.0293303670277965
 20
183.2731717781155965
 30
0.0
 40
15.2110352078868392
 50
186.3738241972685898
 51
205.3074036479025892
  0
ARC
  5
12B4D
  8
0
 10
3659.5692141875319976
 20
180.1221628590830051
 30
0.0
 40
7.1280429850314482
 50
208.044708970629614
 51
243.6690717313989865
  0
ARC
  5
12B4E
  8
0
 10
3659.0510593393719319
 20
180.0051300167056922
 30
0.0
 40
6.8058337485975482
 50
247.1437527722530945
 51
269.4356851140155982
  0
LINE
  5
12B4F
  8
0
 10
3654.793961705062884
 20
190.9320982142955927
 30
0.0
 11
3654.7909953703629071
 21
191.1296484041455983
 31
0.0
  0
ARC
  5
12B50
  8
0
 10
3654.8306626905100529
 20
191.1260460450500887
 30
0.0
 40
0.0398305570971028
 50
90.3553754903885533
 51
174.8109589095356
  0
ARC
  5
12B51
  8
0
 10
3612.4782433507898531
 20
191.9071512195293963
 30
0.0
 40
42.3198947789069919
 50
358.787547119537976
 51
358.9473004000773813
  0
LINE
  5
12B52
  8
0
 10
3654.7927633633139521
 20
191.0119046636195037
 30
0.0
 11
3654.7847705961921747
 21
191.011455588240409
 31
0.0
  0
LINE
  5
12B53
  8
0
 10
3654.8304156441631676
 20
191.1658758359955925
 30
0.0
 11
3655.2834110980629703
 21
191.1656253120956137
 31
0.0
  0
ARC
  5
12B54
  8
0
 10
3655.2833892107469183
 20
191.1260488296202027
 30
0.0
 40
0.0395764885277239
 50
3.4616872184912051
 51
89.9683132346004157
  0
ARC
  5
12B55
  8
0
 10
3650.4050961102320798
 20
190.9666420473857897
 30
0.0
 40
4.9204582246333173
 50
0.1203845949134604
 51
1.884362168692914
  0
LINE
  5
12B56
  8
0
 10
3654.6632880776792263
 20
191.1395909400796995
 30
0.0
 11
3654.6632904068119387
 21
191.3314803323989963
 31
0.0
  0
ARC
  5
12B57
  8
0
 10
3654.6855699928710237
 20
191.3304042411764101
 30
0.0
 40
0.0223055582161018
 50
96.6867116535061371
 51
177.2347956449038122
  0
LINE
  5
12B58
  8
0
 10
3654.6829727249191819
 20
191.3525580698864133
 30
0.0
 11
3663.2850847285549207
 21
191.3525580698864133
 31
0.0
  0
LINE
  5
12B59
  8
0
 10
3655.129722898062937
 20
191.360783275595594
 30
0.0
 11
3662.8383345554111656
 21
191.360783275595594
 31
0.0
  0
ARC
  5
12B5A
  8
0
 10
3655.129722898062937
 20
191.3410982361955917
 30
0.0
 40
0.0196850393999929
 50
90.0
 51
144.3974222884328924
  0
LINE
  5
12B5B
  8
0
 10
3654.8974146693631155
 20
191.3525367853956141
 30
0.0
 11
3654.8974146693631155
 21
191.4201879940956132
 31
0.0
  0
ARC
  5
12B5C
  8
0
 10
3654.8777296299631416
 20
191.4201879940956132
 30
0.0
 40
0.0196850394000023
 50
0.0
 51
90.0
  0
LINE
  5
12B5D
  8
0
 10
3654.8777296299631416
 20
191.4398730334955872
 30
0.0
 11
3654.7406712321630948
 21
191.4398730334955872
 31
0.0
  0
ARC
  5
12B5E
  8
0
 10
3654.7406712321630948
 20
191.4201879940956132
 30
0.0
 40
0.0196850393999952
 50
90.0
 51
180.0000000000619025
  0
LINE
  5
12B5F
  8
0
 10
3654.7209861927640304
 20
191.4201879940956132
 30
0.0
 11
3654.7209861927640304
 21
191.4123139782956002
 31
0.0
  0
ARC
  5
12B60
  8
0
 10
3654.7406712321630948
 20
191.4123139782956002
 30
0.0
 40
0.0196850394000238
 50
180.0000000000619025
 51
269.999999999895806
  0
LINE
  5
12B61
  8
0
 10
3654.7406712321630948
 20
191.3926289388955979
 30
0.0
 11
3654.8186745118628096
 21
191.3926289388955126
 31
0.0
  0
ARC
  5
12B62
  8
0
 10
3654.8186745118628096
 20
191.3729438994955103
 30
0.0
 40
0.0196850394000379
 50
0.000000291563127
 51
89.9999999999218403
  0
LINE
  5
12B63
  8
0
 10
3654.8383595512627835
 20
191.3729438995956116
 30
0.0
 11
3654.8383595513660111
 21
191.3525580698864133
 31
0.0
  0
LINE
  5
12B64
  8
0
 10
3655.3304855354640495
 20
191.0672922104577083
 30
0.0
 11
3655.3304855354640495
 21
191.3114546998955916
 31
0.0
  0
ARC
  5
12B65
  8
0
 10
3655.3716030637829135
 20
191.3114546998955916
 30
0.0
 40
0.0411175283189249
 50
91.5536657415192536
 51
180.0
  0
ARC
  5
12B66
  8
0
 10
3641.4587568643050872
 20
190.9221328386408914
 30
0.0
 40
13.8785813084177505
 50
0.229898226826871
 51
1.2110217048149909
  0
ARC
  5
12B67
  8
0
 10
3678.7347018403061156
 20
190.7804336293893925
 30
0.0
 40
23.4045068390240303
 50
178.934982309191696
 51
179.2976925747827011
  0
LINE
  5
12B68
  8
0
 10
3655.3332050156568584
 20
191.1557824589152972
 30
0.0
 11
3655.3353712564858142
 21
191.1557824589152972
 31
0.0
  0
LINE
  5
12B69
  8
0
 10
3656.4584382913631089
 20
191.3525580698864133
 30
0.0
 11
3656.4584382913631089
 21
191.0282609871956083
 31
0.0
  0
LINE
  5
12B6A
  8
0
 10
3656.4584382913631089
 20
191.2156194403956135
 30
0.0
 11
3656.452532777263059
 21
191.2156193252293974
 31
0.0
  0
LINE
  5
12B6B
  8
0
 10
3656.452532777263059
 20
191.3525580698864133
 30
0.0
 11
3656.452532777263059
 21
191.0280857008065141
 31
0.0
  0
LINE
  5
12B6C
  8
0
 10
3656.4584382913631089
 20
191.331472940045586
 30
0.0
 11
3656.452532777263059
 21
191.331472940045586
 31
0.0
  0
LINE
  5
12B6D
  8
0
 10
3656.4584382913631089
 20
191.2878230452955961
 30
0.0
 11
3656.452532777263059
 21
191.2878230452955961
 31
0.0
  0
ARC
  5
12B6E
  8
0
 10
3871.9607593813411768
 20
193.3265830407777912
 30
0.0
 40
219.9958865158484969
 50
179.4217644307530009
 51
180.6859772967578976
  0
ARC
  5
12B6F
  8
0
 10
3658.9488599894229992
 20
156.8942711294214973
 30
0.0
 40
44.0376594124579981
 50
85.1072756606894956
 51
89.9542432440837985
  0
ARC
  5
12B70
  8
0
 10
3659.0050541448222248
 20
157.5507270723670104
 30
0.0
 40
43.3788026843831531
 50
82.828138633237316
 51
85.1072756606894956
  0
ARC
  5
12B71
  8
0
 10
3664.0965065547488848
 20
198.5274542600909911
 30
0.0
 40
2.0880105897033991
 50
4.1945704454114781
 51
81.0672308356294451
  0
ARC
  5
12B72
  8
0
 10
3658.3824319669201941
 20
197.512769295683313
 30
0.0
 40
7.8834089770672247
 50
349.2274231943735003
 51
8.5159300663314585
  0
ARC
  5
12B73
  8
0
 10
3664.0581227770899204
 20
196.3413142383899981
 30
0.0
 40
2.090720185119193
 50
318.771672091436983
 51
351.6935325060746891
  0
ARC
  5
12B74
  8
0
 10
3658.9617065430620642
 20
217.6297756324580064
 30
0.0
 40
23.9761660381148189
 50
270.0533432700145795
 51
276.9789711045117997
  0
ARC
  5
12B75
  8
0
 10
3659.0120630238120611
 20
217.2184068694531049
 30
0.0
 40
23.5617266163295298
 50
276.9789711066380846
 51
283.6345925047355081
  0
ARC
  5
12B76
  8
0
 10
3664.078735649518876
 20
196.3304796606724096
 30
0.0
 40
2.0680839614559829
 50
283.6345925047355081
 51
318.6210527511818782
  0
ARC
  5
12B77
  8
0
 10
3660.044984991713136
 20
73.2511091388170144
 30
0.0
 40
117.7862583274005033
 50
89.2875270816396522
 51
90.5160970314256446
  0
ARC
  5
12B78
  8
0
 10
3661.1195676780748727
 20
169.8715496752398053
 30
0.0
 40
21.1603065596327902
 50
84.4154033944978863
 51
88.943797456364095
  0
LINE
  5
12B79
  8
0
 10
3663.1787900917101979
 20
190.9314209176955899
 30
0.0
 11
3663.1884706263108455
 21
191.1037177352955894
 31
0.0
  0
ARC
  5
12B7A
  8
0
 10
3663.2299187466778676
 20
191.106832065593494
 30
0.0
 40
0.0415649580201501
 50
85.0684816923934761
 51
184.2970178035546951
  0
ARC
  5
12B7B
  8
0
 10
3662.0259244971957742
 20
180.9023077768788994
 30
0.0
 40
10.3168508173312397
 50
80.5422122181403637
 51
83.2782318027943234
  0
ARC
  5
12B7C
  8
0
 10
3663.7131015023542204
 20
191.0382050515756021
 30
0.0
 40
0.0415132701108515
 50
10.7711550591508001
 51
78.7519623285611203
  0
ARC
  5
12B7D
  8
0
 10
4025.6699802067100791
 20
2471.3360889035870969
 30
0.0
 40
2308.8322411832009493
 50
260.9815284440185224
 51
261.0373874421716209
  0
ARC
  5
12B7E
  8
0
 10
3659.994385610711106
 20
148.9973553543262028
 30
0.0
 40
42.1238772112583888
 50
81.7640728304863842
 51
81.8347745822081833
  0
ARC
  5
12B7F
  8
0
 10
3665.9724285948591387
 20
190.2971600483143959
 30
0.0
 40
0.3936620078682074
 50
358.6478781425036004
 51
81.7947722045467742
  0
ARC
  5
12B80
  8
0
 10
3555.6233983656661621
 20
189.8782266932502125
 30
0.0
 40
110.7433402726488936
 50
355.705026446310228
 51
0.2119399415680141
  0
ARC
  5
12B81
  8
0
 10
3650.9387270864458515
 20
183.2731717781155965
 30
0.0
 40
15.2110352078868392
 50
334.6925963520973824
 51
353.6261758027297901
  0
ARC
  5
12B82
  8
0
 10
3658.3988432659421051
 20
180.1221628590830051
 30
0.0
 40
7.1280429850314482
 50
296.3309282686009851
 51
331.9552910293704144
  0
ARC
  5
12B83
  8
0
 10
3658.9404834113797733
 20
179.8918261947493136
 30
0.0
 40
6.6923414970874928
 50
270.3728112789787019
 51
293.0477508347270259
  0
LINE
  5
12B84
  8
0
 10
3663.1740957484112187
 20
190.9320982142955927
 30
0.0
 11
3663.1770620831111955
 21
191.1296484041455983
 31
0.0
  0
ARC
  5
12B85
  8
0
 10
3663.1373947629631402
 20
191.1260460450500887
 30
0.0
 40
0.0398305570971028
 50
5.1890410904660227
 51
89.6446245096114041
  0
ARC
  5
12B86
  8
0
 10
3705.4898141026828853
 20
191.9071512195293963
 30
0.0
 40
42.3198947789069919
 50
181.0526995999225903
 51
181.2124528804619956
  0
LINE
  5
12B87
  8
0
 10
3663.1752940901587863
 20
191.0119046636195037
 30
0.0
 11
3663.183286857281928
 21
191.011455588240409
 31
0.0
  0
LINE
  5
12B88
  8
0
 10
3663.1376418093100256
 20
191.1658758359955925
 30
0.0
 11
3662.6846463554111324
 21
191.1656253120956137
 31
0.0
  0
ARC
  5
12B89
  8
0
 10
3662.6846682427258202
 20
191.1260488296202027
 30
0.0
 40
0.0395764885277239
 50
90.0316867653995843
 51
176.538312781507102
  0
ARC
  5
12B8A
  8
0
 10
3667.5629613432420228
 20
190.9666420473857897
 30
0.0
 40
4.9204582246333173
 50
178.1156378313071116
 51
179.879615405086497
  0
LINE
  5
12B8B
  8
0
 10
3663.3047693757939669
 20
191.1395909400796995
 30
0.0
 11
3663.3047670466621639
 21
191.3314803323989963
 31
0.0
  0
ARC
  5
12B8C
  8
0
 10
3663.2824874606021694
 20
191.3304042411764101
 30
0.0
 40
0.0223055582161018
 50
2.7652043550977861
 51
83.3132883464938772
  0
ARC
  5
12B8D
  8
0
 10
3662.8383345554111656
 20
191.3410982361955917
 30
0.0
 40
0.0196850393999929
 50
35.6025777115670508
 51
90.0
  0
LINE
  5
12B8E
  8
0
 10
3663.0706427841109871
 20
191.3525367853956141
 30
0.0
 11
3663.0706427841109871
 21
191.4201879940956132
 31
0.0
  0
ARC
  5
12B8F
  8
0
 10
3663.0903278235100515
 20
191.4201879940956132
 30
0.0
 40
0.0196850394000023
 50
90.0
 51
180.0
  0
LINE
  5
12B90
  8
0
 10
3663.0903278235100515
 20
191.4398730334955872
 30
0.0
 11
3663.2273862213100983
 21
191.4398730334955872
 31
0.0
  0
ARC
  5
12B91
  8
0
 10
3663.2273862213100983
 20
191.4201879940956132
 30
0.0
 40
0.0196850393999952
 50
359.9999999999380975
 51
90.0
  0
LINE
  5
12B92
  8
0
 10
3663.2470712607100722
 20
191.4201879940956132
 30
0.0
 11
3663.2470712607100722
 21
191.4123139782956002
 31
0.0
  0
ARC
  5
12B93
  8
0
 10
3663.2273862213100983
 20
191.4123139782956002
 30
0.0
 40
0.0196850394000238
 50
270.000000000104194
 51
359.9999999999380975
  0
LINE
  5
12B94
  8
0
 10
3663.2273862213100983
 20
191.3926289388955979
 30
0.0
 11
3663.1493829416108383
 21
191.3926289388955126
 31
0.0
  0
ARC
  5
12B95
  8
0
 10
3663.1493829416108383
 20
191.3729438994955103
 30
0.0
 40
0.0196850394000379
 50
90.0000000000781455
 51
179.9999997084352117
  0
LINE
  5
12B96
  8
0
 10
3663.1296979022099549
 20
191.3729438995956116
 30
0.0
 11
3663.129697902107182
 21
191.3525580698864133
 31
0.0
  0
LINE
  5
12B97
  8
0
 10
3662.6375719180100532
 20
191.0675718436316117
 30
0.0
 11
3662.6375719180100532
 21
191.3114546998955916
 31
0.0
  0
ARC
  5
12B98
  8
0
 10
3662.5964527002729483
 20
191.3114540134957053
 30
0.0
 40
0.0411192177440312
 50
0.000956434086029
 51
88.4440431933746964
  0
ARC
  5
12B99
  8
0
 10
3676.5093005891690154
 20
190.9221328386408914
 30
0.0
 40
13.8785813084177505
 50
178.7889782951833979
 51
179.7701017731731099
  0
ARC
  5
12B9A
  8
0
 10
3639.233355613167987
 20
190.7804336293893925
 30
0.0
 40
23.4045068390240303
 50
0.7030247725209995
 51
1.065017690808248
  0
LINE
  5
12B9B
  8
0
 10
3662.6348524378167895
 20
191.1557824589152972
 30
0.0
 11
3662.6326861969878337
 21
191.1557824589152972
 31
0.0
  0
LINE
  5
12B9C
  8
0
 10
3661.5096191621100843
 20
191.3525580698864133
 30
0.0
 11
3661.5096191621100843
 21
191.0282609871956083
 31
0.0
  0
LINE
  5
12B9D
  8
0
 10
3661.5096191621100843
 20
191.2156194403956135
 30
0.0
 11
3661.5166802873000051
 21
191.2156193026933977
 31
0.0
  0
LINE
  5
12B9E
  8
0
 10
3661.5155246762101342
 20
191.3525580698864133
 30
0.0
 11
3661.5155246762101342
 21
191.0280857008065141
 31
0.0
  0
LINE
  5
12B9F
  8
0
 10
3661.5096191621100843
 20
191.331472940045586
 30
0.0
 11
3661.5155246762101342
 21
191.331472940045586
 31
0.0
  0
LINE
  5
12BA0
  8
0
 10
3661.5096191621100843
 20
191.2878230452955961
 30
0.0
 11
3661.5155246762101342
 21
191.2878230452955961
 31
0.0
  0
ARC
  5
12BA1
  8
0
 10
3446.0072980721329259
 20
193.3265830407777912
 30
0.0
 40
219.9958865158484969
 50
359.3140227032404823
 51
0.5782355692469597
  0
LINE
  5
12BA3
  8
0
 10
3662.6314826656248442
 20
191.0676966230043092
 30
0.0
 11
3662.643535871576205
 21
191.067449631849712
 31
0.0
  0
LINE
  5
12BA4
  8
0
 10
3655.3245261985721299
 20
191.0672240850111905
 30
0.0
 11
3655.336578295111849
 21
191.0673618611554048
 31
0.0
  0
ENDSEC
  0
EOF
