  0
SECTION
  2
HEADER
  9
$ACADVER
  1
AC1009
  9
$INSBASE
 10
4574.1217718024763599
 20
504.2236590005991275
 30
0.0
  9
$EXTMIN
 10
4542.6143650313397302
 20
489.439798814124913
 30
-0.0000000349181948
  9
$EXTMAX
 10
4605.8741374566297964
 20
519.0118597993199501
 30
0.0000000814935746
  9
$LIMMIN
 10
0.0
 20
0.0
  9
$LIMMAX
 10
11.6929133858000007
 20
8.2677165353999982
  9
$ORTHOMODE
 70
     0
  9
$REGENMODE
 70
     1
  9
$FILLMODE
 70
     1
  9
$QTEXTMODE
 70
     0
  9
$MIRRTEXT
 70
     0
  9
$DRAGMODE
 70
     2
  9
$LTSCALE
 40
0.6431102362
  9
$OSMODE
 70
     7
  9
$ATTMODE
 70
     1
  9
$TEXTSIZE
 40
0.2
  9
$TRACEWID
 40
0.05
  9
$TEXTSTYLE
  7
STANDARD
  9
$CLAYER
  8
0
  9
$CELTYPE
  6
BYLAYER
  9
$CECOLOR
 62
   256
  9
$DIMSCALE
 40
1.0
  9
$DIMASZ
 40
0.1875
  9
$DIMEXO
 40
0.0625
  9
$DIMDLI
 40
0.4443307087
  9
$DIMRND
 40
0.0
  9
$DIMDLE
 40
0.0
  9
$DIMEXE
 40
0.125
  9
$DIMTP
 40
0.01
  9
$DIMTM
 40
0.01
  9
$DIMTXT
 40
2.0
  9
$DIMCEN
 40
0.1052362205
  9
$DIMTSZ
 40
0.0
  9
$DIMTOL
 70
     1
  9
$DIMLIM
 70
     0
  9
$DIMTIH
 70
     1
  9
$DIMTOH
 70
     1
  9
$DIMSE1
 70
     0
  9
$DIMSE2
 70
     0
  9
$DIMTAD
 70
     0
  9
$DIMZIN
 70
     0
  9
$DIMBLK
  1

  9
$DIMASO
 70
     1
  9
$DIMSHO
 70
     1
  9
$DIMPOST
  1
\X
  9
$DIMAPOST
  1

  9
$DIMALT
 70
     1
  9
$DIMALTD
 70
     2
  9
$DIMALTF
 40
25.3999999999999986
  9
$DIMLFAC
 40
1.0
  9
$DIMTOFL
 70
     0
  9
$DIMTVP
 40
0.0
  9
$DIMTIX
 70
     0
  9
$DIMSOXD
 70
     0
  9
$DIMSAH
 70
     0
  9
$DIMBLK1
  1

  9
$DIMBLK2
  1

  9
$DIMSTYLE
  2
STANDARD
  9
$DIMCLRD
 70
     0
  9
$DIMCLRE
 70
     0
  9
$DIMCLRT
 70
     0
  9
$DIMTFAC
 40
1.0
  9
$DIMGAP
 40
0.09
  9
$LUNITS
 70
     2
  9
$LUPREC
 70
     4
  9
$SKETCHINC
 40
0.1
  9
$FILLETRAD
 40
0.0
  9
$AUNITS
 70
     0
  9
$AUPREC
 70
     0
  9
$MENU
  1
.
  9
$ELEVATION
 40
0.0
  9
$PELEVATION
 40
0.0
  9
$THICKNESS
 40
0.0
  9
$LIMCHECK
 70
     0
  9
$BLIPMODE
 70
     0
  9
$CHAMFERA
 40
0.0
  9
$CHAMFERB
 40
0.0
  9
$SKPOLY
 70
     0
  9
$TDCREATE
 40
2458060.468368056230247
  9
$TDUPDATE
 40
2459562.4485995369032025
  9
$TDINDWG
 40
1.4518352662
  9
$TDUSRTIMER
 40
1.4518352662
  9
$USRTIMER
 70
     1
  9
$ANGBASE
 50
0.0
  9
$ANGDIR
 70
     0
  9
$PDMODE
 70
     0
  9
$PDSIZE
 40
0.3125
  9
$PLINEWID
 40
0.0
  9
$COORDS
 70
     1
  9
$SPLFRAME
 70
     0
  9
$SPLINETYPE
 70
     6
  9
$SPLINESEGS
 70
     8
  9
$ATTDIA
 70
     1
  9
$ATTREQ
 70
     1
  9
$HANDLING
 70
     1
  9
$HANDSEED
  5
187AF
  9
$SURFTAB1
 70
     6
  9
$SURFTAB2
 70
     6
  9
$SURFTYPE
 70
     6
  9
$SURFU
 70
     6
  9
$SURFV
 70
     6
  9
$UCSNAME
  2

  9
$UCSORG
 10
0.0
 20
0.0
 30
0.0
  9
$UCSXDIR
 10
1.0
 20
0.0
 30
0.0
  9
$UCSYDIR
 10
0.0
 20
1.0
 30
0.0
  9
$PUCSNAME
  2

  9
$PUCSORG
 10
0.0
 20
0.0
 30
0.0
  9
$PUCSXDIR
 10
1.0
 20
0.0
 30
0.0
  9
$PUCSYDIR
 10
0.0
 20
1.0
 30
0.0
  9
$USERI1
 70
     0
  9
$USERI2
 70
     0
  9
$USERI3
 70
     0
  9
$USERI4
 70
     0
  9
$USERI5
 70
     0
  9
$USERR1
 40
0.0
  9
$USERR2
 40
0.0
  9
$USERR3
 40
0.0
  9
$USERR4
 40
0.0
  9
$USERR5
 40
0.0
  9
$WORLDVIEW
 70
     1
  9
$SHADEDGE
 70
     3
  9
$SHADEDIF
 70
    70
  9
$TILEMODE
 70
     1
  9
$MAXACTVP
 70
    64
  9
$PLIMCHECK
 70
     0
  9
$PEXTMIN
 10
1.0000000000000000E+20
 20
1.0000000000000000E+20
 30
1.0000000000000000E+20
  9
$PEXTMAX
 10
-1.0000000000000000E+20
 20
-1.0000000000000000E+20
 30
-1.0000000000000000E+20
  9
$PLIMMIN
 10
0.0
 20
0.0
  9
$PLIMMAX
 10
12.0
 20
9.0
  9
$UNITMODE
 70
     0
  9
$VISRETAIN
 70
     1
  9
$PLINEGEN
 70
     0
  9
$PSLTSCALE
 70
     1
  0
ENDSEC
  0
SECTION
  2
TABLES
  0
TABLE
  2
VPORT
 70
     1
  0
VPORT
  2
*ACTIVE
 70
     0
 10
0.0
 20
0.0
 11
1.0
 21
1.0
 12
662.8788947986730591
 22
371.6462242041833974
 13
0.0
 23
0.0
 14
1.0
 24
1.0
 15
0.0
 25
0.0
 16
0.0
 26
0.0
 36
60.4960186965801583
 17
3911.3653564453120453
 27
132.5796051025390057
 37
0.0
 40
29.7837941187406194
 41
2.2831541218637992
 42
50.0
 43
0.0
 44
0.0
 50
0.0
 51
0.0
 71
     0
 72
   100
 73
     1
 74
     1
 75
     0
 76
     0
 77
     0
 78
     0
  0
ENDTAB
  0
TABLE
  2
LTYPE
 70
     2
  0
LTYPE
  2
CONTINUOUS
 70
     0
  3
Solid line
 72
    65
 73
     0
 40
0.0
  0
LTYPE
  2
PHANTOM2
 70
     0
  3
___ _ _ ___ _ _ ___ _ _ ___ _ _
 72
    65
 73
     6
 40
1.25
 49
0.625
 49
-0.125
 49
0.125
 49
-0.125
 49
0.125
 49
-0.125
  0
ENDTAB
  0
TABLE
  2
LAYER
 70
     2
  0
LAYER
  2
0
 70
     0
 62
   255
  6
CONTINUOUS
  0
LAYER
  2
DEFPOINTS
 70
     0
 62
     7
  6
CONTINUOUS
  0
ENDTAB
  0
TABLE
  2
STYLE
 70
     1
  0
STYLE
  2
STANDARD
 70
     0
 40
0.0
 41
0.8
 50
0.0
 71
     0
 42
0.2
  3
txt
  4

  0
ENDTAB
  0
TABLE
  2
VIEW
 70
     0
  0
ENDTAB
  0
TABLE
  2
UCS
 70
     0
  0
ENDTAB
  0
TABLE
  2
APPID
 70
    11
  0
APPID
  2
ACAD
 70
     0
  0
APPID
  2
ACAD_MLEADERVER
 70
     0
  0
APPID
  2
ACAD_EXEMPT_FROM_CAD_STANDARDS
 70
     0
  0
APPID
  2
ACAD_NAV_VCDISPLAY
 70
     0
  0
APPID
  2
ACAECLAYERSTANDARD
 70
     0
  0
APPID
  2
ACCMTRANSPARENCY
 70
     0
  0
APPID
  2
ACAD_DSTYLE_DIMJAG
 70
     0
  0
APPID
  2
ACAD_DSTYLE_DIMTALN
 70
     0
  0
APPID
  2
ACDBATTR
 70
     0
  0
APPID
  2
ACADANNOTATIVE
 70
     0
  0
APPID
  2
DCO15
 70
     0
  0
ENDTAB
  0
TABLE
  2
DIMSTYLE
 70
     1
  0
DIMSTYLE
  2
STANDARD
 70
     0
  3

  4

  5

  6

  7

 40
1.0
 41
0.1875
 42
0.0625
 43
0.38
 44
0.125
 45
0.0
 46
0.0
 47
0.01
 48
0.01
140
0.15625
141
0.09
142
0.0
143
25.3999999999999986
144
1.0
145
0.0
146
1.0
147
0.09
 71
     1
 72
     0
 73
     1
 74
     1
 75
     0
 76
     0
 77
     0
 78
     4
170
     0
171
     2
172
     0
173
     0
174
     0
175
     0
176
     0
177
     0
178
     0
  0
ENDTAB
  0
ENDSEC
  0
SECTION
  2
BLOCKS
  0
BLOCK
  8
0
  2
$MODEL_SPACE
 70
     0
 10
0.0
 20
0.0
 30
0.0
  3
$MODEL_SPACE
  1

  0
ENDBLK
  5
21
  8
0
  0
BLOCK
 67
     1
  8
0
  2
$PAPER_SPACE
 70
     0
 10
0.0
 20
0.0
 30
0.0
  3
$PAPER_SPACE
  1

  0
ENDBLK
  5
1D
 67
     1
  8
0
  0
BLOCK
  8
0
  2
_CLOSED
 70
     0
 10
0.0
 20
0.0
 30
0.0
  3
_CLOSED
  1

  0
LINE
  5
18616
  8
0
  6
BYBLOCK
 62
     0
 10
0.0
 20
0.0
 30
0.0
 11
-1.0
 21
0.1666666667
 31
0.0
  0
LINE
  5
18617
  8
0
  6
BYBLOCK
 62
     0
 10
-1.0
 20
0.1666666667
 30
0.0
 11
-1.0
 21
-0.1666666667
 31
0.0
  0
LINE
  5
18618
  8
0
  6
BYBLOCK
 62
     0
 10
-1.0
 20
-0.1666666667
 30
0.0
 11
0.0
 21
0.0
 31
0.0
  0
LINE
  5
18619
  8
0
  6
BYBLOCK
 62
     0
 10
-1.0
 20
0.0
 30
0.0
 11
0.0
 21
0.0
 31
0.0
  0
ENDBLK
  5
1861A
  8
0
  6
BYBLOCK
 62
     0
  0
ENDSEC
  0
SECTION
  2
ENTITIES
  0
ATTDEF
  5
159BF
  8
DEFPOINTS
 10
4574.1217927513262111
 20
504.2270152921881845
 30
0.0
 40
0.001
  1
18233T
  3

  2
MODELNUMBER
 70
     0
1001
ACDBATTR
1070
     0
1070
     1
  0
ATTDEF
  5
159C0
  8
DEFPOINTS
 10
4574.1217927513262111
 20
504.2253484518091113
 30
0.0
 40
0.001
  1
BAIN DOUCHE
  3

  2
TRADENAME
 70
     0
1001
ACDBATTR
1070
     0
1070
     1
  0
ATTDEF
  5
159C1
  8
DEFPOINTS
 10
4574.1217927513262111
 20
504.2236819588547974
 30
0.0
 40
0.001
  1
BATH
  3

  2
PRODUCT
 70
     0
1001
ACDBATTR
1070
     0
1070
     1
  0
LINE
  5
18667
  8
0
 10
4605.6193067838748902
 20
518.5948318106881061
 30
0.0
 11
4605.6193067838748902
 21
489.852485707894914
 31
0.0
  0
LINE
  5
18668
  8
0
 10
4543.0176973912839458
 20
518.988108517724072
 30
0.0
 11
4605.2260276704028001
 21
518.988108517724072
 31
0.0
  0
LINE
  5
18669
  8
0
 10
4542.624236821075101
 20
489.8524827273690789
 30
0.0
 11
4542.624236821075101
 21
518.5945121151222565
 31
0.0
  0
LINE
  5
1866A
  8
0
 10
4605.2260280611499184
 20
489.4592094834741829
 30
0.0
 11
4543.0175125010828197
 21
489.4592094834741829
 31
0.0
  0
ARC
  5
1866B
  8
0
 10
4543.0176049802739726
 20
489.8525776432538805
 30
0.0
 40
0.3933681706503955
 50
180.0138249117819953
 51
269.9865300056072783
  0
ARC
  5
1866C
  8
0
 10
4605.2259371366635605
 20
489.852579131272023
 30
0.0
 40
0.3933696583061728
 50
270.0132434966383812
 51
359.9863925316186055
  0
ARC
  5
1866D
  8
0
 10
4605.2259367134720378
 20
518.5947384467563097
 30
0.0
 40
0.3933700814836341
 50
0.0135987979232301
 51
89.986751790514262
  0
ARC
  5
1866E
  8
0
 10
4543.0176053776158369
 20
518.594739905991446
 30
0.0
 40
0.3933686224944124
 50
89.9865978267841342
 51
180.0331786911337133
  0
ARC
  5
1866F
  8
0
 10
30192.5185157211708429
 20
504.2350674949141194
 30
0.0
 40
25587.2487711801404657
 50
179.9680092169662942
 51
180.0321285780746905
  0
ARC
  5
18670
  8
0
 10
4574.2283622499153353
 20
-73545.3874195803655311
 30
0.0
 40
74035.1987583834416
 50
89.9760437763397363
 51
90.0241396394144147
  0
ARC
  5
18671
  8
0
 10
-42078.4879941307517583
 20
504.3222722328015948
 30
0.0
 40
46621.4599441528407624
 50
359.9822625806435212
 51
0.0174982112724789
  0
ARC
  5
18672
  8
0
 10
4574.1810117698832983
 20
63811.3241953187171021
 30
0.0
 40
63292.6894170964296791
 50
269.9718322933608761
 51
270.0279984640235966
  0
ARC
  5
18673
  8
0
 10
4605.1124091413039423
 20
518.4262509746017713
 30
0.0
 40
0.216098115429488
 50
60.5958799361447831
 51
90.6502184769067583
  0
ARC
  5
18674
  8
0
 10
4605.1652280794887702
 20
518.5199737299210483
 30
0.0
 40
0.1085165412845469
 50
0.8408545434940473
 51
60.5958799361429712
  0
ARC
  5
18675
  8
0
 10
4543.0647907311922609
 20
518.5353130685386986
 30
0.0
 40
0.1071142180528981
 50
89.829104798011727
 51
127.1672601904810023
  0
ARC
  5
18676
  8
0
 10
4543.0463326859116933
 20
518.559659520770083
 30
0.0
 40
0.0765618176256768
 50
127.1672601904810023
 51
179.3476983342650897
  0
ARC
  5
18677
  8
0
 10
4543.073452954374261
 20
489.8886653105267897
 30
0.0
 40
0.1037393697825491
 50
179.6106861670158139
 51
212.6271223450478942
  0
ARC
  5
18678
  8
0
 10
4543.0372077989368336
 20
489.8654613844075811
 30
0.0
 40
0.0607029493917391
 50
212.627122345050509
 51
268.9877683620113089
  0
ARC
  5
18679
  8
0
 10
4605.1840619774529841
 20
489.9004004626621054
 30
0.0
 40
0.0955342623589993
 50
269.7150900685549004
 51
310.351235858473899
  0
ARC
  5
1867A
  8
0
 10
4605.1947605791829119
 20
489.8878079497158069
 30
0.0
 40
0.0790105986830256
 50
310.3512358496402044
 51
359.4373165176610883
  0
ARC
  5
1867B
  8
0
 10
4556.426474500391123
 20
505.3747346945651771
 30
0.0
 40
11.2119207820300399
 50
101.7621298729140022
 51
159.1991031977640887
  0
ARC
  5
1867C
  8
0
 10
4563.8726538349555995
 20
504.1968669996049925
 30
0.0
 40
18.65498446132721
 50
163.9442301860777036
 51
190.7118544813496896
  0
ARC
  5
1867D
  8
0
 10
4556.1483164975443287
 20
502.662392309388224
 30
0.0
 40
10.7802764909487703
 50
190.3291087751779003
 51
228.6732085203371128
  0
ARC
  5
1867E
  8
0
 10
4556.2207480290517196
 20
502.744761680905583
 30
0.0
 40
10.8899625890686096
 50
228.6732085203371128
 51
275.7129597457288241
  0
ARC
  5
1867F
  8
0
 10
4554.5747177132971046
 20
519.1982007385661291
 30
0.0
 40
27.425532510439151
 50
275.7129597457288241
 51
283.653069354149693
  0
ARC
  5
18680
  8
0
 10
4568.3501934288851771
 20
462.4870921701988209
 30
0.0
 40
30.9346728202817509
 50
77.8165948794080151
 51
103.653069354149693
  0
ARC
  5
18681
  8
0
 10
4583.6800652991441893
 20
527.2598730236960591
 30
0.0
 40
35.6387395734637877
 50
255.7022685557940065
 51
278.1259139167202079
  0
ARC
  5
18682
  8
0
 10
4586.864787471319687
 20
509.5727253478132752
 30
0.0
 40
17.6910606958226708
 50
276.0115875930777065
 51
319.5500728488665914
  0
ARC
  5
18683
  8
0
 10
4588.6180512911651022
 20
507.6255536656865957
 30
0.0
 40
15.0975068803337908
 50
320.8566596629299283
 51
353.9963931845998104
  0
ARC
  5
18684
  8
0
 10
4592.6193123006632959
 20
507.3641097168589909
 30
0.0
 40
11.0919791431613692
 50
353.1777027847103909
 51
23.8089575471512482
  0
ARC
  5
18685
  8
0
 10
4594.3546092934902845
 20
507.3599859593480232
 30
0.0
 40
9.5320810314621074
 50
28.0462026373401585
 51
79.5477636135932471
  0
ARC
  5
18686
  8
0
 10
4592.4381535326747326
 20
496.9713917331553148
 30
0.0
 40
20.09596728035973
 50
79.5477636135932471
 51
101.3910317716939034
  0
ARC
  5
18687
  8
0
 10
4564.1708293838591999
 20
666.7669937627958916
 30
0.0
 40
152.0495348463036009
 50
273.9959530341790241
 51
279.1955841325910228
  0
ARC
  5
18688
  8
0
 10
4570.2985067720182997
 20
562.2527267285464632
 30
0.0
 40
47.376790292530508
 50
258.7259011361501848
 51
275.4115385952549104
  0
ARC
  5
18689
  8
0
 10
4556.3802207006174285
 20
501.2206807876282824
 30
0.0
 40
15.2953574283612408
 50
72.2776042164356767
 51
98.4185285182712306
  0
ARC
  5
1868A
  8
0
 10
4561.8875302836786432
 20
506.2917821498896274
 30
0.0
 40
8.4664674768351986
 50
113.5568047324506011
 51
152.0970778729208064
  0
ARC
  5
1868B
  8
0
 10
4567.5573700980176
 20
504.2078171415269026
 30
0.0
 40
14.4751586296391892
 50
155.3114710697724945
 51
208.3479330435316967
  0
ARC
  5
1868C
  8
0
 10
4561.7314746687707157
 20
502.0248670493509167
 30
0.0
 40
8.3542386327994222
 50
214.1538521241392914
 51
247.7531116039882022
  0
ARC
  5
1868D
  8
0
 10
4566.7780388250994292
 20
436.9382751210089282
 30
0.0
 40
57.7850394899466409
 50
78.9361603721418419
 51
88.2585474800734886
  0
ARC
  5
1868E
  8
0
 10
4582.828569947527285
 20
522.9192580424567041
 30
0.0
 40
29.6874561432083688
 50
260.379464623138972
 51
281.0215607406777849
  0
ARC
  5
1868F
  8
0
 10
4584.2139295318083896
 20
514.573498997975662
 30
0.0
 40
21.2320897798764712
 50
281.6576794457752158
 51
307.6904907353255112
  0
ARC
  5
18690
  8
0
 10
4588.5894855413926052
 20
507.5703762014970266
 30
0.0
 40
13.0409024270752205
 50
311.292019607725706
 51
355.4052671646642807
  0
ARC
  5
18691
  8
0
 10
4591.6253599153569667
 20
490.3291196337565907
 30
0.0
 40
24.8181523178850192
 50
86.3878840796541567
 51
97.0984988468692336
  0
ARC
  5
18692
  8
0
 10
4592.4657926817080806
 20
503.6424905894572248
 30
0.0
 40
11.47828075033053
 50
57.1230936158871785
 51
86.3878840796541567
  0
ARC
  5
18693
  8
0
 10
4594.6544212912631338
 20
507.5551341113368835
 30
0.0
 40
7.0100544426353153
 50
351.5555537473442769
 51
54.786262063784072
  0
ARC
  5
18694
  8
0
 10
4559.6550883414493001
 20
508.7443299499482237
 30
0.0
 40
5.4317648431453351
 50
77.8045693837370322
 51
102.2365176837607947
  0
ARC
  5
18695
  8
0
 10
4569.8415814581767336
 20
609.1142313703689979
 30
0.0
 40
95.4894981895464667
 50
264.568240485656986
 51
274.8917529503980859
  0
ARC
  5
18696
  8
0
 10
4566.1186430810294041
 20
648.7863858653604439
 30
0.0
 40
135.3350116744927902
 50
275.029936092315495
 51
276.6521081796851149
  0
ARC
  5
18697
  8
0
 10
4582.7238216952418952
 20
506.4062627043837779
 30
0.0
 40
8.0101362313387963
 50
81.5165213322490843
 51
96.6521081796851433
  0
ARC
  5
18698
  8
0
 10
4251.726610794109547
 20
2991.8945003456610721
 30
0.0
 40
2499.7349542029528493
 50
277.6363748942629854
 51
277.7439914994786818
  0
ARC
  5
18699
  8
0
 10
4550.1057048149214097
 20
544.7219439930164526
 30
0.0
 40
44.0272756735304398
 50
309.6938073150402033
 51
315.8335308638148149
  0
ARC
  5
1869A
  8
0
 10
4606.9322747046853692
 20
477.4423326911692129
 30
0.0
 40
44.0430156959551127
 50
130.6770864704863016
 51
132.5902728186678132
  0
ARC
  5
1869B
  8
0
 10
4596.4690043855352997
 20
488.8249315560822765
 30
0.0
 40
28.5819813615019491
 50
132.5902728186678132
 51
145.744751518967206
  0
ARC
  5
1869C
  8
0
 10
4579.886987079526989
 20
500.1174485593485883
 30
0.0
 40
8.5199715368156976
 50
145.744751518967206
 51
190.0499314793657106
  0
ARC
  5
1869D
  8
0
 10
4411.1450244381367156
 20
470.2120390198418249
 30
0.0
 40
162.8515064745326129
 50
9.5105670564017064
 51
10.0499314793657408
  0
ARC
  5
1869E
  8
0
 10
-9289.341679190263676
 20
-1825.0607704066680981
 30
0.0
 40
14054.273794562650437
 50
9.4996061130430807
 51
9.5105670564017064
  0
ARC
  5
1869F
  8
0
 10
4581.2718046882600902
 20
514.365652675754518
 30
0.0
 40
0.5241281842552064
 50
322.4389627899964808
 51
359.6524390174101882
  0
CIRCLE
  5
186A0
  8
0
 10
4594.7978868830759893
 20
507.8841983031240943
 30
0.0
 40
0.98
  0
ARC
  5
186A1
  8
0
 10
4626.777206323818973
 20
492.8901624394931105
 30
0.0
 40
26.2065312028029282
 50
157.0362329586376973
 51
160.8369150930803073
  0
ARC
  5
186A2
  8
0
 10
4602.4368994759679481
 20
501.3426565943995001
 30
0.0
 40
0.4404060017769265
 50
160.0851285747525878
 51
179.2183807431854916
  0
ARC
  5
186A3
  8
0
 10
4601.6877215437680206
 20
501.7302309434509198
 30
0.0
 40
0.5116532669395421
 50
309.7820464625161776
 51
327.1674372116286236
  0
ARC
  5
186A4
  8
0
 10
4597.9202224575046785
 20
504.0512161740934971
 30
0.0
 40
4.9365979833634741
 50
328.240584644366777
 51
349.6856782402633144
  0
ARC
  5
186A5
  8
0
 10
4645.8657805229586302
 20
485.4525081390908099
 30
0.0
 40
46.5355502732424569
 50
158.0139071483341127
 51
159.5822460991369098
  0
ARC
  5
186A6
  8
0
 10
4602.7636803749855972
 20
503.2884721684259262
 30
0.0
 40
0.0121809259061107
 50
22.9399322918251691
 51
123.7445088698087972
  0
ARC
  5
186A7
  8
0
 10
4602.4086439157108543
 20
503.2240044837677146
 30
0.0
 40
0.3727368987466376
 50
351.2538860518548063
 51
10.7016575251379198
  0
ARC
  5
186A8
  8
0
 10
4603.2642252828127312
 20
502.8723744753112896
 30
0.0
 40
0.6625961860780554
 50
139.9641178989581931
 51
158.5561284560097874
  0
ARC
  5
186A9
  8
0
 10
4602.0090366423128216
 20
501.3479813607377764
 30
0.0
 40
0.012520830985142
 50
176.8730566135280071
 51
299.0298761125476972
  0
ARC
  5
186AB
  8
0
 10
4559.6850184997292672
 20
499.608298747108222
 30
0.0
 40
5.4317648431453351
 50
258.1388894435975203
 51
282.5708377436201886
  0
ARC
  5
186AC
  8
0
 10
4568.1143724182602455
 20
427.3720035827316792
 30
0.0
 40
67.3259304760633057
 50
89.6428078989631416
 51
96.1794490808113807
  0
ENDSEC
  0
EOF
