  0
SECTION
  2
HEADER
  9
$ACADVER
  1
AC1009
  9
$INSBASE
 10
4666.3529686019383007
 20
476.885299431271676
 30
0.0
  9
$EXTMIN
 10
4651.4370514863494463
 20
459.1517876816773764
 30
-0.0000000349181948
  9
$EXTMAX
 10
4681.1980801140271069
 20
476.8917259934898993
 30
0.0000000814935746
  9
$LIMMIN
 10
0.0
 20
0.0
  9
$LIMMAX
 10
11.6929133858000007
 20
8.2677165353999982
  9
$ORTHOMODE
 70
     0
  9
$REGENMODE
 70
     1
  9
$FILLMODE
 70
     1
  9
$QTEXTMODE
 70
     0
  9
$MIRRTEXT
 70
     0
  9
$DRAGMODE
 70
     2
  9
$LTSCALE
 40
0.6431102362
  9
$OSMODE
 70
     7
  9
$ATTMODE
 70
     1
  9
$TEXTSIZE
 40
0.2
  9
$TRACEWID
 40
0.05
  9
$TEXTSTYLE
  7
STANDARD
  9
$CLAYER
  8
0
  9
$CELTYPE
  6
BYLAYER
  9
$CECOLOR
 62
   256
  9
$DIMSCALE
 40
1.0
  9
$DIMASZ
 40
0.1875
  9
$DIMEXO
 40
0.0625
  9
$DIMDLI
 40
0.4443307087
  9
$DIMRND
 40
0.0
  9
$DIMDLE
 40
0.0
  9
$DIMEXE
 40
0.125
  9
$DIMTP
 40
0.01
  9
$DIMTM
 40
0.01
  9
$DIMTXT
 40
2.0
  9
$DIMCEN
 40
0.1052362205
  9
$DIMTSZ
 40
0.0
  9
$DIMTOL
 70
     1
  9
$DIMLIM
 70
     0
  9
$DIMTIH
 70
     1
  9
$DIMTOH
 70
     1
  9
$DIMSE1
 70
     0
  9
$DIMSE2
 70
     0
  9
$DIMTAD
 70
     0
  9
$DIMZIN
 70
     0
  9
$DIMBLK
  1

  9
$DIMASO
 70
     1
  9
$DIMSHO
 70
     1
  9
$DIMPOST
  1
\X
  9
$DIMAPOST
  1

  9
$DIMALT
 70
     1
  9
$DIMALTD
 70
     2
  9
$DIMALTF
 40
25.3999999999999986
  9
$DIMLFAC
 40
1.0
  9
$DIMTOFL
 70
     0
  9
$DIMTVP
 40
0.0
  9
$DIMTIX
 70
     0
  9
$DIMSOXD
 70
     0
  9
$DIMSAH
 70
     0
  9
$DIMBLK1
  1

  9
$DIMBLK2
  1

  9
$DIMSTYLE
  2
STANDARD
  9
$DIMCLRD
 70
     0
  9
$DIMCLRE
 70
     0
  9
$DIMCLRT
 70
     0
  9
$DIMTFAC
 40
1.0
  9
$DIMGAP
 40
0.09
  9
$LUNITS
 70
     2
  9
$LUPREC
 70
     4
  9
$SKETCHINC
 40
0.1
  9
$FILLETRAD
 40
0.0
  9
$AUNITS
 70
     0
  9
$AUPREC
 70
     0
  9
$MENU
  1
.
  9
$ELEVATION
 40
0.0
  9
$PELEVATION
 40
0.0
  9
$THICKNESS
 40
0.0
  9
$LIMCHECK
 70
     0
  9
$BLIPMODE
 70
     0
  9
$CHAMFERA
 40
0.0
  9
$CHAMFERB
 40
0.0
  9
$SKPOLY
 70
     0
  9
$TDCREATE
 40
2458060.468368056230247
  9
$TDUPDATE
 40
2459562.4484953708015382
  9
$TDINDWG
 40
1.4524728704000001
  9
$TDUSRTIMER
 40
1.4524728704000001
  9
$USRTIMER
 70
     1
  9
$ANGBASE
 50
0.0
  9
$ANGDIR
 70
     0
  9
$PDMODE
 70
     0
  9
$PDSIZE
 40
0.3125
  9
$PLINEWID
 40
0.0
  9
$COORDS
 70
     1
  9
$SPLFRAME
 70
     0
  9
$SPLINETYPE
 70
     6
  9
$SPLINESEGS
 70
     8
  9
$ATTDIA
 70
     1
  9
$ATTREQ
 70
     1
  9
$HANDLING
 70
     1
  9
$HANDSEED
  5
187E8
  9
$SURFTAB1
 70
     6
  9
$SURFTAB2
 70
     6
  9
$SURFTYPE
 70
     6
  9
$SURFU
 70
     6
  9
$SURFV
 70
     6
  9
$UCSNAME
  2

  9
$UCSORG
 10
0.0
 20
0.0
 30
0.0
  9
$UCSXDIR
 10
1.0
 20
0.0
 30
0.0
  9
$UCSYDIR
 10
0.0
 20
1.0
 30
0.0
  9
$PUCSNAME
  2

  9
$PUCSORG
 10
0.0
 20
0.0
 30
0.0
  9
$PUCSXDIR
 10
1.0
 20
0.0
 30
0.0
  9
$PUCSYDIR
 10
0.0
 20
1.0
 30
0.0
  9
$USERI1
 70
     0
  9
$USERI2
 70
     0
  9
$USERI3
 70
     0
  9
$USERI4
 70
     0
  9
$USERI5
 70
     0
  9
$USERR1
 40
0.0
  9
$USERR2
 40
0.0
  9
$USERR3
 40
0.0
  9
$USERR4
 40
0.0
  9
$USERR5
 40
0.0
  9
$WORLDVIEW
 70
     1
  9
$SHADEDGE
 70
     3
  9
$SHADEDIF
 70
    70
  9
$TILEMODE
 70
     1
  9
$MAXACTVP
 70
    64
  9
$PLIMCHECK
 70
     0
  9
$PEXTMIN
 10
1.0000000000000000E+20
 20
1.0000000000000000E+20
 30
1.0000000000000000E+20
  9
$PEXTMAX
 10
-1.0000000000000000E+20
 20
-1.0000000000000000E+20
 30
-1.0000000000000000E+20
  9
$PLIMMIN
 10
0.0
 20
0.0
  9
$PLIMMAX
 10
12.0
 20
9.0
  9
$UNITMODE
 70
     0
  9
$VISRETAIN
 70
     1
  9
$PLINEGEN
 70
     0
  9
$PSLTSCALE
 70
     1
  0
ENDSEC
  0
SECTION
  2
TABLES
  0
TABLE
  2
VPORT
 70
     1
  0
VPORT
  2
*ACTIVE
 70
     0
 10
0.0
 20
0.0
 11
1.0
 21
1.0
 12
754.9522093548756629
 22
335.4421517350446038
 13
0.0
 23
0.0
 14
1.0
 24
1.0
 15
0.0
 25
0.0
 16
0.0
 26
0.0
 36
60.4960186965801583
 17
3911.3653564453120453
 27
132.5796051025390057
 37
0.0
 40
17.866954576574809
 41
2.2831541218637992
 42
50.0
 43
0.0
 44
0.0
 50
0.0
 51
0.0
 71
     0
 72
   100
 73
     1
 74
     1
 75
     0
 76
     0
 77
     0
 78
     0
  0
ENDTAB
  0
TABLE
  2
LTYPE
 70
     2
  0
LTYPE
  2
CONTINUOUS
 70
     0
  3
Solid line
 72
    65
 73
     0
 40
0.0
  0
LTYPE
  2
PHANTOM2
 70
     0
  3
___ _ _ ___ _ _ ___ _ _ ___ _ _
 72
    65
 73
     6
 40
1.25
 49
0.625
 49
-0.125
 49
0.125
 49
-0.125
 49
0.125
 49
-0.125
  0
ENDTAB
  0
TABLE
  2
LAYER
 70
     2
  0
LAYER
  2
0
 70
     0
 62
   255
  6
CONTINUOUS
  0
LAYER
  2
DEFPOINTS
 70
     0
 62
     7
  6
CONTINUOUS
  0
ENDTAB
  0
TABLE
  2
STYLE
 70
     1
  0
STYLE
  2
STANDARD
 70
     0
 40
0.0
 41
0.8
 50
0.0
 71
     0
 42
0.2
  3
txt
  4

  0
ENDTAB
  0
TABLE
  2
VIEW
 70
     0
  0
ENDTAB
  0
TABLE
  2
UCS
 70
     0
  0
ENDTAB
  0
TABLE
  2
APPID
 70
    11
  0
APPID
  2
ACAD
 70
     0
  0
APPID
  2
ACAD_MLEADERVER
 70
     0
  0
APPID
  2
ACAD_EXEMPT_FROM_CAD_STANDARDS
 70
     0
  0
APPID
  2
ACAD_NAV_VCDISPLAY
 70
     0
  0
APPID
  2
ACAECLAYERSTANDARD
 70
     0
  0
APPID
  2
ACCMTRANSPARENCY
 70
     0
  0
APPID
  2
ACAD_DSTYLE_DIMJAG
 70
     0
  0
APPID
  2
ACAD_DSTYLE_DIMTALN
 70
     0
  0
APPID
  2
ACDBATTR
 70
     0
  0
APPID
  2
ACADANNOTATIVE
 70
     0
  0
APPID
  2
DCO15
 70
     0
  0
ENDTAB
  0
TABLE
  2
DIMSTYLE
 70
     1
  0
DIMSTYLE
  2
STANDARD
 70
     0
  3

  4

  5

  6

  7

 40
1.0
 41
0.1875
 42
0.0625
 43
0.38
 44
0.125
 45
0.0
 46
0.0
 47
0.01
 48
0.01
140
0.15625
141
0.09
142
0.0
143
25.3999999999999986
144
1.0
145
0.0
146
1.0
147
0.09
 71
     1
 72
     0
 73
     1
 74
     1
 75
     0
 76
     0
 77
     0
 78
     4
170
     0
171
     2
172
     0
173
     0
174
     0
175
     0
176
     0
177
     0
178
     0
  0
ENDTAB
  0
ENDSEC
  0
SECTION
  2
BLOCKS
  0
BLOCK
  8
0
  2
$MODEL_SPACE
 70
     0
 10
0.0
 20
0.0
 30
0.0
  3
$MODEL_SPACE
  1

  0
ENDBLK
  5
21
  8
0
  0
BLOCK
 67
     1
  8
0
  2
$PAPER_SPACE
 70
     0
 10
0.0
 20
0.0
 30
0.0
  3
$PAPER_SPACE
  1

  0
ENDBLK
  5
1D
 67
     1
  8
0
  0
ENDSEC
  0
SECTION
  2
ENTITIES
  0
ATTDEF
  5
159BF
  8
DEFPOINTS
 10
4666.3529871582250053
 20
476.8886541768468987
 30
0.0
 40
0.001
  1
18233T
  3

  2
MODELNUMBER
 70
     0
1001
ACDBATTR
1070
     0
1070
     1
  0
ATTDEF
  5
159C0
  8
DEFPOINTS
 10
4666.3529871582250053
 20
476.8869873364677119
 30
0.0
 40
0.001
  1
BAIN DOUCHE
  3

  2
TRADENAME
 70
     0
1001
ACDBATTR
1070
     0
1070
     1
  0
ATTDEF
  5
159C1
  8
DEFPOINTS
 10
4666.3529871582250053
 20
476.8853208435136253
 30
0.0
 40
0.001
  1
BATH
  3

  2
PRODUCT
 70
     0
1001
ACDBATTR
1070
     0
1070
     1
  0
LINE
  5
18736
  8
0
 10
4651.9324876980881527
 20
476.885299431271676
 30
0.0
 11
4680.7707702749030432
 21
476.885299431271676
 31
0.0
  0
ARC
  5
18737
  8
0
 10
4651.9368134480146182
 20
476.5674395326429931
 30
0.0
 40
0.3178893317943181
 50
90.7796891525445631
 51
177.8516644154695996
  0
ARC
  5
18738
  8
0
 10
4680.7691094727324526
 20
476.5673986763663947
 30
0.0
 40
0.3179050931225638
 50
2.152691482323946
 51
89.7006735973421456
  0
LINE
  5
18739
  8
0
 10
4681.0867902113868695
 20
476.5793400548716932
 30
0.0
 11
4681.1174181190626769
 21
475.7023369647716891
 31
0.0
  0
LINE
  5
1873A
  8
0
 10
4681.1174181190626769
 20
475.7023369647716891
 30
0.0
 11
4651.5885190848130151
 21
475.7023369647716891
 31
0.0
  0
LINE
  5
1873B
  8
0
 10
4661.0392525346869661
 20
459.1624092628717904
 30
0.0
 11
4664.8793884552878808
 21
459.1624092628717904
 31
0.0
  0
LINE
  5
1873C
  8
0
 10
4668.867205290687707
 20
459.1624092628717904
 30
0.0
 11
4672.700709227688094
 21
459.1624092628717904
 31
0.0
  0
ARC
  5
1873D
  8
0
 10
4664.4989824346239402
 20
474.0554595635842929
 30
0.0
 40
1.1034060717135701
 50
163.0388214831631899
 51
246.1982483067995133
  0
ARC
  5
1873E
  8
0
 10
4664.4228235424388913
 20
474.0159516114654821
 30
0.0
 40
1.037914707741425
 50
249.1660082873189026
 51
285.739428559970122
  0
ARC
  5
1873F
  8
0
 10
4664.3531017931918541
 20
473.9877309405271149
 30
0.0
 40
1.032375734501737
 50
289.8923200339896198
 51
16.2235219356667599
  0
ARC
  5
18740
  8
0
 10
4664.3111699823002709
 20
473.997142073717896
 30
0.0
 40
1.0702096553386049
 50
15.1124796384645705
 51
81.0631808785749541
  0
ARC
  5
18741
  8
0
 10
4664.336907353247625
 20
474.1410446731392199
 30
0.0
 40
0.9240609215745772
 50
81.2535557816221257
 51
165.1835091668386042
  0
ARC
  5
18742
  8
0
 10
4664.477552404193375
 20
474.0942133071777107
 30
0.0
 40
1.0133429925750941
 50
112.0423988320195008
 51
182.8722402168650092
  0
ARC
  5
18743
  8
0
 10
4664.5665189814972109
 20
474.0614700548704832
 30
0.0
 40
1.1011842472101889
 50
180.9383912204945091
 51
243.953981997945192
  0
ARC
  5
18744
  8
0
 10
4664.469338925107877
 20
473.9142914131602993
 30
0.0
 40
0.9265595041660351
 50
245.3569294764016888
 51
285.394589661889313
  0
LINE
  5
18745
  8
0
 10
4651.6191475526893555
 20
476.5793561686717226
 30
0.0
 11
4651.5885190848130151
 21
475.7023369647716891
 31
0.0
  0
ARC
  5
18746
  8
0
 10
4568.3029425220993289
 20
464.43500188628758
 30
0.0
 40
86.1448190656890347
 50
2.5828681360630679
 51
7.5155504726986972
  0
ARC
  5
18747
  8
0
 10
4673.5080032565201691
 20
469.1808142053361053
 30
0.0
 40
19.1672293366700295
 50
182.5828681360630981
 51
188.112371739809106
  0
ARC
  5
18748
  8
0
 10
4679.8221598020536476
 20
470.080842816527479
 30
0.0
 40
25.5452089840563801
 50
188.112371739809106
 51
195.9295538363336959
  0
ARC
  5
18749
  8
0
 10
4658.544158953905935
 20
464.0077770546217835
 30
0.0
 40
3.417501288901982
 50
195.9295538363336959
 51
252.7130837911255128
  0
ARC
  5
1874A
  8
0
 10
4661.8809200842124483
 20
481.131090548695795
 30
0.0
 40
20.8458504010381809
 50
257.9488568118363219
 51
268.3062780195926962
  0
LINE
  5
1874B
  8
0
 10
4661.0392525346869661
 20
459.9880431148716866
 30
0.0
 11
4661.0392525346869661
 21
459.1624092628717904
 31
0.0
  0
LINE
  5
1874C
  8
0
 10
4662.123482943487943
 20
459.9161970707717728
 30
0.0
 11
4662.123482943487943
 21
459.1624092628717904
 31
0.0
  0
LINE
  5
1874D
  8
0
 10
4664.8793884552878808
 20
459.8420416232717116
 30
0.0
 11
4664.8793884552878808
 21
459.1624092628717904
 31
0.0
  0
LINE
  5
1874E
  8
0
 10
4668.867205290687707
 20
459.8161641199716883
 30
0.0
 11
4668.867205290687707
 21
459.1624092628717904
 31
0.0
  0
LINE
  5
1874F
  8
0
 10
4669.9448037157881117
 20
459.8208976711717924
 30
0.0
 11
4669.9448037157881117
 21
459.1624092628717904
 31
0.0
  0
LINE
  5
18750
  8
0
 10
4672.700709227688094
 20
459.8313330991716725
 30
0.0
 11
4672.700709227688094
 21
459.1624092628717904
 31
0.0
  0
ARC
  5
18751
  8
0
 10
4995.9981220651270633
 20
436.4367644376713997
 30
0.0
 40
319.1632024276822222
 50
172.9331897301175047
 51
174.1280657345837994
  0
ARC
  5
18752
  8
0
 10
4591.5900655886061941
 20
478.0280713194875943
 30
0.0
 40
87.3779553303653529
 50
352.070187911326002
 51
354.1280657345837994
  0
ARC
  5
18753
  8
0
 10
4660.4964930631376774
 20
468.4299680491661775
 30
0.0
 40
17.8062704744506703
 50
341.1969707593726753
 51
352.070187911326002
  0
ARC
  5
18754
  8
0
 10
4674.363612308885422
 20
463.4390917462866923
 30
0.0
 40
3.0811353026784509
 50
284.8593548003876776
 51
345.9430552810478048
  0
ARC
  5
18755
  8
0
 10
4673.1562226649330114
 20
467.5920211434818157
 30
0.0
 40
7.4055176850750879
 50
270.5442738193056016
 51
285.6485853323317201
  0
ARC
  5
18756
  8
0
 10
4669.8468045395966328
 20
749.6473355183703688
 30
0.0
 40
289.480228467766608
 50
268.3011428737643769
 51
270.6689598826328051
  0
LINE
  5
18757
  8
0
 10
4659.3686807446883904
 20
460.437729208071687
 30
0.0
 11
4659.4048944687883704
 21
460.2323549728716898
 31
0.0
  0
ARC
  5
18758
  8
0
 10
4659.437758937468061
 20
460.2421414106594852
 30
0.0
 40
0.034290635255922
 50
196.5825690593713944
 51
239.7764254622551903
  0
ARC
  5
18759
  8
0
 10
4660.0479330759317236
 20
461.9448873564322753
 30
0.0
 40
1.8424981375191689
 50
250.0905241451455083
 51
263.0478818332637161
  0
ARC
  5
1875A
  8
0
 10
4663.9380404257171904
 20
493.340846042768419
 30
0.0
 40
33.4785369212020996
 50
262.9428960534548878
 51
265.0327414594232778
  0
ARC
  5
1875B
  8
0
 10
4664.8174760782885642
 20
508.7883101918695843
 30
0.0
 40
48.9463077252180412
 50
265.5728668847311837
 51
270.0724736760017777
  0
ARC
  5
1875C
  8
0
 10
4668.0724396698187775
 20
644.6213441406001721
 30
0.0
 40
184.8068889810361952
 50
269.0100073491540797
 51
270.2464023738335186
  0
ARC
  5
1875D
  8
0
 10
4683.2974270717131731
 20
-2702.5799411416692237
 30
0.0
 40
3162.4290281166208842
 50
90.191987975064805
 51
90.2614426022979757
  0
ARC
  5
1875E
  8
0
 10
4672.6326009695976609
 20
462.1594982669047909
 30
0.0
 40
2.329161175845377
 50
271.6756556468096733
 51
281.1065336388207925
  0
ARC
  5
1875F
  8
0
 10
4673.0716616141189661
 20
459.9114242413829743
 30
0.0
 40
0.0386776855000096
 50
284.3937707211545103
 51
331.459466252014181
  0
LINE
  5
18760
  8
0
 10
4673.1056391612873995
 20
459.8929448029717832
 30
0.0
 11
4673.1573199389913498
 21
460.1860373081594275
 31
0.0
  0
LINE
  5
18762
  8
0
 10
4667.6403870662434201
 20
459.8293482402717132
 30
0.0
 11
4672.1240522255120595
 21
459.8293482402717132
 31
0.0
  0
ARC
  5
18763
  8
0
 10
4664.4297211231923939
 20
506.9643898169713907
 30
0.0
 40
47.1046869127957279
 50
267.1944358968830215
 51
268.0503397215672976
  0
ARC
  5
18764
  8
0
 10
4666.5937441656396913
 20
589.6313458269036119
 30
0.0
 40
129.7990363911918053
 50
268.33712092507119
 51
269.9552872541337933
  0
ARC
  5
18765
  8
0
 10
4668.3899266204780361
 20
966.1434886841016123
 30
0.0
 40
506.3146952468570134
 50
269.7852766270596021
 51
269.9151802838786125
  0
ENDSEC
  0
EOF
