  0
SECTION
  2
HEADER
  9
$ACADVER
  1
AC1009
  9
$INSBASE
 10
3850.4517090091208047
 20
615.3729002706656956
 30
0.0
  9
$EXTMIN
 10
3816.8049650899210974
 20
600.372900270665582
 30
0.0
  9
$EXTMAX
 10
3884.0984529283200573
 20
630.372900270665582
 30
0.0
  9
$LIMMIN
 10
0.0
 20
0.0
  9
$LIMMAX
 10
11.6929133858000007
 20
8.2677165353999982
  9
$ORTHOMODE
 70
     0
  9
$REGENMODE
 70
     1
  9
$FILLMODE
 70
     1
  9
$QTEXTMODE
 70
     0
  9
$MIRRTEXT
 70
     0
  9
$DRAGMODE
 70
     2
  9
$LTSCALE
 40
0.6431102362
  9
$OSMODE
 70
  4095
  9
$ATTMODE
 70
     1
  9
$TEXTSIZE
 40
0.2
  9
$TRACEWID
 40
0.05
  9
$TEXTSTYLE
  7
STANDARD
  9
$CLAYER
  8
0
  9
$CELTYPE
  6
BYLAYER
  9
$CECOLOR
 62
   256
  9
$DIMSCALE
 40
1.0
  9
$DIMASZ
 40
0.1875
  9
$DIMEXO
 40
0.0625
  9
$DIMDLI
 40
0.4443307087
  9
$DIMRND
 40
0.0
  9
$DIMDLE
 40
0.0
  9
$DIMEXE
 40
0.125
  9
$DIMTP
 40
0.01
  9
$DIMTM
 40
0.01
  9
$DIMTXT
 40
2.0
  9
$DIMCEN
 40
0.1052362205
  9
$DIMTSZ
 40
0.0
  9
$DIMTOL
 70
     1
  9
$DIMLIM
 70
     0
  9
$DIMTIH
 70
     1
  9
$DIMTOH
 70
     1
  9
$DIMSE1
 70
     0
  9
$DIMSE2
 70
     0
  9
$DIMTAD
 70
     0
  9
$DIMZIN
 70
     0
  9
$DIMBLK
  1

  9
$DIMASO
 70
     1
  9
$DIMSHO
 70
     1
  9
$DIMPOST
  1
\X
  9
$DIMAPOST
  1

  9
$DIMALT
 70
     1
  9
$DIMALTD
 70
     2
  9
$DIMALTF
 40
25.3999999999999986
  9
$DIMLFAC
 40
1.0
  9
$DIMTOFL
 70
     0
  9
$DIMTVP
 40
0.0
  9
$DIMTIX
 70
     0
  9
$DIMSOXD
 70
     0
  9
$DIMSAH
 70
     0
  9
$DIMBLK1
  1

  9
$DIMBLK2
  1

  9
$DIMSTYLE
  2
STANDARD
  9
$DIMCLRD
 70
     0
  9
$DIMCLRE
 70
     0
  9
$DIMCLRT
 70
     0
  9
$DIMTFAC
 40
1.0
  9
$DIMGAP
 40
0.09
  9
$LUNITS
 70
     2
  9
$LUPREC
 70
     4
  9
$SKETCHINC
 40
0.1
  9
$FILLETRAD
 40
0.0
  9
$AUNITS
 70
     0
  9
$AUPREC
 70
     0
  9
$MENU
  1
.
  9
$ELEVATION
 40
0.0
  9
$PELEVATION
 40
0.0
  9
$THICKNESS
 40
0.0
  9
$LIMCHECK
 70
     0
  9
$BLIPMODE
 70
     0
  9
$CHAMFERA
 40
0.0
  9
$CHAMFERB
 40
0.0
  9
$SKPOLY
 70
     0
  9
$TDCREATE
 40
2458060.468368056230247
  9
$TDUPDATE
 40
2459920.6437384258024395
  9
$TDINDWG
 40
0.4632607292
  9
$TDUSRTIMER
 40
0.4632607292
  9
$USRTIMER
 70
     1
  9
$ANGBASE
 50
0.0
  9
$ANGDIR
 70
     0
  9
$PDMODE
 70
     0
  9
$PDSIZE
 40
0.3125
  9
$PLINEWID
 40
0.0
  9
$COORDS
 70
     1
  9
$SPLFRAME
 70
     0
  9
$SPLINETYPE
 70
     6
  9
$SPLINESEGS
 70
     8
  9
$ATTDIA
 70
     1
  9
$ATTREQ
 70
     1
  9
$HANDLING
 70
     1
  9
$HANDSEED
  5
7D86
  9
$SURFTAB1
 70
     6
  9
$SURFTAB2
 70
     6
  9
$SURFTYPE
 70
     6
  9
$SURFU
 70
     6
  9
$SURFV
 70
     6
  9
$UCSNAME
  2

  9
$UCSORG
 10
0.0
 20
0.0
 30
0.0
  9
$UCSXDIR
 10
1.0
 20
0.0
 30
0.0
  9
$UCSYDIR
 10
0.0
 20
1.0
 30
0.0
  9
$PUCSNAME
  2

  9
$PUCSORG
 10
0.0
 20
0.0
 30
0.0
  9
$PUCSXDIR
 10
1.0
 20
0.0
 30
0.0
  9
$PUCSYDIR
 10
0.0
 20
1.0
 30
0.0
  9
$USERI1
 70
     0
  9
$USERI2
 70
     0
  9
$USERI3
 70
     0
  9
$USERI4
 70
     0
  9
$USERI5
 70
     0
  9
$USERR1
 40
0.0
  9
$USERR2
 40
0.0
  9
$USERR3
 40
0.0
  9
$USERR4
 40
0.0
  9
$USERR5
 40
0.0
  9
$WORLDVIEW
 70
     1
  9
$SHADEDGE
 70
     3
  9
$SHADEDIF
 70
    70
  9
$TILEMODE
 70
     1
  9
$MAXACTVP
 70
    64
  9
$PLIMCHECK
 70
     0
  9
$PEXTMIN
 10
1.0000000000000000E+20
 20
1.0000000000000000E+20
 30
1.0000000000000000E+20
  9
$PEXTMAX
 10
-1.0000000000000000E+20
 20
-1.0000000000000000E+20
 30
-1.0000000000000000E+20
  9
$PLIMMIN
 10
0.0
 20
0.0
  9
$PLIMMAX
 10
12.0
 20
9.0
  9
$UNITMODE
 70
     0
  9
$VISRETAIN
 70
     1
  9
$PLINEGEN
 70
     0
  9
$PSLTSCALE
 70
     1
  0
ENDSEC
  0
SECTION
  2
TABLES
  0
TABLE
  2
VPORT
 70
     1
  0
VPORT
  2
*ACTIVE
 70
     0
 10
0.0
 20
0.0
 11
1.0
 21
1.0
 12
311.0616659546188885
 22
312.0921034899104143
 13
0.0
 23
0.0
 14
1.0
 24
1.0
 15
0.0
 25
0.0
 16
0.0
 26
0.0
 36
246.0436609271731072
 17
3545.7938232421870453
 27
301.0590362548828125
 37
0.0
 40
41.1514445377867375
 41
2.498684210526315
 42
50.0
 43
0.0
 44
0.0
 50
0.0
 51
0.0
 71
     0
 72
   100
 73
     1
 74
     1
 75
     0
 76
     0
 77
     0
 78
     0
  0
ENDTAB
  0
TABLE
  2
LTYPE
 70
     2
  0
LTYPE
  2
CONTINUOUS
 70
     0
  3
Solid line
 72
    65
 73
     0
 40
0.0
  0
LTYPE
  2
PHANTOM2
 70
     0
  3
___ _ _ ___ _ _ ___ _ _ ___ _ _
 72
    65
 73
     6
 40
1.25
 49
0.625
 49
-0.125
 49
0.125
 49
-0.125
 49
0.125
 49
-0.125
  0
ENDTAB
  0
TABLE
  2
LAYER
 70
     2
  0
LAYER
  2
0
 70
     0
 62
   255
  6
CONTINUOUS
  0
LAYER
  2
DEFPOINTS
 70
     0
 62
     7
  6
CONTINUOUS
  0
ENDTAB
  0
TABLE
  2
STYLE
 70
     1
  0
STYLE
  2
STANDARD
 70
     0
 40
0.0
 41
0.8
 50
0.0
 71
     0
 42
0.2
  3
txt
  4

  0
ENDTAB
  0
TABLE
  2
VIEW
 70
     0
  0
ENDTAB
  0
TABLE
  2
UCS
 70
     0
  0
ENDTAB
  0
TABLE
  2
APPID
 70
    10
  0
APPID
  2
ACAD
 70
     0
  0
APPID
  2
ACAD_MLEADERVER
 70
     0
  0
APPID
  2
ACAD_EXEMPT_FROM_CAD_STANDARDS
 70
     0
  0
APPID
  2
ACAD_NAV_VCDISPLAY
 70
     0
  0
APPID
  2
ACAECLAYERSTANDARD
 70
     0
  0
APPID
  2
ACCMTRANSPARENCY
 70
     0
  0
APPID
  2
ACAD_DSTYLE_DIMJAG
 70
     0
  0
APPID
  2
ACAD_DSTYLE_DIMTALN
 70
     0
  0
APPID
  2
ACDBATTR
 70
     0
  0
APPID
  2
ACADANNOTATIVE
 70
     0
  0
ENDTAB
  0
TABLE
  2
DIMSTYLE
 70
     2
  0
DIMSTYLE
  2
STANDARD
 70
     0
  3

  4

  5

  6

  7

 40
1.0
 41
0.1875
 42
0.0625
 43
0.38
 44
0.125
 45
0.0
 46
0.0
 47
0.01
 48
0.01
140
0.15625
141
0.09
142
0.0
143
25.3999999999999986
144
1.0
145
0.0
146
1.0
147
0.09
 71
     1
 72
     0
 73
     1
 74
     1
 75
     0
 76
     0
 77
     0
 78
     4
170
     0
171
     2
172
     0
173
     0
174
     0
175
     0
176
     0
177
     0
178
     0
  0
DIMSTYLE
  2
ANNOTATIVE
 70
     0
  3

  4

  5

  6

  7

 40
0.0
 41
0.18
 42
0.0625
 43
0.38
 44
0.18
 45
0.0
 46
0.0
 47
0.0
 48
0.0
140
0.18
141
0.09
142
0.0
143
25.3999999999999986
144
1.0
145
0.0
146
1.0
147
0.09
 71
     0
 72
     0
 73
     1
 74
     1
 75
     0
 76
     0
 77
     0
 78
     0
170
     0
171
     2
172
     0
173
     0
174
     0
175
     0
176
     0
177
     0
178
     0
  0
ENDTAB
  0
ENDSEC
  0
SECTION
  2
BLOCKS
  0
BLOCK
  8
0
  2
$MODEL_SPACE
 70
     0
 10
0.0
 20
0.0
 30
0.0
  3
$MODEL_SPACE
  1

  0
ENDBLK
  5
21
  8
0
  0
BLOCK
 67
     1
  8
0
  2
$PAPER_SPACE
 70
     0
 10
0.0
 20
0.0
 30
0.0
  3
$PAPER_SPACE
  1

  0
ENDBLK
  5
1D
 67
     1
  8
0
  0
ENDSEC
  0
SECTION
  2
ENTITIES
  0
LINE
  5
7BCF
  8
0
 10
3816.8049650899210974
 20
600.6481131345656195
 30
0.0
 11
3816.8049650899210974
 21
630.0976874067655444
 31
0.0
  0
LINE
  5
7BD0
  8
0
 10
3882.4746341157210736
 20
600.372900270665582
 30
0.0
 11
3817.0801779538210212
 21
600.372900270665582
 31
0.0
  0
LINE
  5
7BD1
  8
0
 10
3879.0740941537210347
 20
601.6238860839655445
 30
0.0
 11
3820.4807179158210602
 21
601.6238860839655445
 31
0.0
  0
LINE
  5
7BD2
  8
0
 10
3853.5274060348210696
 20
626.1674530605655491
 30
0.0
 11
3853.5274060348210696
 21
625.9556286709655524
 31
0.0
  0
LINE
  5
7BD3
  8
0
 10
3846.1533902867208781
 20
625.9142768366656355
 30
0.0
 11
3853.4014217828212168
 21
625.9142768366656355
 31
0.0
  0
LINE
  5
7BD4
  8
0
 10
3853.4014217828212168
 20
626.0623604208656161
 30
0.0
 11
3846.1533902867208781
 21
626.0623604208656161
 31
0.0
  0
LINE
  5
7BD5
  8
0
 10
3853.4014217828212168
 20
626.211927638365637
 30
0.0
 11
3846.1533902867208781
 21
626.211927638365637
 31
0.0
  0
LINE
  5
7BD6
  8
0
 10
3820.5345973380208306
 20
626.9278122651655849
 30
0.0
 11
3879.0202147315208094
 21
626.9278122651655849
 31
0.0
  0
LINE
  5
7BD7
  8
0
 10
3817.0801779538210212
 20
630.372900270665582
 30
0.0
 11
3882.4746341157210736
 21
630.372900270665582
 31
0.0
  0
LINE
  5
7BD8
  8
0
 10
3882.7498469796209974
 20
600.6481371836656535
 30
0.0
 11
3882.7498469796209974
 21
630.0976633525656325
 31
0.0
  0
LINE
  5
7BD9
  8
0
 10
3882.7498469796209974
 20
600.6481371836656535
 30
0.0
 11
3883.9631824780208262
 21
602.302490054065629
 31
0.0
  0
LINE
  5
7BDA
  8
0
 10
3882.7498469796209974
 20
630.091151276065716
 30
0.0
 11
3883.9629691020209066
 21
628.443263420765561
 31
0.0
  0
CIRCLE
  5
7BDB
  8
0
 10
3849.7774060348210696
 20
614.2902231052656816
 30
0.0
 40
1.7067331496999989
  0
CIRCLE
  5
7BDC
  8
0
 10
3849.7774060348210696
 20
614.2902231052656816
 30
0.0
 40
1.1259842520000001
  0
ARC
  5
7BDD
  8
0
 10
3882.4746437639259966
 20
630.0976970519593579
 30
0.0
 40
0.275203217757703
 50
359.9929839735912083
 51
90.0020089354348158
  0
ARC
  5
7BDE
  8
0
 10
3882.4744648518981194
 20
600.6482823846497467
 30
0.0
 40
0.2753821660031425
 50
270.0352168894414149
 51
359.9697896052088026
  0
ARC
  5
7BDF
  8
0
 10
3817.0804628864962069
 20
630.0974024740908135
 30
0.0
 40
0.2754979439200905
 50
90.059257947232112
 51
179.9407420527743966
  0
ARC
  5
7BE0
  8
0
 10
3817.0804628864098049
 20
600.6483980671547442
 30
0.0
 40
0.2754979438343532
 50
180.0592579294331017
 51
269.9407420705634877
  0
ARC
  5
7BE1
  8
0
 10
3820.3144590722531575
 20
626.4557296748093904
 30
0.0
 40
0.4659465662502371
 50
97.8399763270693512
 51
150.5575405896657912
  0
ARC
  5
7BE2
  8
0
 10
3820.4305875640279737
 20
625.8993680889399229
 30
0.0
 40
1.033690213119375
 50
84.2251335938479428
 51
100.0106012308573042
  0
ARC
  5
7BE3
  8
0
 10
3821.854255061684853
 20
602.4053870605062002
 30
0.0
 40
2.0515892213417808
 50
164.2805904838299114
 51
195.0215490244501098
  0
ARC
  5
7BE4
  8
0
 10
3820.2316195300481922
 20
602.0206011391182983
 30
0.0
 40
0.3877703513193697
 50
202.2693199624935119
 51
264.8810726982126198
  0
ARC
  5
7BE5
  8
0
 10
3820.3767081418282032
 20
602.6523302601914338
 30
0.0
 40
1.033690213119375
 50
259.9893987691426105
 51
275.774866406152114
  0
LINE
  5
7BE6
  8
0
 10
3879.6966335189208621
 20
603.1833828142656557
 30
0.0
 11
3879.6776625945090018
 21
626.5703164197235537
 31
0.0
  0
ARC
  5
7BE7
  8
0
 10
3879.2935078497648647
 20
626.5260204939446567
 30
0.0
 40
0.3867001382859003
 50
6.5775846578292043
 51
24.2369715155102199
  0
ARC
  5
7BE8
  8
0
 10
3879.2403529973889817
 20
626.4557296748093904
 30
0.0
 40
0.4659465662502371
 50
29.442459410334191
 51
82.160023672930663
  0
ARC
  5
7BE9
  8
0
 10
3879.1242245056141655
 20
625.8993680889399229
 30
0.0
 40
1.033690213119375
 50
79.9893987691426247
 51
95.7748664061520714
  0
ARC
  5
7BEA
  8
0
 10
3876.478309688077843
 20
602.5642951578211068
 30
0.0
 40
3.2773278454463148
 50
347.8346419939564953
 51
10.8886040127178703
  0
ARC
  5
7BEB
  8
0
 10
3879.323192539593947
 20
602.0206011391182983
 30
0.0
 40
0.3877703513193697
 50
275.1189273017873802
 51
337.7306800375063744
  0
ARC
  5
7BEC
  8
0
 10
3879.1781039278130265
 20
602.6523302601914338
 30
0.0
 40
1.033690213119375
 50
264.225133593847886
 51
280.0106012308573895
  0
ARC
  5
7BED
  8
0
 10
3853.4215139629368423
 20
626.068208471876801
 30
0.0
 40
0.1451168305816048
 50
43.1385649816748185
 51
97.9584653080651151
  0
ARC
  5
7BEE
  8
0
 10
3853.4169130607037914
 20
626.2486816420538389
 30
0.0
 40
0.1869641065967025
 50
265.2471969384691874
 51
306.2269347867514284
  0
ARC
  5
7BEF
  8
0
 10
3853.4218587266209397
 20
626.0646031765578527
 30
0.0
 40
0.1517091860675827
 50
262.2580730872841173
 51
314.0847213199349994
  0
LINE
  5
7BF0
  8
0
 10
3846.0274060348210696
 20
626.1674530605655491
 30
0.0
 11
3846.0274060348210696
 21
625.9556286709655524
 31
0.0
  0
ARC
  5
7BF1
  8
0
 10
3846.1332981066698267
 20
626.0682084719300065
 30
0.0
 40
0.145116830519948
 50
82.0415347145602567
 51
136.8614350242675926
  0
ARC
  5
7BF2
  8
0
 10
3846.1378990089369836
 20
626.2486816420538389
 30
0.0
 40
0.1869641065967025
 50
233.7730652132486
 51
274.7528030615308126
  0
ARC
  5
7BF3
  8
0
 10
3846.1329533430198353
 20
626.0646031765578527
 30
0.0
 40
0.1517091860675629
 50
225.9152786800650006
 51
277.7419269127158827
  0
ARC
  5
7BF4
  8
0
 10
3866.0447343208070379
 20
650.4558930188767363
 30
0.0
 40
26.8688234920057596
 50
276.8652875988971118
 51
298.8762573124574828
  0
ARC
  5
7BF5
  8
0
 10
3863.8135321789741283
 20
697.965509714908876
 30
0.0
 40
74.3851955487712218
 50
270.460295310226627
 51
274.1962456962272086
  0
ARC
  5
7BF6
  8
0
 10
3845.5972145393848223
 20
6992.185025103877706
 30
0.0
 40
6368.630100157221932
 50
270.0376073572547284
 51
270.1692606507688765
  0
ARC
  5
7BF7
  8
0
 10
3833.5100777488351014
 20
650.4558930188767363
 30
0.0
 40
26.8688234920057596
 50
241.1237426875424035
 51
263.1347124011028882
  0
ARC
  5
7BF8
  8
0
 10
3835.7412798906680109
 20
697.965509714908876
 30
0.0
 40
74.3851955487712218
 50
265.8037543037727914
 51
269.539704689773373
  0
ARC
  5
7BF9
  8
0
 10
3853.9575975302568622
 20
6992.185025103877706
 30
0.0
 40
6368.630100157221932
 50
269.8307393492310098
 51
269.9623926427452716
  0
ARC
  5
7BFA
  8
0
 10
3866.0351352960751683
 20
578.0860085140491265
 30
0.0
 40
26.9081052582742011
 50
61.0154569146348607
 51
83.1266544930543603
  0
ARC
  5
7BFB
  8
0
 10
3863.8123858248882243
 20
530.6149393128521297
 30
0.0
 40
74.3851955487712218
 50
85.8037543037727772
 51
89.539704689773373
  0
ARC
  5
7BFC
  8
0
 10
3845.5960681852989183
 20
-5763.604576076118974
 30
0.0
 40
6368.630100157221932
 50
89.8307393492310666
 51
89.9623823338848752
  0
ARC
  5
7BFD
  8
0
 10
3833.5196730460820618
 20
578.0860210245973576
 30
0.0
 40
26.9080925084256108
 50
96.8733428795561622
 51
118.9845490510063968
  0
ARC
  5
7BFE
  8
0
 10
3835.7424252681530561
 20
530.6149393128521297
 30
0.0
 40
74.3851955487712218
 50
90.460295310226627
 51
94.1962456962271943
  0
ARC
  5
7BFF
  8
0
 10
3853.9587429077419074
 20
-5763.604576076118974
 30
0.0
 40
6368.630100157221932
 50
90.0376176661151248
 51
90.1692606507689192
  0
LINE
  5
7C00
  8
0
 10
3870.5077579993208019
 20
606.3992751067655718
 30
0.0
 11
3870.5077648300211877
 21
622.1822890553656862
 31
0.0
  0
ARC
  5
7C01
  8
0
 10
3868.8328778032791888
 20
622.1591280780621673
 30
0.0
 40
1.6750471585056379
 50
0.7922574185065785
 51
75.3504056309496235
  0
ARC
  5
7C02
  8
0
 10
3868.876708041099846
 20
606.3872622184677539
 30
0.0
 40
1.631094195838269
 50
283.4235352706721187
 51
0.4219829998170078
  0
LINE
  5
7C03
  8
0
 10
3829.0470530937200238
 20
606.3992751067655718
 30
0.0
 11
3829.0470462630210022
 21
622.1822890553656862
 31
0.0
  0
ARC
  5
7C04
  8
0
 10
3830.7219332897620916
 20
622.1591280780621673
 30
0.0
 40
1.6750471585056379
 50
104.6495943690504049
 51
179.2077425814933918
  0
ARC
  5
7C05
  8
0
 10
3830.6781030519418891
 20
606.3872622184677539
 30
0.0
 40
1.631094195838269
 50
179.5780170001829958
 51
256.5764647293278244
  0
LINE
  5
7C06
  8
0
 10
3884.0984529283200573
 20
628.0850916177214458
 30
0.0
 11
3884.0984529283200573
 21
602.6607089236097181
 31
0.0
  0
ARC
  5
7C07
  8
0
 10
3883.3510420530269585
 20
602.7382960677052779
 30
0.0
 40
0.75142716309444
 50
324.5514923198987844
 51
354.0734735679325809
  0
ARC
  5
7C08
  8
0
 10
3883.3455842937760281
 20
628.0050181188497618
 30
0.0
 40
0.7571148830281789
 50
6.0710334657693821
 51
35.3687101580242427
  0
LINE
  5
7C6D
  8
0
 10
3819.8793952308701591
 20
602.961217054084841
 30
0.0
 11
3819.9086896054400313
 21
626.6847653541324235
 31
0.0
  0
ATTDEF
  5
7C70
  8
DEFPOINTS
 10
3850.4517090091208047
 20
615.3827288436416438
 30
0.0
 40
0.001
  1
K-18343A
  3

  2
MODELNUMBER
 70
     0
1001
ACDBATTR
1070
     0
1070
     1
  0
ATTDEF
  5
7C71
  8
DEFPOINTS
 10
3850.4517090091208047
 20
615.3810621769749787
 30
0.0
 40
0.001
  1
EVOK
  3

  2
TRADENAME
 70
     0
1001
ACDBATTR
1070
     0
1070
     1
  0
ATTDEF
  5
7C72
  8
DEFPOINTS
 10
3850.4517090091208047
 20
615.3793955103083135
 30
0.0
 40
0.001
  1
BATH 
  3

  2
PRODUCT
 70
     0
1001
ACDBATTR
1070
     0
1070
     1
  0
ENDSEC
  0
EOF
