  0
SECTION
  2
HEADER
  9
$ACADVER
  1
AC1009
  9
$INSBASE
 10
97.625533169843365
 20
-7.652287771173202
 30
0.0
  9
$EXTMIN
 10
93.6263430324138284
 20
-10.2312041194694192
 30
-0.0000000349181948
  9
$EXTMAX
 10
101.6277992198199058
 20
-7.6470908145862992
 30
0.0000000814935746
  9
$LIMMIN
 10
0.0
 20
0.0
  9
$LIMMAX
 10
11.6929133858000007
 20
8.2677165353999982
  9
$ORTHOMODE
 70
     1
  9
$REGENMODE
 70
     1
  9
$FILLMODE
 70
     1
  9
$QTEXTMODE
 70
     0
  9
$MIRRTEXT
 70
     0
  9
$DRAGMODE
 70
     2
  9
$LTSCALE
 40
0.6431102362
  9
$OSMODE
 70
  4095
  9
$ATTMODE
 70
     1
  9
$TEXTSIZE
 40
0.2
  9
$TRACEWID
 40
0.05
  9
$TEXTSTYLE
  7
STANDARD
  9
$CLAYER
  8
0
  9
$CELTYPE
  6
BYLAYER
  9
$CECOLOR
 62
   256
  9
$DIMSCALE
 40
1.0
  9
$DIMASZ
 40
0.1875
  9
$DIMEXO
 40
0.0625
  9
$DIMDLI
 40
0.4443307087
  9
$DIMRND
 40
0.0
  9
$DIMDLE
 40
0.0
  9
$DIMEXE
 40
0.125
  9
$DIMTP
 40
0.01
  9
$DIMTM
 40
0.01
  9
$DIMTXT
 40
1.0
  9
$DIMCEN
 40
0.1052362205
  9
$DIMTSZ
 40
0.0
  9
$DIMTOL
 70
     1
  9
$DIMLIM
 70
     0
  9
$DIMTIH
 70
     1
  9
$DIMTOH
 70
     1
  9
$DIMSE1
 70
     0
  9
$DIMSE2
 70
     0
  9
$DIMTAD
 70
     0
  9
$DIMZIN
 70
     0
  9
$DIMBLK
  1

  9
$DIMASO
 70
     1
  9
$DIMSHO
 70
     1
  9
$DIMPOST
  1
\X
  9
$DIMAPOST
  1

  9
$DIMALT
 70
     1
  9
$DIMALTD
 70
     2
  9
$DIMALTF
 40
25.3999999999999986
  9
$DIMLFAC
 40
1.0
  9
$DIMTOFL
 70
     0
  9
$DIMTVP
 40
0.0
  9
$DIMTIX
 70
     0
  9
$DIMSOXD
 70
     0
  9
$DIMSAH
 70
     0
  9
$DIMBLK1
  1

  9
$DIMBLK2
  1

  9
$DIMSTYLE
  2
STANDARD
  9
$DIMCLRD
 70
     0
  9
$DIMCLRE
 70
     0
  9
$DIMCLRT
 70
     0
  9
$DIMTFAC
 40
1.0
  9
$DIMGAP
 40
0.09
  9
$LUNITS
 70
     2
  9
$LUPREC
 70
     4
  9
$SKETCHINC
 40
0.1
  9
$FILLETRAD
 40
0.0
  9
$AUNITS
 70
     0
  9
$AUPREC
 70
     0
  9
$MENU
  1
.
  9
$ELEVATION
 40
0.0
  9
$PELEVATION
 40
0.0
  9
$THICKNESS
 40
0.0
  9
$LIMCHECK
 70
     0
  9
$BLIPMODE
 70
     0
  9
$CHAMFERA
 40
0.0
  9
$CHAMFERB
 40
0.0
  9
$SKPOLY
 70
     0
  9
$TDCREATE
 40
2458172.4620254631154239
  9
$TDUPDATE
 40
2459078.4247222221456468
  9
$TDINDWG
 40
0.0934434375
  9
$TDUSRTIMER
 40
0.0934434375
  9
$USRTIMER
 70
     1
  9
$ANGBASE
 50
0.0
  9
$ANGDIR
 70
     0
  9
$PDMODE
 70
     0
  9
$PDSIZE
 40
0.3125
  9
$PLINEWID
 40
0.0
  9
$COORDS
 70
     1
  9
$SPLFRAME
 70
     0
  9
$SPLINETYPE
 70
     6
  9
$SPLINESEGS
 70
     8
  9
$ATTDIA
 70
     1
  9
$ATTREQ
 70
     1
  9
$HANDLING
 70
     1
  9
$HANDSEED
  5
8D59
  9
$SURFTAB1
 70
     6
  9
$SURFTAB2
 70
     6
  9
$SURFTYPE
 70
     6
  9
$SURFU
 70
     6
  9
$SURFV
 70
     6
  9
$UCSNAME
  2

  9
$UCSORG
 10
0.0
 20
0.0
 30
0.0
  9
$UCSXDIR
 10
1.0
 20
0.0
 30
0.0
  9
$UCSYDIR
 10
0.0
 20
1.0
 30
0.0
  9
$PUCSNAME
  2

  9
$PUCSORG
 10
0.0
 20
0.0
 30
0.0
  9
$PUCSXDIR
 10
1.0
 20
0.0
 30
0.0
  9
$PUCSYDIR
 10
0.0
 20
1.0
 30
0.0
  9
$USERI1
 70
     0
  9
$USERI2
 70
     0
  9
$USERI3
 70
     0
  9
$USERI4
 70
     0
  9
$USERI5
 70
     0
  9
$USERR1
 40
0.0
  9
$USERR2
 40
0.0
  9
$USERR3
 40
0.0
  9
$USERR4
 40
0.0
  9
$USERR5
 40
0.0
  9
$WORLDVIEW
 70
     1
  9
$SHADEDGE
 70
     3
  9
$SHADEDIF
 70
    70
  9
$TILEMODE
 70
     1
  9
$MAXACTVP
 70
    64
  9
$PLIMCHECK
 70
     0
  9
$PEXTMIN
 10
1.0000000000000000E+20
 20
1.0000000000000000E+20
 30
1.0000000000000000E+20
  9
$PEXTMAX
 10
-1.0000000000000000E+20
 20
-1.0000000000000000E+20
 30
-1.0000000000000000E+20
  9
$PLIMMIN
 10
0.0
 20
0.0
  9
$PLIMMAX
 10
12.0
 20
9.0
  9
$UNITMODE
 70
     0
  9
$VISRETAIN
 70
     1
  9
$PLINEGEN
 70
     0
  9
$PSLTSCALE
 70
     1
  0
ENDSEC
  0
SECTION
  2
TABLES
  0
TABLE
  2
VPORT
 70
     1
  0
VPORT
  2
*ACTIVE
 70
     0
 10
0.0
 20
0.0
 11
1.0
 21
1.0
 12
-26.9840874739557393
 22
-14.2514216374056808
 13
0.0
 23
0.0
 14
1.0
 24
1.0
 15
0.0
 25
0.0
 16
0.0
 26
0.0
 36
30.6214257250603907
 17
124.6111586000725993
 27
5.3122741703778242
 37
0.0
 40
3.0304925639331408
 41
2.6486111111111108
 42
50.0
 43
0.0
 44
0.0
 50
0.0
 51
0.0
 71
     0
 72
   100
 73
     1
 74
     1
 75
     0
 76
     0
 77
     0
 78
     0
  0
ENDTAB
  0
TABLE
  2
LTYPE
 70
     2
  0
LTYPE
  2
CONTINUOUS
 70
     0
  3
Solid line
 72
    65
 73
     0
 40
0.0
  0
LTYPE
  2
PHANTOM2
 70
     0
  3
___ _ _ ___ _ _ ___ _ _ ___ _ _
 72
    65
 73
     6
 40
1.25
 49
0.625
 49
-0.125
 49
0.125
 49
-0.125
 49
0.125
 49
-0.125
  0
ENDTAB
  0
TABLE
  2
LAYER
 70
     2
  0
LAYER
  2
0
 70
     0
 62
   255
  6
CONTINUOUS
  0
LAYER
  2
DEFPOINTS
 70
     0
 62
     7
  6
CONTINUOUS
  0
ENDTAB
  0
TABLE
  2
STYLE
 70
     1
  0
STYLE
  2
STANDARD
 70
     0
 40
0.0
 41
0.8
 50
0.0
 71
     0
 42
0.2
  3
txt
  4

  0
ENDTAB
  0
TABLE
  2
VIEW
 70
     0
  0
ENDTAB
  0
TABLE
  2
UCS
 70
     0
  0
ENDTAB
  0
TABLE
  2
APPID
 70
     9
  0
APPID
  2
ACAD
 70
     0
  0
APPID
  2
ACAD_MLEADERVER
 70
     0
  0
APPID
  2
ACAD_EXEMPT_FROM_CAD_STANDARDS
 70
     0
  0
APPID
  2
ACAD_DSTYLE_DIMJAG
 70
     0
  0
APPID
  2
ACAD_DSTYLE_DIMTALN
 70
     0
  0
APPID
  2
ACAD_NAV_VCDISPLAY
 70
     0
  0
APPID
  2
ACAECLAYERSTANDARD
 70
     0
  0
APPID
  2
ACCMTRANSPARENCY
 70
     0
  0
APPID
  2
ACDBATTR
 70
     0
  0
ENDTAB
  0
TABLE
  2
DIMSTYLE
 70
     1
  0
DIMSTYLE
  2
STANDARD
 70
     0
  3

  4

  5

  6

  7

 40
1.0
 41
0.1875
 42
0.0625
 43
0.38
 44
0.125
 45
0.0
 46
0.0
 47
0.01
 48
0.01
140
0.15625
141
0.09
142
0.0
143
25.3999999999999986
144
1.0
145
0.0
146
1.0
147
0.09
 71
     1
 72
     0
 73
     1
 74
     1
 75
     0
 76
     0
 77
     0
 78
     4
170
     0
171
     2
172
     0
173
     0
174
     0
175
     0
176
     0
177
     0
178
     0
  0
ENDTAB
  0
ENDSEC
  0
SECTION
  2
BLOCKS
  0
BLOCK
  8
0
  2
$MODEL_SPACE
 70
     0
 10
0.0
 20
0.0
 30
0.0
  3
$MODEL_SPACE
  1

  0
ENDBLK
  5
21
  8
0
  0
BLOCK
 67
     1
  8
0
  2
$PAPER_SPACE
 70
     0
 10
0.0
 20
0.0
 30
0.0
  3
$PAPER_SPACE
  1

  0
ENDBLK
  5
1D
 67
     1
  8
0
  0
BLOCK
  8
0
  2
_FILLED
 70
     0
 10
0.0
 20
0.0
 30
0.0
  3
_FILLED
  1

  0
SOLID
  5
8875
  8
0
  6
BYBLOCK
 62
     0
 10
0.0
 20
0.0
 30
0.0
 11
-1.0
 21
0.1666666667
 31
0.0
 12
-1.0
 22
-0.1666666667
 32
0.0
 13
-1.0
 23
-0.1666666667
 33
0.0
  0
ENDBLK
  5
8876
  8
0
  6
BYBLOCK
 62
     0
  0
ENDSEC
  0
SECTION
  2
ENTITIES
  0
ATTDEF
  5
7EBB
  8
DEFPOINTS
 10
97.6259039306343368
 20
-7.6484096800087134
 30
0.0
 40
0.001
  1
K-18358T-CL
  3

  2
MODELNUMBER
 70
     0
1001
ACDBATTR
1070
     0
1070
     1
  0
ATTDEF
  5
7EBC
  8
DEFPOINTS
 10
97.6259039306343368
 20
-7.6500763466753776
 30
0.0
 40
0.001
  1
KATALYST
  3

  2
TRADENAME
 70
     0
1001
ACDBATTR
1070
     0
1070
     1
  0
ATTDEF
  5
7EBD
  8
DEFPOINTS
 10
97.6259039306343368
 20
-7.6517430133420428
 30
0.0
 40
0.001
  1
SHOWERHEAD
  3

  2
PRODUCT
 70
     0
1001
ACDBATTR
1070
     0
1070
     1
  0
LINE
  5
8940
  8
0
 10
94.3209808465079078
 20
-10.2233417039731904
 30
0.0
 11
94.3146470636082341
 21
-10.1800751727732006
 31
0.0
  0
LINE
  5
8941
  8
0
 10
94.4288184117084057
 20
-10.2233417039731904
 30
0.0
 11
94.4351521946080794
 21
-10.1800751727732006
 31
0.0
  0
LINE
  5
8942
  8
0
 10
94.3287719591078968
 20
-10.2300751727731996
 30
0.0
 11
94.4210272991084167
 21
-10.2300751727731996
 31
0.0
  0
LINE
  5
8943
  8
0
 10
101.5916749020428966
 20
-10.1800751727732006
 30
0.0
 11
93.6593914374429062
 21
-10.1800751727732006
 31
0.0
  0
LINE
  5
8944
  8
0
 10
96.9070292328436835
 20
-8.6446421018732025
 30
0.0
 11
96.9070292328436835
 21
-9.7076342278732035
 31
0.0
  0
LINE
  5
8945
  8
0
 10
101.6215961619433017
 20
-9.7076342278732035
 30
0.0
 11
93.6294701777433573
 21
-9.7076342278732035
 31
0.0
  0
LINE
  5
8946
  8
0
 10
97.1305331698434742
 20
-7.672287771173198
 30
0.0
 11
97.1305331699433765
 21
-8.190464564618372
 31
0.0
  0
LINE
  5
8947
  8
0
 10
96.9070292328436835
 20
-8.6446421018732025
 30
0.0
 11
98.344037106843075
 21
-8.6446421018732007
 31
0.0
  0
LINE
  5
8948
  8
0
 10
98.344037106843075
 20
-8.6446421018732007
 30
0.0
 11
98.344037106843075
 21
-9.7076342278732035
 31
0.0
  0
LINE
  5
8949
  8
0
 10
98.1005331698437146
 20
-7.652287771173202
 30
0.0
 11
97.1505331698430155
 21
-7.652287771173202
 31
0.0
  0
ARC
  5
894A
  8
0
 10
93.6616789625512638
 20
-10.1478663878183397
 30
0.0
 40
0.0322899147249966
 50
184.0624279475655953
 51
265.9375732281745854
  0
ARC
  5
894B
  8
0
 10
101.5916749019717997
 20
-10.1501539127016898
 30
0.0
 40
0.0299212599715069
 50
270.000000136040228
 51
359.999999671584078
  0
ARC
  5
894C
  8
0
 10
97.1505331698430155
 20
-7.672287771173198
 30
0.0
 40
0.02
 50
90.0
 51
180.0
  0
ARC
  5
894D
  8
0
 10
98.1005331698437146
 20
-7.672287771173198
 30
0.0
 40
0.02
 50
0.0
 51
90.0
  0
ARC
  5
894E
  8
0
 10
94.3287718205081802
 20
-10.2222011569732008
 30
0.0
 40
0.0078740157
 50
188.328562595695189
 51
270.001008127313014
  0
ARC
  5
894F
  8
0
 10
94.4210274377081333
 20
-10.2222011569732008
 30
0.0
 40
0.0078740157
 50
269.998991872686986
 51
351.6714374043045268
  0
LINE
  5
8950
  8
0
 10
94.4505373550023961
 20
-10.2233417039731904
 30
0.0
 11
94.4442035721027224
 21
-10.1800751727732006
 31
0.0
  0
LINE
  5
8951
  8
0
 10
94.558374920202894
 20
-10.2233417039731904
 30
0.0
 11
94.5647087031025677
 21
-10.1800751727732006
 31
0.0
  0
LINE
  5
8952
  8
0
 10
94.4583284676023851
 20
-10.2300751727731996
 30
0.0
 11
94.550583807602905
 21
-10.2300751727731996
 31
0.0
  0
ARC
  5
8953
  8
0
 10
94.4583283290026685
 20
-10.2222011569732008
 30
0.0
 40
0.0078740157
 50
188.328562595695189
 51
270.001008127313014
  0
ARC
  5
8954
  8
0
 10
94.5505839462026216
 20
-10.2222011569732008
 30
0.0
 40
0.0078740157
 50
269.998991872686986
 51
351.6714374043045268
  0
LINE
  5
8955
  8
0
 10
94.7562032640933722
 20
-10.2233417039731904
 30
0.0
 11
94.7498694811936986
 21
-10.1800751727732006
 31
0.0
  0
LINE
  5
8956
  8
0
 10
94.8640408292938844
 20
-10.2233417039731904
 30
0.0
 11
94.8703746121935438
 21
-10.1800751727732006
 31
0.0
  0
LINE
  5
8957
  8
0
 10
94.7639943766933612
 20
-10.2300751727731996
 30
0.0
 11
94.8562497166938812
 21
-10.2300751727731996
 31
0.0
  0
ARC
  5
8958
  8
0
 10
94.7639942380936446
 20
-10.2222011569732008
 30
0.0
 40
0.0078740157
 50
188.328562595695189
 51
270.001008127313014
  0
ARC
  5
8959
  8
0
 10
94.8562498552935978
 20
-10.2222011569732008
 30
0.0
 40
0.0078740157
 50
269.998991872686986
 51
351.6714374043045268
  0
LINE
  5
895A
  8
0
 10
94.9729176762958076
 20
-10.2233417039731904
 30
0.0
 11
94.9665838933961339
 21
-10.1800751727732006
 31
0.0
  0
LINE
  5
895B
  8
0
 10
95.0807552414963055
 20
-10.2233417039731904
 30
0.0
 11
95.0870890243959792
 21
-10.1800751727732006
 31
0.0
  0
LINE
  5
895C
  8
0
 10
94.9807087888957966
 20
-10.2300751727731996
 30
0.0
 11
95.0729641288963165
 21
-10.2300751727731996
 31
0.0
  0
ARC
  5
895D
  8
0
 10
94.9807086502960942
 20
-10.2222011569732008
 30
0.0
 40
0.0078740157
 50
188.328562595695189
 51
270.001008127313014
  0
ARC
  5
895E
  8
0
 10
95.0729642674960189
 20
-10.2222011569732008
 30
0.0
 40
0.0078740157
 50
269.998991872686986
 51
351.6714374043045268
  0
LINE
  5
895F
  8
0
 10
95.1687939015303215
 20
-10.2233417039731904
 30
0.0
 11
95.1751276844299952
 21
-10.1800751727732006
 31
0.0
  0
LINE
  5
8960
  8
0
 10
95.0729641288963165
 20
-10.2300751727731996
 30
0.0
 11
95.1610027889303183
 21
-10.2300751727731996
 31
0.0
  0
ARC
  5
8961
  8
0
 10
95.1610029275300491
 20
-10.2222011569732008
 30
0.0
 40
0.0078740157
 50
269.998991872686986
 51
351.6714374043045268
  0
LINE
  5
8962
  8
0
 10
95.2921401017114533
 20
-10.2233417039731904
 30
0.0
 11
95.2858063188117796
 21
-10.1800751727732006
 31
0.0
  0
LINE
  5
8963
  8
0
 10
95.3999776669119512
 20
-10.2233417039731904
 30
0.0
 11
95.4063114498116249
 21
-10.1800751727732006
 31
0.0
  0
LINE
  5
8964
  8
0
 10
95.2999312143114565
 20
-10.2300751727731996
 30
0.0
 11
95.3921865543119765
 21
-10.2300751727731996
 31
0.0
  0
ARC
  5
8965
  8
0
 10
95.2999310757117257
 20
-10.2222011569732008
 30
0.0
 40
0.0078740157
 50
188.328562595695189
 51
270.001008127313014
  0
ARC
  5
8966
  8
0
 10
95.3921866929116788
 20
-10.2222011569732008
 30
0.0
 40
0.0078740157
 50
269.998991872686986
 51
351.6714374043045268
  0
LINE
  5
8967
  8
0
 10
95.6150028674430104
 20
-10.2233417039731904
 30
0.0
 11
95.6086690845433367
 21
-10.1800751727732006
 31
0.0
  0
LINE
  5
8968
  8
0
 10
95.7228404326435083
 20
-10.2233417039731904
 30
0.0
 11
95.729174215543182
 21
-10.1800751727732006
 31
0.0
  0
LINE
  5
8969
  8
0
 10
95.6227939800429851
 20
-10.2300751727731996
 30
0.0
 11
95.7150493200435051
 21
-10.2300751727731996
 31
0.0
  0
ARC
  5
896A
  8
0
 10
95.6227938414432828
 20
-10.2222011569732008
 30
0.0
 40
0.0078740157
 50
188.328562595695189
 51
270.001008127313014
  0
ARC
  5
896B
  8
0
 10
95.7150494586432359
 20
-10.2222011569732008
 30
0.0
 40
0.0078740157
 50
269.998991872686986
 51
351.6714374043045268
  0
LINE
  5
896C
  8
0
 10
95.7421003705058666
 20
-10.2233417039731904
 30
0.0
 11
95.735766587606193
 21
-10.1800751727732006
 31
0.0
  0
LINE
  5
896D
  8
0
 10
95.8499379357063646
 20
-10.2233417039731904
 30
0.0
 11
95.8562717186060382
 21
-10.1800751727732006
 31
0.0
  0
LINE
  5
896E
  8
0
 10
95.7498914831058556
 20
-10.2300751727731996
 30
0.0
 11
95.8421468231063756
 21
-10.2300751727731996
 31
0.0
  0
ARC
  5
896F
  8
0
 10
95.749891344506139
 20
-10.2222011569732008
 30
0.0
 40
0.0078740157
 50
188.328562595695189
 51
270.001008127313014
  0
ARC
  5
8970
  8
0
 10
95.8421469617061064
 20
-10.2222011569732008
 30
0.0
 40
0.0078740157
 50
269.998991872686986
 51
351.6714374043045268
  0
LINE
  5
8971
  8
0
 10
95.8817200986042479
 20
-10.2233417039731904
 30
0.0
 11
95.8753863157045743
 21
-10.1800751727732006
 31
0.0
  0
LINE
  5
8972
  8
0
 10
95.9895576638047459
 20
-10.2233417039731904
 30
0.0
 11
95.9958914467044195
 21
-10.1800751727732006
 31
0.0
  0
LINE
  5
8973
  8
0
 10
95.8895112112042369
 20
-10.2300751727731996
 30
0.0
 11
95.9817665512047569
 21
-10.2300751727731996
 31
0.0
  0
ARC
  5
8974
  8
0
 10
95.8895110726045203
 20
-10.2222011569732008
 30
0.0
 40
0.0078740157
 50
188.328562595695189
 51
270.001008127313014
  0
ARC
  5
8975
  8
0
 10
95.9817666898044735
 20
-10.2222011569732008
 30
0.0
 40
0.0078740157
 50
269.998991872686986
 51
351.6714374043045268
  0
LINE
  5
8976
  8
0
 10
96.0547135933640135
 20
-10.2233417039731904
 30
0.0
 11
96.0610473762636872
 21
-10.1800751727732006
 31
0.0
  0
LINE
  5
8977
  8
0
 10
95.9817665512047569
 20
-10.2300751727731996
 30
0.0
 11
96.0469224807640245
 21
-10.2300751727731996
 31
0.0
  0
ARC
  5
8978
  8
0
 10
96.0469226193637411
 20
-10.2222011569732008
 30
0.0
 40
0.0078740157
 50
269.998991872686986
 51
351.6714374043045268
  0
LINE
  5
8979
  8
0
 10
96.2722270575212633
 20
-10.2233417039731904
 30
0.0
 11
96.2658932746215896
 21
-10.1800751727732006
 31
0.0
  0
LINE
  5
897A
  8
0
 10
96.3800646227217612
 20
-10.2233417039731904
 30
0.0
 11
96.3863984056214349
 21
-10.1800751727732006
 31
0.0
  0
LINE
  5
897B
  8
0
 10
96.2800181701212665
 20
-10.2300751727731996
 30
0.0
 11
96.3722735101217864
 21
-10.2300751727731996
 31
0.0
  0
ARC
  5
897C
  8
0
 10
96.2800180315215357
 20
-10.2222011569732008
 30
0.0
 40
0.0078740157
 50
188.328562595695189
 51
270.001008127313014
  0
ARC
  5
897D
  8
0
 10
96.3722736487214888
 20
-10.2222011569732008
 30
0.0
 40
0.0078740157
 50
269.998991872686986
 51
351.6714374043045268
  0
LINE
  5
897E
  8
0
 10
96.4477875141781169
 20
-10.2233417039731904
 30
0.0
 11
96.4414537312784432
 21
-10.1800751727732006
 31
0.0
  0
LINE
  5
897F
  8
0
 10
96.5556250793786148
 20
-10.2233417039731904
 30
0.0
 11
96.5619588622782885
 21
-10.1800751727732006
 31
0.0
  0
LINE
  5
8980
  8
0
 10
96.4555786267781201
 20
-10.2300751727731996
 30
0.0
 11
96.54783396677864
 21
-10.2300751727731996
 31
0.0
  0
ARC
  5
8981
  8
0
 10
96.4555784881783893
 20
-10.2222011569732008
 30
0.0
 40
0.0078740157
 50
188.328562595695189
 51
270.001008127313014
  0
ARC
  5
8982
  8
0
 10
96.5478341053783424
 20
-10.2222011569732008
 30
0.0
 40
0.0078740157
 50
269.998991872686986
 51
351.6714374043045268
  0
LINE
  5
8983
  8
0
 10
96.5972512606157352
 20
-10.2233417039731904
 30
0.0
 11
96.5909174777160615
 21
-10.1800751727732006
 31
0.0
  0
LINE
  5
8984
  8
0
 10
96.7050888258162331
 20
-10.2233417039731904
 30
0.0
 11
96.7114226087159068
 21
-10.1800751727732006
 31
0.0
  0
LINE
  5
8985
  8
0
 10
96.6050423732157242
 20
-10.2300751727731996
 30
0.0
 11
96.6972977132162441
 21
-10.2300751727731996
 31
0.0
  0
ARC
  5
8986
  8
0
 10
96.6050422346159934
 20
-10.2222011569732008
 30
0.0
 40
0.0078740157
 50
188.328562595695189
 51
270.001008127313014
  0
ARC
  5
8987
  8
0
 10
96.6972978518159607
 20
-10.2222011569732008
 30
0.0
 40
0.0078740157
 50
269.998991872686986
 51
351.6714374043045268
  0
LINE
  5
8988
  8
0
 10
96.7293170120849339
 20
-10.2233417039731904
 30
0.0
 11
96.7229832291852745
 21
-10.1800751727732006
 31
0.0
  0
LINE
  5
8989
  8
0
 10
96.8371545772854461
 20
-10.2233417039731904
 30
0.0
 11
96.8434883601851055
 21
-10.1800751727732006
 31
0.0
  0
LINE
  5
898A
  8
0
 10
96.7371081246849229
 20
-10.2300751727731996
 30
0.0
 11
96.8293634646854429
 21
-10.2300751727731996
 31
0.0
  0
ARC
  5
898B
  8
0
 10
96.7371079860852063
 20
-10.2222011569732008
 30
0.0
 40
0.0078740157
 50
188.328562595695189
 51
270.001008127313014
  0
ARC
  5
898C
  8
0
 10
96.8293636032851737
 20
-10.2222011569732008
 30
0.0
 40
0.0078740157
 50
269.998991872686986
 51
351.6714374043045268
  0
LINE
  5
898D
  8
0
 10
96.9007647638122052
 20
-10.2233417039731904
 30
0.0
 11
96.8944309809125315
 21
-10.1800751727732006
 31
0.0
  0
LINE
  5
898E
  8
0
 10
97.0086023290127031
 20
-10.2233417039731904
 30
0.0
 11
97.014936111912391
 21
-10.1800751727732006
 31
0.0
  0
LINE
  5
898F
  8
0
 10
96.9085558764121942
 20
-10.2300751727731996
 30
0.0
 11
97.0008112164127141
 21
-10.2300751727731996
 31
0.0
  0
ARC
  5
8990
  8
0
 10
96.9085557378124918
 20
-10.2222011569732008
 30
0.0
 40
0.0078740157
 50
188.328562595695189
 51
270.001008127313014
  0
ARC
  5
8991
  8
0
 10
97.0008113550124307
 20
-10.2222011569732008
 30
0.0
 40
0.0078740157
 50
269.998991872686986
 51
351.6714374043045268
  0
LINE
  5
8992
  8
0
 10
97.246545727347609
 20
-10.2233417039731904
 30
0.0
 11
97.2402119444479354
 21
-10.1800751727732006
 31
0.0
  0
LINE
  5
8993
  8
0
 10
97.3543832925481212
 20
-10.2233417039731904
 30
0.0
 11
97.3607170754477949
 21
-10.1800751727732006
 31
0.0
  0
LINE
  5
8994
  8
0
 10
97.254336839947598
 20
-10.2300751727731996
 30
0.0
 11
97.346592179948118
 21
-10.2300751727731996
 31
0.0
  0
ARC
  5
8995
  8
0
 10
97.2543367013478957
 20
-10.2222011569732008
 30
0.0
 40
0.0078740157
 50
188.328562595695189
 51
270.001008127313014
  0
ARC
  5
8996
  8
0
 10
97.3465923185478346
 20
-10.2222011569732008
 30
0.0
 40
0.0078740157
 50
269.998991872686986
 51
351.6714374043045268
  0
LINE
  5
8997
  8
0
 10
97.5706135355680289
 20
-10.2233417039731904
 30
0.0
 11
97.5642797526683552
 21
-10.1800751727732006
 31
0.0
  0
LINE
  5
8998
  8
0
 10
97.6784511007685268
 20
-10.2233417039731904
 30
0.0
 11
97.6847848836682005
 21
-10.1800751727732006
 31
0.0
  0
LINE
  5
8999
  8
0
 10
97.5784046481680036
 20
-10.2300751727731996
 30
0.0
 11
97.6706599881685236
 21
-10.2300751727731996
 31
0.0
  0
ARC
  5
899A
  8
0
 10
97.5784045095683013
 20
-10.2222011569732008
 30
0.0
 40
0.0078740157
 50
188.328562595695189
 51
270.001008127313014
  0
ARC
  5
899B
  8
0
 10
97.6706601267682544
 20
-10.2222011569732008
 30
0.0
 40
0.0078740157
 50
269.998991872686986
 51
351.6714374043045268
  0
LINE
  5
899C
  8
0
 10
97.8984598843866962
 20
-10.2233417039731904
 30
0.0
 11
97.8921261014870225
 21
-10.1800751727732006
 31
0.0
  0
LINE
  5
899D
  8
0
 10
98.0062974495871941
 20
-10.2233417039731904
 30
0.0
 11
98.0126312324868536
 21
-10.1800751727732006
 31
0.0
  0
LINE
  5
899E
  8
0
 10
97.906250996986671
 20
-10.2300751727731996
 30
0.0
 11
97.9985063369871909
 21
-10.2300751727731996
 31
0.0
  0
ARC
  5
899F
  8
0
 10
97.9062508583869544
 20
-10.2222011569732008
 30
0.0
 40
0.0078740157
 50
188.328562595695189
 51
270.001008127313014
  0
ARC
  5
89A0
  8
0
 10
97.9985064755869217
 20
-10.2222011569732008
 30
0.0
 40
0.0078740157
 50
269.998991872686986
 51
351.6714374043045268
  0
LINE
  5
89A1
  8
0
 10
98.244336430962818
 20
-10.2233417039731904
 30
0.0
 11
98.2380026480631443
 21
-10.1800751727732006
 31
0.0
  0
LINE
  5
89A2
  8
0
 10
98.3521739961633301
 20
-10.2233417039731904
 30
0.0
 11
98.3585077790630038
 21
-10.1800751727732006
 31
0.0
  0
LINE
  5
89A3
  8
0
 10
98.252127543562807
 20
-10.2300751727731996
 30
0.0
 11
98.3443828835633269
 21
-10.2300751727731996
 31
0.0
  0
ARC
  5
89A4
  8
0
 10
98.2521274049631046
 20
-10.2222011569732008
 30
0.0
 40
0.0078740157
 50
188.328562595695189
 51
270.001008127313014
  0
ARC
  5
89A5
  8
0
 10
98.3443830221630435
 20
-10.2222011569732008
 30
0.0
 40
0.0078740157
 50
269.998991872686986
 51
351.6714374043045268
  0
LINE
  5
89A6
  8
0
 10
98.414011757013597
 20
-10.2233417039731904
 30
0.0
 11
98.4076779741139234
 21
-10.1800751727732006
 31
0.0
  0
LINE
  5
89A7
  8
0
 10
98.521849322214095
 20
-10.2233417039731904
 30
0.0
 11
98.5281831051137686
 21
-10.1800751727732006
 31
0.0
  0
LINE
  5
89A8
  8
0
 10
98.421802869613586
 20
-10.2300751727731996
 30
0.0
 11
98.514058209614106
 21
-10.2300751727731996
 31
0.0
  0
ARC
  5
89A9
  8
0
 10
98.4218027310138694
 20
-10.2222011569732008
 30
0.0
 40
0.0078740157
 50
188.328562595695189
 51
270.001008127313014
  0
ARC
  5
89AA
  8
0
 10
98.5140583482138368
 20
-10.2222011569732008
 30
0.0
 40
0.0078740157
 50
269.998991872686986
 51
351.6714374043045268
  0
LINE
  5
89AB
  8
0
 10
98.5484468577748629
 20
-10.2233417039731904
 30
0.0
 11
98.542113074875175
 21
-10.1800751727732006
 31
0.0
  0
LINE
  5
89AC
  8
0
 10
98.6562844229753466
 20
-10.2233417039731904
 30
0.0
 11
98.6626182058750345
 21
-10.1800751727732006
 31
0.0
  0
LINE
  5
89AD
  8
0
 10
98.5562379703748377
 20
-10.2300751727731996
 30
0.0
 11
98.6484933103753576
 21
-10.2300751727731996
 31
0.0
  0
ARC
  5
89AE
  8
0
 10
98.5562378317751353
 20
-10.2222011569732008
 30
0.0
 40
0.0078740157
 50
188.328562595695189
 51
270.001008127313014
  0
ARC
  5
89AF
  8
0
 10
98.6484934489750742
 20
-10.2222011569732008
 30
0.0
 40
0.0078740157
 50
269.998991872686986
 51
351.6714374043045268
  0
LINE
  5
89B0
  8
0
 10
98.6972389828268888
 20
-10.2233417039731904
 30
0.0
 11
98.6909051999272151
 21
-10.1800751727732006
 31
0.0
  0
LINE
  5
89B1
  8
0
 10
98.8050765480273867
 20
-10.2233417039731904
 30
0.0
 11
98.8114103309270604
 21
-10.1800751727732006
 31
0.0
  0
LINE
  5
89B2
  8
0
 10
98.7050300954268636
 20
-10.2300751727731996
 30
0.0
 11
98.7972854354273835
 21
-10.2300751727731996
 31
0.0
  0
ARC
  5
89B3
  8
0
 10
98.7050299568271612
 20
-10.2222011569732008
 30
0.0
 40
0.0078740157
 50
188.328562595695189
 51
270.001008127313014
  0
ARC
  5
89B4
  8
0
 10
98.7972855740271143
 20
-10.2222011569732008
 30
0.0
 40
0.0078740157
 50
269.998991872686986
 51
351.6714374043045268
  0
LINE
  5
89B5
  8
0
 10
98.8708299208246473
 20
-10.2233417039731904
 30
0.0
 11
98.8644961379249736
 21
-10.1800751727732006
 31
0.0
  0
LINE
  5
89B6
  8
0
 10
98.9786674860251452
 20
-10.2233417039731904
 30
0.0
 11
98.9850012689248189
 21
-10.1800751727732006
 31
0.0
  0
LINE
  5
89B7
  8
0
 10
98.8786210334246363
 20
-10.2300751727731996
 30
0.0
 11
98.9708763734251562
 21
-10.2300751727731996
 31
0.0
  0
ARC
  5
89B8
  8
0
 10
98.8786208948249197
 20
-10.2222011569732008
 30
0.0
 40
0.0078740157
 50
188.328562595695189
 51
270.001008127313014
  0
ARC
  5
89B9
  8
0
 10
98.970876512024887
 20
-10.2222011569732008
 30
0.0
 40
0.0078740157
 50
269.998991872686986
 51
351.6714374043045268
  0
LINE
  5
89BA
  8
0
 10
99.1988444807425367
 20
-10.2233417039731904
 30
0.0
 11
99.192510697842863
 21
-10.1800751727732006
 31
0.0
  0
LINE
  5
89BB
  8
0
 10
99.3066820459430346
 20
-10.2233417039731904
 30
0.0
 11
99.3130158288427083
 21
-10.1800751727732006
 31
0.0
  0
LINE
  5
89BC
  8
0
 10
99.2066355933425257
 20
-10.2300751727731996
 30
0.0
 11
99.2988909333430456
 21
-10.2300751727731996
 31
0.0
  0
ARC
  5
89BD
  8
0
 10
99.2066354547428091
 20
-10.2222011569732008
 30
0.0
 40
0.0078740157
 50
188.328562595695189
 51
270.001008127313014
  0
ARC
  5
89BE
  8
0
 10
99.2988910719427764
 20
-10.2222011569732008
 30
0.0
 40
0.0078740157
 50
269.998991872686986
 51
351.6714374043045268
  0
LINE
  5
89BF
  8
0
 10
99.3695090796625067
 20
-10.2233417039731904
 30
0.0
 11
99.3758428625621804
 21
-10.1800751727732006
 31
0.0
  0
LINE
  5
89C0
  8
0
 10
99.2988909333430456
 20
-10.2300751727731996
 30
0.0
 11
99.3617179670625177
 21
-10.2300751727731996
 31
0.0
  0
ARC
  5
89C1
  8
0
 10
99.3617181056622343
 20
-10.2222011569732008
 30
0.0
 40
0.0078740157
 50
269.998991872686986
 51
351.6714374043045268
  0
LINE
  5
89C2
  8
0
 10
99.4079924039689047
 20
-10.2233417039731904
 30
0.0
 11
99.4016586210692452
 21
-10.1800751727732006
 31
0.0
  0
LINE
  5
89C3
  8
0
 10
99.5158299691694168
 20
-10.2233417039731904
 30
0.0
 11
99.5221637520690905
 21
-10.1800751727732006
 31
0.0
  0
LINE
  5
89C4
  8
0
 10
99.4157835165689079
 20
-10.2300751727731996
 30
0.0
 11
99.5080388565694278
 21
-10.2300751727731996
 31
0.0
  0
ARC
  5
89C5
  8
0
 10
99.4157833779691913
 20
-10.2222011569732008
 30
0.0
 40
0.0078740157
 50
188.328562595695189
 51
270.001008127313014
  0
ARC
  5
89C6
  8
0
 10
99.5080389951691444
 20
-10.2222011569732008
 30
0.0
 40
0.0078740157
 50
269.998991872686986
 51
351.6714374043045268
  0
LINE
  5
89C7
  8
0
 10
99.5394331966393509
 20
-10.2233417039731904
 30
0.0
 11
99.533099413739663
 21
-10.1800751727732006
 31
0.0
  0
LINE
  5
89C8
  8
0
 10
99.6472707618398346
 20
-10.2233417039731904
 30
0.0
 11
99.6536045447395225
 21
-10.1800751727732006
 31
0.0
  0
LINE
  5
89C9
  8
0
 10
99.5472243092393256
 20
-10.2300751727731996
 30
0.0
 11
99.6394796492398456
 21
-10.2300751727731996
 31
0.0
  0
ARC
  5
89CA
  8
0
 10
99.5472241706396233
 20
-10.2222011569732008
 30
0.0
 40
0.0078740157
 50
188.328562595695189
 51
270.001008127313014
  0
ARC
  5
89CB
  8
0
 10
99.6394797878395622
 20
-10.2222011569732008
 30
0.0
 40
0.0078740157
 50
269.998991872686986
 51
351.6714374043045268
  0
LINE
  5
89CC
  8
0
 10
99.8760931296977361
 20
-10.2233417039731904
 30
0.0
 11
99.869759346798034
 21
-10.1800751727732006
 31
0.0
  0
LINE
  5
89CD
  8
0
 10
99.9839306948982056
 20
-10.2233417039731904
 30
0.0
 11
99.9902644777978935
 21
-10.1800751727732006
 31
0.0
  0
LINE
  5
89CE
  8
0
 10
99.8838842422977109
 20
-10.2300751727731996
 30
0.0
 11
99.9761395822982308
 21
-10.2300751727731996
 31
0.0
  0
ARC
  5
89CF
  8
0
 10
99.8838841036979943
 20
-10.2222011569732008
 30
0.0
 40
0.0078740157
 50
188.328562595695189
 51
270.001008127313014
  0
ARC
  5
89D0
  8
0
 10
99.9761397208979332
 20
-10.2222011569732008
 30
0.0
 40
0.0078740157
 50
269.998991872686986
 51
351.6714374043045268
  0
LINE
  5
89D1
  8
0
 10
100.0811076508794031
 20
-10.2233417039731904
 30
0.0
 11
100.074773867979701
 21
-10.1800751727732006
 31
0.0
  0
LINE
  5
89D2
  8
0
 10
100.188945216079901
 20
-10.2233417039731904
 30
0.0
 11
100.1952789989795036
 21
-10.1800751727732006
 31
0.0
  0
LINE
  5
89D3
  8
0
 10
100.0888987634793068
 20
-10.2300751727731996
 30
0.0
 11
100.1811541034797983
 21
-10.2300751727731996
 31
0.0
  0
ARC
  5
89D4
  8
0
 10
100.0888986248796044
 20
-10.2222011569732008
 30
0.0
 40
0.0078740157
 50
188.328562595695189
 51
270.001008127313014
  0
ARC
  5
89D5
  8
0
 10
100.1811542420796002
 20
-10.2222011569732008
 30
0.0
 40
0.0078740157
 50
269.998991872686986
 51
351.6714374043045268
  0
LINE
  5
89D6
  8
0
 10
100.3843064638482048
 20
-10.2233417039731904
 30
0.0
 11
100.3779726809485027
 21
-10.1800751727732006
 31
0.0
  0
LINE
  5
89D7
  8
0
 10
100.4921440290487027
 20
-10.2233417039731904
 30
0.0
 11
100.4984778119484048
 21
-10.1800751727732006
 31
0.0
  0
LINE
  5
89D8
  8
0
 10
100.3920975764481938
 20
-10.2300751727731996
 30
0.0
 11
100.4843529164486995
 21
-10.2300751727731996
 31
0.0
  0
ARC
  5
89D9
  8
0
 10
100.3920974378485056
 20
-10.2222011569732008
 30
0.0
 40
0.0078740157
 50
188.328562595695189
 51
270.001008127313014
  0
ARC
  5
89DA
  8
0
 10
100.4843530550485013
 20
-10.2222011569732008
 30
0.0
 40
0.0078740157
 50
269.998991872686986
 51
351.6714374043045268
  0
LINE
  5
89DB
  8
0
 10
100.6938593852361947
 20
-10.2233417039731904
 30
0.0
 11
100.6875256023365068
 21
-10.1800751727732006
 31
0.0
  0
LINE
  5
89DC
  8
0
 10
100.8016969504367069
 20
-10.2233417039731904
 30
0.0
 11
100.8080307333363947
 21
-10.1800751727732006
 31
0.0
  0
LINE
  5
89DD
  8
0
 10
100.7016504978361979
 20
-10.2300751727731996
 30
0.0
 11
100.7939058378367037
 21
-10.2300751727731996
 31
0.0
  0
ARC
  5
89DE
  8
0
 10
100.7016503592364955
 20
-10.2222011569732008
 30
0.0
 40
0.0078740157
 50
188.328562595695189
 51
270.001008127313014
  0
ARC
  5
89DF
  8
0
 10
100.793905976436406
 20
-10.2222011569732008
 30
0.0
 40
0.0078740157
 50
269.998991872686986
 51
351.6714374043045268
  0
LINE
  5
89E0
  8
0
 10
100.8307003374743971
 20
-10.2233417039731904
 30
0.0
 11
100.824366554574695
 21
-10.1800751727732006
 31
0.0
  0
LINE
  5
89E1
  8
0
 10
100.938537902674895
 20
-10.2233417039731904
 30
0.0
 11
100.9448716855744976
 21
-10.1800751727732006
 31
0.0
  0
LINE
  5
89E2
  8
0
 10
100.8384914500743008
 20
-10.2300751727731996
 30
0.0
 11
100.930746790074906
 21
-10.2300751727731996
 31
0.0
  0
ARC
  5
89E3
  8
0
 10
100.8384913114745984
 20
-10.2222011569732008
 30
0.0
 40
0.0078740157
 50
188.328562595695189
 51
270.001008127313014
  0
ARC
  5
89E4
  8
0
 10
100.9307469286745942
 20
-10.2222011569732008
 30
0.0
 40
0.0078740157
 50
269.998991872686986
 51
351.6714374043045268
  0
ARC
  5
89E5
  8
0
 10
97.3605331698404939
 20
-8.1904645645626442
 30
0.0
 40
0.2299999998971192
 50
179.999999977718403
 51
247.4596895401255949
  0
ARC
  5
89E6
  8
0
 10
97.2415887224551199
 20
-8.4681340308484572
 30
0.0
 40
0.0721347254302598
 50
312.1696347050296936
 51
64.7435346915464152
  0
ARC
  5
89E7
  8
0
 10
97.625533169893373
 20
-8.9292877711731826
 30
0.0
 40
0.5279999999999822
 50
129.4534797916483058
 51
147.3774950568910924
  0
LINE
  5
89E8
  8
0
 10
98.1205331700432879
 20
-7.672287771173198
 30
0.0
 11
98.1205331699433856
 21
-8.1904645644732028
 31
0.0
  0
ARC
  5
89E9
  8
0
 10
97.890533170046254
 20
-8.1904645645626442
 30
0.0
 40
0.229999999897122
 50
292.5403104598752861
 51
0.0000000222809305
  0
ARC
  5
89EA
  8
0
 10
98.0094776174316564
 20
-8.4681340308484572
 30
0.0
 40
0.0721347254302598
 50
115.2564653084534996
 51
227.8303652949701927
  0
ARC
  5
89EB
  8
0
 10
97.625533169993389
 20
-8.9292877711731826
 30
0.0
 40
0.5279999999999822
 50
32.6225049431089573
 51
50.546520208352689
  0
LINE
  5
89EC
  8
0
 10
94.0348729454473045
 20
-10.2233417039731904
 30
0.0
 11
94.0285391625476308
 21
-10.1800751727732006
 31
0.0
  0
LINE
  5
89ED
  8
0
 10
94.1427105106478024
 20
-10.2233417039731904
 30
0.0
 11
94.1490442935474761
 21
-10.1800751727732006
 31
0.0
  0
LINE
  5
89EE
  8
0
 10
94.0426640580472935
 20
-10.2300751727731996
 30
0.0
 11
94.1349193980478134
 21
-10.2300751727731996
 31
0.0
  0
ARC
  5
89EF
  8
0
 10
94.0426639194475769
 20
-10.2222011569732008
 30
0.0
 40
0.0078740157
 50
188.328562595695189
 51
270.001008127313014
  0
ARC
  5
89F0
  8
0
 10
94.1349195366475158
 20
-10.2222011569732008
 30
0.0
 40
0.0078740157
 50
269.998991872686986
 51
351.6714374043045268
  0
LINE
  5
89F1
  8
0
 10
97.8293945398433777
 20
-8.6446421018732025
 30
0.0
 11
97.8293945398433777
 21
-9.1170830467732031
 31
0.0
  0
LINE
  5
89F2
  8
0
 10
97.8293945398433777
 20
-9.1170830467732031
 30
0.0
 11
97.4216718001433861
 21
-9.1170830467732031
 31
0.0
  0
LINE
  5
89F3
  8
0
 10
97.4216718001433861
 20
-9.1170830467732031
 30
0.0
 11
97.4216718001433861
 21
-8.6446421018732025
 31
0.0
  0
LINE
  5
89F4
  8
0
 10
97.4286833919433803
 20
-7.8264299069732024
 30
0.0
 11
97.428683392184368
 21
-8.1904645642758354
 31
0.0
  0
ARC
  5
89F5
  8
0
 10
97.5286069859795788
 20
-8.1904645642096874
 30
0.0
 40
0.0999235937952214
 50
180.0000000379282881
 51
224.8899520486814936
  0
ARC
  5
89F6
  8
0
 10
97.5966944558886667
 20
-8.1226381443054958
 30
0.0
 40
0.196029404210829
 50
224.8899520486804136
 51
255.5065455626694018
  0
ARC
  5
89F7
  8
0
 10
97.6246067973179237
 20
-8.0293303524041946
 30
0.0
 40
0.2933763767389177
 50
254.7893968620772114
 51
270.1809187387577822
  0
ARC
  5
89F8
  8
0
 10
97.4378837523995998
 20
-7.8264917728915711
 30
0.0
 40
0.0092005684561421
 50
151.1689464339081042
 51
179.6147322040966117
  0
ARC
  5
89F9
  8
0
 10
97.4506912039523456
 20
-7.8365098138613973
 30
0.0
 40
0.0253849785585425
 50
107.4100318137209058
 51
145.2899259773680001
  0
ARC
  5
89FA
  8
0
 10
97.6254240799532198
 20
-8.2820576781058897
 30
0.0
 40
0.5039120543410543
 50
89.9875961878747148
 51
111.2123523079922052
  0
LINE
  5
89FB
  8
0
 10
97.8223829463431258
 20
-7.8264299069732024
 30
0.0
 11
97.8223829461021381
 21
-8.1904645642758354
 31
0.0
  0
ARC
  5
89FC
  8
0
 10
97.7224593523069132
 20
-8.1904645642096874
 30
0.0
 40
0.0999235937952214
 50
315.1100479513185064
 51
359.9999999620716267
  0
ARC
  5
89FD
  8
0
 10
97.6543718823978253
 20
-8.1226381443054958
 30
0.0
 40
0.196029404210829
 50
284.4934544373306267
 51
315.1100479513186201
  0
ARC
  5
89FE
  8
0
 10
97.6264595409685683
 20
-8.0293303524041946
 30
0.0
 40
0.2933763767389177
 50
269.819081261241422
 51
285.210603137922817
  0
ARC
  5
89FF
  8
0
 10
97.8131825858869064
 20
-7.8264917728915711
 30
0.0
 40
0.0092005684561421
 50
0.3852677959033659
 51
28.8310535660919705
  0
ARC
  5
8A00
  8
0
 10
97.8003751343341463
 20
-7.8365098138613973
 30
0.0
 40
0.0253849785585425
 50
34.710074022630991
 51
72.58996818627908
  0
ARC
  5
8A01
  8
0
 10
97.6256422558073638
 20
-8.2820576916119837
 30
0.0
 40
0.5039120678459951
 50
68.7876479799096359
 51
90.012403206196737
  0
LINE
  5
8A02
  8
0
 10
93.6294701777433573
 20
-9.7076342278732035
 30
0.0
 11
93.6294701777433573
 21
-10.1501539135876602
 31
0.0
  0
LINE
  5
8A03
  8
0
 10
101.6215961619433017
 20
-9.7076342278732035
 30
0.0
 11
101.6215961619433017
 21
-10.1501539127016898
 31
0.0
  0
ENDSEC
  0
EOF
