  0
SECTION
  2
HEADER
  9
$ACADVER
  1
AC1009
  9
$INSBASE
 10
109.913464077156604
 20
-7.6520578809988136
 30
0.0
  9
$EXTMIN
 10
104.9064284424049021
 20
-10.2464405878801301
 30
-0.0000000000000058
  9
$EXTMAX
 10
114.918725307997093
 20
-7.6460741515767259
 30
0.0000000000000104
  9
$LIMMIN
 10
0.0
 20
0.0
  9
$LIMMAX
 10
11.6929133858000007
 20
8.2677165353999982
  9
$ORTHOMODE
 70
     1
  9
$REGENMODE
 70
     1
  9
$FILLMODE
 70
     1
  9
$QTEXTMODE
 70
     0
  9
$MIRRTEXT
 70
     0
  9
$DRAGMODE
 70
     2
  9
$LTSCALE
 40
0.6431102362
  9
$OSMODE
 70
  4095
  9
$ATTMODE
 70
     1
  9
$TEXTSIZE
 40
0.2
  9
$TRACEWID
 40
0.05
  9
$TEXTSTYLE
  7
STANDARD
  9
$CLAYER
  8
0
  9
$CELTYPE
  6
BYLAYER
  9
$CECOLOR
 62
   256
  9
$DIMSCALE
 40
1.0
  9
$DIMASZ
 40
0.1875
  9
$DIMEXO
 40
0.0625
  9
$DIMDLI
 40
0.4443307087
  9
$DIMRND
 40
0.0
  9
$DIMDLE
 40
0.0
  9
$DIMEXE
 40
0.125
  9
$DIMTP
 40
0.01
  9
$DIMTM
 40
0.01
  9
$DIMTXT
 40
1.0
  9
$DIMCEN
 40
0.1052362205
  9
$DIMTSZ
 40
0.0
  9
$DIMTOL
 70
     1
  9
$DIMLIM
 70
     0
  9
$DIMTIH
 70
     1
  9
$DIMTOH
 70
     1
  9
$DIMSE1
 70
     0
  9
$DIMSE2
 70
     0
  9
$DIMTAD
 70
     0
  9
$DIMZIN
 70
     0
  9
$DIMBLK
  1

  9
$DIMASO
 70
     1
  9
$DIMSHO
 70
     1
  9
$DIMPOST
  1
\X
  9
$DIMAPOST
  1

  9
$DIMALT
 70
     1
  9
$DIMALTD
 70
     2
  9
$DIMALTF
 40
25.3999999999999986
  9
$DIMLFAC
 40
1.0
  9
$DIMTOFL
 70
     0
  9
$DIMTVP
 40
0.0
  9
$DIMTIX
 70
     0
  9
$DIMSOXD
 70
     0
  9
$DIMSAH
 70
     0
  9
$DIMBLK1
  1

  9
$DIMBLK2
  1

  9
$DIMSTYLE
  2
STANDARD
  9
$DIMCLRD
 70
     0
  9
$DIMCLRE
 70
     0
  9
$DIMCLRT
 70
     0
  9
$DIMTFAC
 40
1.0
  9
$DIMGAP
 40
0.09
  9
$LUNITS
 70
     2
  9
$LUPREC
 70
     4
  9
$SKETCHINC
 40
0.1
  9
$FILLETRAD
 40
0.0
  9
$AUNITS
 70
     0
  9
$AUPREC
 70
     0
  9
$MENU
  1
.
  9
$ELEVATION
 40
0.0
  9
$PELEVATION
 40
0.0
  9
$THICKNESS
 40
0.0
  9
$LIMCHECK
 70
     0
  9
$BLIPMODE
 70
     0
  9
$CHAMFERA
 40
0.0
  9
$CHAMFERB
 40
0.0
  9
$SKPOLY
 70
     0
  9
$TDCREATE
 40
2458172.4620254631154239
  9
$TDUPDATE
 40
2459071.4124537040479481
  9
$TDINDWG
 40
0.0896355671
  9
$TDUSRTIMER
 40
0.0896355671
  9
$USRTIMER
 70
     1
  9
$ANGBASE
 50
0.0
  9
$ANGDIR
 70
     0
  9
$PDMODE
 70
     0
  9
$PDSIZE
 40
0.3125
  9
$PLINEWID
 40
0.0
  9
$COORDS
 70
     1
  9
$SPLFRAME
 70
     0
  9
$SPLINETYPE
 70
     6
  9
$SPLINESEGS
 70
     8
  9
$ATTDIA
 70
     1
  9
$ATTREQ
 70
     1
  9
$HANDLING
 70
     1
  9
$HANDSEED
  5
84A6
  9
$SURFTAB1
 70
     6
  9
$SURFTAB2
 70
     6
  9
$SURFTYPE
 70
     6
  9
$SURFU
 70
     6
  9
$SURFV
 70
     6
  9
$UCSNAME
  2

  9
$UCSORG
 10
0.0
 20
0.0
 30
0.0
  9
$UCSXDIR
 10
1.0
 20
0.0
 30
0.0
  9
$UCSYDIR
 10
0.0
 20
1.0
 30
0.0
  9
$PUCSNAME
  2

  9
$PUCSORG
 10
0.0
 20
0.0
 30
0.0
  9
$PUCSXDIR
 10
1.0
 20
0.0
 30
0.0
  9
$PUCSYDIR
 10
0.0
 20
1.0
 30
0.0
  9
$USERI1
 70
     0
  9
$USERI2
 70
     0
  9
$USERI3
 70
     0
  9
$USERI4
 70
     0
  9
$USERI5
 70
     0
  9
$USERR1
 40
0.0
  9
$USERR2
 40
0.0
  9
$USERR3
 40
0.0
  9
$USERR4
 40
0.0
  9
$USERR5
 40
0.0
  9
$WORLDVIEW
 70
     1
  9
$SHADEDGE
 70
     3
  9
$SHADEDIF
 70
    70
  9
$TILEMODE
 70
     1
  9
$MAXACTVP
 70
    64
  9
$PLIMCHECK
 70
     0
  9
$PEXTMIN
 10
1.0000000000000000E+20
 20
1.0000000000000000E+20
 30
1.0000000000000000E+20
  9
$PEXTMAX
 10
-1.0000000000000000E+20
 20
-1.0000000000000000E+20
 30
-1.0000000000000000E+20
  9
$PLIMMIN
 10
0.0
 20
0.0
  9
$PLIMMAX
 10
12.0
 20
9.0
  9
$UNITMODE
 70
     0
  9
$VISRETAIN
 70
     1
  9
$PLINEGEN
 70
     0
  9
$PSLTSCALE
 70
     1
  0
ENDSEC
  0
SECTION
  2
TABLES
  0
TABLE
  2
VPORT
 70
     1
  0
VPORT
  2
*ACTIVE
 70
     0
 10
0.0
 20
0.0
 11
1.0
 21
1.0
 12
-14.6985817248716302
 22
-14.2585315401062491
 13
0.0
 23
0.0
 14
1.0
 24
1.0
 15
0.0
 25
0.0
 16
0.0
 26
0.0
 36
30.6214257250603907
 17
124.6111586000725993
 27
5.3122741703778242
 37
0.0
 40
3.7920836518264549
 41
2.6486111111111108
 42
50.0
 43
0.0
 44
0.0
 50
0.0
 51
0.0
 71
     0
 72
   100
 73
     1
 74
     1
 75
     0
 76
     0
 77
     0
 78
     0
  0
ENDTAB
  0
TABLE
  2
LTYPE
 70
     2
  0
LTYPE
  2
CONTINUOUS
 70
     0
  3
Solid line
 72
    65
 73
     0
 40
0.0
  0
LTYPE
  2
PHANTOM2
 70
     0
  3
___ _ _ ___ _ _ ___ _ _ ___ _ _
 72
    65
 73
     6
 40
1.25
 49
0.625
 49
-0.125
 49
0.125
 49
-0.125
 49
0.125
 49
-0.125
  0
ENDTAB
  0
TABLE
  2
LAYER
 70
     2
  0
LAYER
  2
0
 70
     0
 62
   255
  6
CONTINUOUS
  0
LAYER
  2
DEFPOINTS
 70
     0
 62
     7
  6
CONTINUOUS
  0
ENDTAB
  0
TABLE
  2
STYLE
 70
     1
  0
STYLE
  2
STANDARD
 70
     0
 40
0.0
 41
0.8
 50
0.0
 71
     0
 42
0.2
  3
txt
  4

  0
ENDTAB
  0
TABLE
  2
VIEW
 70
     0
  0
ENDTAB
  0
TABLE
  2
UCS
 70
     0
  0
ENDTAB
  0
TABLE
  2
APPID
 70
     9
  0
APPID
  2
ACAD
 70
     0
  0
APPID
  2
ACAD_MLEADERVER
 70
     0
  0
APPID
  2
ACAD_EXEMPT_FROM_CAD_STANDARDS
 70
     0
  0
APPID
  2
ACAD_DSTYLE_DIMJAG
 70
     0
  0
APPID
  2
ACAD_DSTYLE_DIMTALN
 70
     0
  0
APPID
  2
ACAD_NAV_VCDISPLAY
 70
     0
  0
APPID
  2
ACAECLAYERSTANDARD
 70
     0
  0
APPID
  2
ACCMTRANSPARENCY
 70
     0
  0
APPID
  2
ACDBATTR
 70
     0
  0
ENDTAB
  0
TABLE
  2
DIMSTYLE
 70
     1
  0
DIMSTYLE
  2
STANDARD
 70
     0
  3

  4

  5

  6

  7

 40
1.0
 41
0.1875
 42
0.0625
 43
0.38
 44
0.125
 45
0.0
 46
0.0
 47
0.01
 48
0.01
140
0.15625
141
0.09
142
0.0
143
25.3999999999999986
144
1.0
145
0.0
146
1.0
147
0.09
 71
     1
 72
     0
 73
     1
 74
     1
 75
     0
 76
     0
 77
     0
 78
     4
170
     0
171
     2
172
     0
173
     0
174
     0
175
     0
176
     0
177
     0
178
     0
  0
ENDTAB
  0
ENDSEC
  0
SECTION
  2
BLOCKS
  0
BLOCK
  8
0
  2
$MODEL_SPACE
 70
     0
 10
0.0
 20
0.0
 30
0.0
  3
$MODEL_SPACE
  1

  0
ENDBLK
  5
21
  8
0
  0
BLOCK
 67
     1
  8
0
  2
$PAPER_SPACE
 70
     0
 10
0.0
 20
0.0
 30
0.0
  3
$PAPER_SPACE
  1

  0
ENDBLK
  5
1D
 67
     1
  8
0
  0
BLOCK
  8
0
  2
_FILLED
 70
     0
 10
0.0
 20
0.0
 30
0.0
  3
_FILLED
  1

  0
SOLID
  5
3BD9
  8
0
  6
BYBLOCK
 62
     0
 10
0.0
 20
0.0
 30
0.0
 11
-1.0
 21
0.1666666667
 31
0.0
 12
-1.0
 22
-0.1666666667
 32
0.0
 13
-1.0
 23
-0.1666666667
 33
0.0
  0
ENDBLK
  5
3BDA
  8
0
  6
BYBLOCK
 62
     0
  0
ENDSEC
  0
SECTION
  2
ENTITIES
  0
ATTDEF
  5
383D
  8
DEFPOINTS
 10
109.9136619017590988
 20
-7.6484096800087134
 30
0.0
 40
0.001
  1
K-18359IN
  3

  2
MODELNUMBER
 70
     0
1001
ACDBATTR
1070
     0
1070
     1
  0
ATTDEF
  5
383E
  8
DEFPOINTS
 10
109.9136619017590988
 20
-7.6500763466753776
 30
0.0
 40
0.001
  1
KATALYST
  3

  2
TRADENAME
 70
     0
1001
ACDBATTR
1070
     0
1070
     1
  0
ATTDEF
  5
383F
  8
DEFPOINTS
 10
109.9136619017590988
 20
-7.6517430133420428
 30
0.0
 40
0.001
  1
SHOWERHEAD
  3

  2
PRODUCT
 70
     0
1001
ACDBATTR
1070
     0
1070
     1
  0
LINE
  5
7BF3
  8
0
 10
109.1949601401568941
 20
-9.1326011880988123
 30
0.0
 11
109.1949601401568941
 21
-9.7231523691988144
 31
0.0
  0
LINE
  5
7BF4
  8
0
 10
109.418464077156699
 20
-7.6720578809988096
 30
0.0
 11
109.418464077156699
 21
-7.7779157453546928
 31
0.0
  0
LINE
  5
7BF5
  8
0
 10
109.224487699306593
 20
-8.6444122116988158
 30
0.0
 11
110.6024404552066045
 21
-8.6444122116988122
 31
0.0
  0
LINE
  5
7BF6
  8
0
 10
110.6319680141562998
 20
-9.132601188098814
 30
0.0
 11
110.6319680141562998
 21
-9.7231523691988144
 31
0.0
  0
LINE
  5
7BF7
  8
0
 10
110.3884640771569963
 20
-7.6520578809988136
 30
0.0
 11
109.4384640771561976
 21
-7.6520578809988136
 31
0.0
  0
ARC
  5
7BF8
  8
0
 10
109.4384640771561976
 20
-7.6720578809988096
 30
0.0
 40
0.02
 50
90.0
 51
180.0
  0
ARC
  5
7BF9
  8
0
 10
110.3884640771569963
 20
-7.6720578809988096
 30
0.0
 40
0.02
 50
0.0
 51
90.0
  0
LINE
  5
7BFA
  8
0
 10
109.1949601401066019
 20
-9.1326011880988123
 30
0.0
 11
109.2244876992066054
 21
-9.132601188098814
 31
0.0
  0
LINE
  5
7BFB
  8
0
 10
110.6024404551066027
 20
-9.132601188098814
 30
0.0
 11
110.6319680141562998
 21
-9.1326011880988123
 31
0.0
  0
LINE
  5
7BFC
  8
0
 10
109.2244876992066054
 20
-9.1326011880988123
 30
0.0
 11
109.224487699306593
 21
-8.6444122116988122
 31
0.0
  0
LINE
  5
7BFD
  8
0
 10
110.6024404551066027
 20
-9.1326011880988123
 30
0.0
 11
110.6024404552066045
 21
-8.6444122116988122
 31
0.0
  0
ARC
  5
7BFE
  8
0
 10
109.4284814471293998
 20
-7.7779085504467922
 30
0.0
 40
0.0100173725565584
 50
180.0411522997532074
 51
224.9588483723609045
  0
LINE
  5
7BFF
  8
0
 10
109.4213930094066001
 20
-7.784986813198814
 30
0.0
 11
109.4555106159975963
 21
-7.8191534636954181
 31
0.0
  0
ARC
  5
7C00
  8
0
 10
109.4483618072860054
 20
-7.8262920107777294
 30
0.0
 40
0.0101026887728329
 50
0.5217363114581591
 51
44.9588483723632422
  0
LINE
  5
7C01
  8
0
 10
109.4584640772065995
 20
-7.8262000167988131
 30
0.0
 11
109.4584640772065995
 21
-8.3167055821107603
 31
0.0
  0
ARC
  5
7C02
  8
0
 10
109.4688173579676942
 20
-8.3166347600592587
 30
0.0
 40
0.0103535229888438
 50
180.3919280709719999
 51
217.9744903697470022
  0
ARC
  5
7C03
  8
0
 10
109.6484640772065973
 20
-8.1902346742988232
 30
0.0
 40
0.2299999999999895
 50
215.258335524791903
 51
247.4596895365006048
  0
ARC
  5
7C04
  8
0
 10
109.5295196297684015
 20
-8.4679041406740705
 30
0.0
 40
0.0721347254302598
 50
312.1696347050296936
 51
64.7435346915464436
  0
ARC
  5
7C05
  8
0
 10
109.9134640772065978
 20
-8.9290578809987942
 30
0.0
 40
0.5279999999999822
 50
129.4534797916481921
 51
147.3774950568910924
  0
LINE
  5
7C06
  8
0
 10
110.4084640773564985
 20
-7.6720578809988096
 30
0.0
 11
110.4084640773564985
 21
-7.7779157453546928
 31
0.0
  0
ARC
  5
7C07
  8
0
 10
110.3984467073837976
 20
-7.7779085504467922
 30
0.0
 40
0.0100173725565584
 50
315.0411516276391808
 51
359.9588477002466789
  0
LINE
  5
7C08
  8
0
 10
110.4055351451065974
 20
-7.784986813198814
 30
0.0
 11
110.3714175385157006
 21
-7.8191534636954181
 31
0.0
  0
ARC
  5
7C09
  8
0
 10
110.3785663472272063
 20
-7.8262920107777294
 30
0.0
 40
0.0101026887728329
 50
135.0411516276367081
 51
179.4782636885418015
  0
LINE
  5
7C0A
  8
0
 10
110.3684640773065979
 20
-7.8262000167988131
 30
0.0
 11
110.3684640773065979
 21
-8.3167055821107603
 31
0.0
  0
ARC
  5
7C0B
  8
0
 10
110.3581107965456027
 20
-8.3166347600592587
 30
0.0
 40
0.0103535229888438
 50
322.0255096302528841
 51
359.6080719290279148
  0
ARC
  5
7C0C
  8
0
 10
110.1784640773066002
 20
-8.1902346742988232
 30
0.0
 40
0.2299999999999895
 50
292.5403104634993952
 51
324.741664475208097
  0
ARC
  5
7C0D
  8
0
 10
110.2974085247448954
 20
-8.4679041406740705
 30
0.0
 40
0.0721347254302598
 50
115.2564653084534996
 51
227.8303652949701927
  0
ARC
  5
7C0E
  8
0
 10
109.9134640773065996
 20
-8.9290578809987942
 30
0.0
 40
0.5279999999999822
 50
32.6225049431088721
 51
50.5465202083518719
  0
LINE
  5
7D6E
  8
0
 10
106.608911753921106
 20
-10.2388598452987996
 30
0.0
 11
106.6025779710215033
 21
-10.1955933140988098
 31
0.0
  0
LINE
  5
7D6F
  8
0
 10
106.7167493191216039
 20
-10.2388598452987996
 30
0.0
 11
106.723083102021306
 21
-10.1955933140988098
 31
0.0
  0
LINE
  5
7D70
  8
0
 10
106.616702866521095
 20
-10.2455933140988105
 30
0.0
 11
106.7089582065217002
 21
-10.2455933140988105
 31
0.0
  0
LINE
  5
7D71
  8
0
 10
114.8835428174562026
 20
-10.1955933140988098
 30
0.0
 11
104.9433853370561991
 21
-10.1955933140988098
 31
0.0
  0
LINE
  5
7D72
  8
0
 10
114.9134640773565934
 20
-9.7231523691988144
 30
0.0
 11
104.9134640773565934
 21
-9.7231523691988144
 31
0.0
  0
ARC
  5
7D73
  8
0
 10
104.9456728621644999
 20
-10.1633845291439506
 30
0.0
 40
0.0322899147249966
 50
184.0624279475655953
 51
265.9375732281745854
  0
ARC
  5
7D74
  8
0
 10
114.8835428173851056
 20
-10.1656720540273007
 30
0.0
 40
0.0299212599715069
 50
270.000000136040228
 51
359.999999671584078
  0
ARC
  5
7D75
  8
0
 10
106.6167027279214068
 20
-10.2377192982988099
 30
0.0
 40
0.0078740157
 50
188.3285625956953027
 51
270.001008127313014
  0
ARC
  5
7D76
  8
0
 10
106.7089583451214025
 20
-10.2377192982988099
 30
0.0
 40
0.0078740157
 50
269.998991872686986
 51
351.6714374043044131
  0
LINE
  5
7D77
  8
0
 10
106.7384682624155943
 20
-10.2388598452987996
 30
0.0
 11
106.7321344795160059
 21
-10.1955933140988098
 31
0.0
  0
LINE
  5
7D78
  8
0
 10
106.8463058276161064
 20
-10.2388598452987996
 30
0.0
 11
106.8526396105157943
 21
-10.1955933140988098
 31
0.0
  0
LINE
  5
7D79
  8
0
 10
106.7462593750155975
 20
-10.2455933140988105
 30
0.0
 11
106.8385147150161032
 21
-10.2455933140988105
 31
0.0
  0
ARC
  5
7D7A
  8
0
 10
106.7462592364158951
 20
-10.2377192982988099
 30
0.0
 40
0.0078740157
 50
188.3285625956953027
 51
270.001008127313014
  0
ARC
  5
7D7B
  8
0
 10
106.8385148536159051
 20
-10.2377192982988099
 30
0.0
 40
0.0078740157
 50
269.998991872686986
 51
351.6714374043044131
  0
LINE
  5
7D7C
  8
0
 10
107.0441341715065988
 20
-10.2388598452987996
 30
0.0
 11
107.0378003886068967
 21
-10.1955933140988098
 31
0.0
  0
LINE
  5
7D7D
  8
0
 10
107.1519717367070967
 20
-10.2388598452987996
 30
0.0
 11
107.1583055196067988
 21
-10.1955933140988098
 31
0.0
  0
LINE
  5
7D7E
  8
0
 10
107.051925284106602
 20
-10.2455933140988105
 30
0.0
 11
107.1441806241070935
 21
-10.2455933140988105
 31
0.0
  0
ARC
  5
7D7F
  8
0
 10
107.0519251455068996
 20
-10.2377192982988099
 30
0.0
 40
0.0078740157
 50
188.3285625956953027
 51
270.001008127313014
  0
ARC
  5
7D80
  8
0
 10
107.1441807627067959
 20
-10.2377192982988099
 30
0.0
 40
0.0078740157
 50
269.998991872686986
 51
351.6714374043044131
  0
LINE
  5
7D81
  8
0
 10
107.2608485837091052
 20
-10.2388598452987996
 30
0.0
 11
107.2545148008094031
 21
-10.1955933140988098
 31
0.0
  0
LINE
  5
7D82
  8
0
 10
107.3686861489095037
 20
-10.2388598452987996
 30
0.0
 11
107.3750199318092058
 21
-10.1955933140988098
 31
0.0
  0
LINE
  5
7D83
  8
0
 10
107.2686396963089948
 20
-10.2455933140988105
 30
0.0
 11
107.3608950363096
 21
-10.2455933140988105
 31
0.0
  0
ARC
  5
7D84
  8
0
 10
107.2686395577093066
 20
-10.2377192982988099
 30
0.0
 40
0.0078740157
 50
188.3285625956953027
 51
270.001008127313014
  0
ARC
  5
7D85
  8
0
 10
107.3608951749093023
 20
-10.2377192982988099
 30
0.0
 40
0.0078740157
 50
269.998991872686986
 51
351.6714374043044131
  0
LINE
  5
7D86
  8
0
 10
107.4567248089436049
 20
-10.2388598452987996
 30
0.0
 11
107.4630585918431933
 21
-10.1955933140988098
 31
0.0
  0
LINE
  5
7D87
  8
0
 10
107.3608950363096
 20
-10.2455933140988105
 30
0.0
 11
107.4489336963436017
 21
-10.2455933140988105
 31
0.0
  0
ARC
  5
7D88
  8
0
 10
107.4489338349433041
 20
-10.2377192982988099
 30
0.0
 40
0.0078740157
 50
269.998991872686986
 51
351.6714374043044131
  0
LINE
  5
7D89
  8
0
 10
107.5800710091246941
 20
-10.2388598452987996
 30
0.0
 11
107.5737372262250062
 21
-10.1955933140988098
 31
0.0
  0
LINE
  5
7D8A
  8
0
 10
107.6879085743252062
 20
-10.2388598452987996
 30
0.0
 11
107.6942423572248941
 21
-10.1955933140988098
 31
0.0
  0
LINE
  5
7D8B
  8
0
 10
107.5878621217246973
 20
-10.2455933140988105
 30
0.0
 11
107.680117461725203
 21
-10.2455933140988105
 31
0.0
  0
ARC
  5
7D8C
  8
0
 10
107.5878619831248955
 20
-10.2377192982988099
 30
0.0
 40
0.0078740157
 50
188.3285625956953027
 51
270.001008127313014
  0
ARC
  5
7D8D
  8
0
 10
107.6801176003249054
 20
-10.2377192982988099
 30
0.0
 40
0.0078740157
 50
269.998991872686986
 51
351.6714374043044131
  0
LINE
  5
7D8E
  8
0
 10
107.9029337748562938
 20
-10.2388598452987996
 30
0.0
 11
107.8965999919566059
 21
-10.1955933140988098
 31
0.0
  0
LINE
  5
7D8F
  8
0
 10
108.0107713400568059
 20
-10.2388598452987996
 30
0.0
 11
108.0171051229563943
 21
-10.1955933140988098
 31
0.0
  0
LINE
  5
7D90
  8
0
 10
107.9107248874561975
 20
-10.2455933140988105
 30
0.0
 11
108.0029802274568027
 21
-10.2455933140988105
 31
0.0
  0
ARC
  5
7D91
  8
0
 10
107.9107247488564951
 20
-10.2377192982988099
 30
0.0
 40
0.0078740157
 50
188.3285625956953027
 51
270.001008127313014
  0
ARC
  5
7D92
  8
0
 10
108.0029803660565051
 20
-10.2377192982988099
 30
0.0
 40
0.0078740157
 50
269.998991872686986
 51
351.6714374043044131
  0
LINE
  5
7D93
  8
0
 10
108.0300312779190932
 20
-10.2388598452987996
 30
0.0
 11
108.0236974950194053
 21
-10.1955933140988098
 31
0.0
  0
LINE
  5
7D94
  8
0
 10
108.1378688431196053
 20
-10.2388598452987996
 30
0.0
 11
108.1442026260192932
 21
-10.1955933140988098
 31
0.0
  0
LINE
  5
7D95
  8
0
 10
108.0378223905190964
 20
-10.2455933140988105
 30
0.0
 11
108.1300777305196021
 21
-10.2455933140988105
 31
0.0
  0
ARC
  5
7D96
  8
0
 10
108.037822251919394
 20
-10.2377192982988099
 30
0.0
 40
0.0078740157
 50
188.3285625956953027
 51
270.001008127313014
  0
ARC
  5
7D97
  8
0
 10
108.1300778691193045
 20
-10.2377192982988099
 30
0.0
 40
0.0078740157
 50
269.998991872686986
 51
351.6714374043044131
  0
LINE
  5
7D98
  8
0
 10
108.1696510060175029
 20
-10.2388598452987996
 30
0.0
 11
108.1633172231178008
 21
-10.1955933140988098
 31
0.0
  0
LINE
  5
7D99
  8
0
 10
108.2774885712180009
 20
-10.2388598452987996
 30
0.0
 11
108.283822354117703
 21
-10.1955933140988098
 31
0.0
  0
LINE
  5
7D9A
  8
0
 10
108.1774421186175061
 20
-10.2455933140988105
 30
0.0
 11
108.2696974586179977
 21
-10.2455933140988105
 31
0.0
  0
ARC
  5
7D9B
  8
0
 10
108.1774419800178038
 20
-10.2377192982988099
 30
0.0
 40
0.0078740157
 50
188.3285625956953027
 51
270.001008127313014
  0
ARC
  5
7D9C
  8
0
 10
108.2696975972177
 20
-10.2377192982988099
 30
0.0
 40
0.0078740157
 50
269.998991872686986
 51
351.6714374043044131
  0
LINE
  5
7D9D
  8
0
 10
108.3426445007772969
 20
-10.2388598452987996
 30
0.0
 11
108.3489782836768995
 21
-10.1955933140988098
 31
0.0
  0
LINE
  5
7D9E
  8
0
 10
108.2696974586179977
 20
-10.2455933140988105
 30
0.0
 11
108.3348533881772937
 21
-10.2455933140988105
 31
0.0
  0
ARC
  5
7D9F
  8
0
 10
108.3348535267769961
 20
-10.2377192982988099
 30
0.0
 40
0.0078740157
 50
269.998991872686986
 51
351.6714374043044131
  0
LINE
  5
7DA0
  8
0
 10
108.5601579649345041
 20
-10.2388598452987996
 30
0.0
 11
108.553824182034802
 21
-10.1955933140988098
 31
0.0
  0
LINE
  5
7DA1
  8
0
 10
108.667995530135002
 20
-10.2388598452987996
 30
0.0
 11
108.6743293130347041
 21
-10.1955933140988098
 31
0.0
  0
LINE
  5
7DA2
  8
0
 10
108.5679490775344931
 20
-10.2455933140988105
 30
0.0
 11
108.6602044175349988
 21
-10.2455933140988105
 31
0.0
  0
ARC
  5
7DA3
  8
0
 10
108.5679489389348049
 20
-10.2377192982988099
 30
0.0
 40
0.0078740157
 50
188.3285625956953027
 51
270.001008127313014
  0
ARC
  5
7DA4
  8
0
 10
108.6602045561347012
 20
-10.2377192982988099
 30
0.0
 40
0.0078740157
 50
269.998991872686986
 51
351.6714374043044131
  0
LINE
  5
7DA5
  8
0
 10
108.7357184215913009
 20
-10.2388598452987996
 30
0.0
 11
108.7293846386916982
 21
-10.1955933140988098
 31
0.0
  0
LINE
  5
7DA6
  8
0
 10
108.8435559867917988
 20
-10.2388598452987996
 30
0.0
 11
108.8498897696915009
 21
-10.1955933140988098
 31
0.0
  0
LINE
  5
7DA7
  8
0
 10
108.7435095341913041
 20
-10.2455933140988105
 30
0.0
 11
108.835764874191895
 21
-10.2455933140988105
 31
0.0
  0
ARC
  5
7DA8
  8
0
 10
108.7435093955916017
 20
-10.2377192982988099
 30
0.0
 40
0.0078740157
 50
188.3285625956953027
 51
270.001008127313014
  0
ARC
  5
7DA9
  8
0
 10
108.8357650127915974
 20
-10.2377192982988099
 30
0.0
 40
0.0078740157
 50
269.998991872686986
 51
351.6714374043044131
  0
LINE
  5
7DAA
  8
0
 10
108.8851821680290044
 20
-10.2388598452987996
 30
0.0
 11
108.8788483851293023
 21
-10.1955933140988098
 31
0.0
  0
LINE
  5
7DAB
  8
0
 10
108.9930197332295023
 20
-10.2388598452987996
 30
0.0
 11
108.9993535161291049
 21
-10.1955933140988098
 31
0.0
  0
LINE
  5
7DAC
  8
0
 10
108.8929732806289934
 20
-10.2455933140988105
 30
0.0
 11
108.9852286206294991
 21
-10.2455933140988105
 31
0.0
  0
ARC
  5
7DAD
  8
0
 10
108.8929731420292057
 20
-10.2377192982988099
 30
0.0
 40
0.0078740157
 50
188.3285625956953027
 51
270.001008127313014
  0
ARC
  5
7DAE
  8
0
 10
108.9852287592292015
 20
-10.2377192982988099
 30
0.0
 40
0.0078740157
 50
269.998991872686986
 51
351.6714374043044131
  0
LINE
  5
7DAF
  8
0
 10
109.0172479194982031
 20
-10.2388598452987996
 30
0.0
 11
109.010914136598501
 21
-10.1955933140988098
 31
0.0
  0
LINE
  5
7DB0
  8
0
 10
109.1250854846987011
 20
-10.2388598452987996
 30
0.0
 11
109.1314192675983037
 21
-10.1955933140988098
 31
0.0
  0
LINE
  5
7DB1
  8
0
 10
109.0250390320982063
 20
-10.2455933140988105
 30
0.0
 11
109.1172943720986979
 21
-10.2455933140988105
 31
0.0
  0
ARC
  5
7DB2
  8
0
 10
109.025038893498504
 20
-10.2377192982988099
 30
0.0
 40
0.0078740157
 50
188.3285625956953027
 51
270.001008127313014
  0
ARC
  5
7DB3
  8
0
 10
109.1172945106984002
 20
-10.2377192982988099
 30
0.0
 40
0.0078740157
 50
269.998991872686986
 51
351.6714374043044131
  0
LINE
  5
7DB4
  8
0
 10
109.1886956712254033
 20
-10.2388598452987996
 30
0.0
 11
109.1823618883258007
 21
-10.1955933140988098
 31
0.0
  0
LINE
  5
7DB5
  8
0
 10
109.2965332364260007
 20
-10.2388598452987996
 30
0.0
 11
109.3028670193256033
 21
-10.1955933140988098
 31
0.0
  0
LINE
  5
7DB6
  8
0
 10
109.1964867838254065
 20
-10.2455933140988105
 30
0.0
 11
109.288742123825898
 21
-10.2455933140988105
 31
0.0
  0
ARC
  5
7DB7
  8
0
 10
109.1964866452257041
 20
-10.2377192982988099
 30
0.0
 40
0.0078740157
 50
188.3285625956953027
 51
270.001008127313014
  0
ARC
  5
7DB8
  8
0
 10
109.2887422624256999
 20
-10.2377192982988099
 30
0.0
 40
0.0078740157
 50
269.998991872686986
 51
351.6714374043044131
  0
LINE
  5
7DB9
  8
0
 10
109.534476634760793
 20
-10.2388598452987996
 30
0.0
 11
109.5281428518612046
 21
-10.1955933140988098
 31
0.0
  0
LINE
  5
7DBA
  8
0
 10
109.6423141999613051
 20
-10.2388598452987996
 30
0.0
 11
109.648647982860993
 21
-10.1955933140988098
 31
0.0
  0
LINE
  5
7DBB
  8
0
 10
109.5422677473607962
 20
-10.2455933140988105
 30
0.0
 11
109.6345230873613019
 21
-10.2455933140988105
 31
0.0
  0
ARC
  5
7DBC
  8
0
 10
109.5422676087610938
 20
-10.2377192982988099
 30
0.0
 40
0.0078740157
 50
188.3285625956953027
 51
270.001008127313014
  0
ARC
  5
7DBD
  8
0
 10
109.6345232259611038
 20
-10.2377192982988099
 30
0.0
 40
0.0078740157
 50
269.998991872686986
 51
351.6714374043044131
  0
LINE
  5
7DBE
  8
0
 10
109.8585444429812981
 20
-10.2388598452987996
 30
0.0
 11
109.852210660081596
 21
-10.1955933140988098
 31
0.0
  0
LINE
  5
7DBF
  8
0
 10
109.966382008181796
 20
-10.2388598452987996
 30
0.0
 11
109.9727157910813986
 21
-10.1955933140988098
 31
0.0
  0
LINE
  5
7DC0
  8
0
 10
109.8663355555813013
 20
-10.2455933140988105
 30
0.0
 11
109.958590895581807
 21
-10.2455933140988105
 31
0.0
  0
ARC
  5
7DC1
  8
0
 10
109.8663354169814994
 20
-10.2377192982988099
 30
0.0
 40
0.0078740157
 50
188.3285625956953027
 51
270.001008127313014
  0
ARC
  5
7DC2
  8
0
 10
109.9585910341814952
 20
-10.2377192982988099
 30
0.0
 40
0.0078740157
 50
269.998991872686986
 51
351.6714374043044131
  0
LINE
  5
7DC3
  8
0
 10
110.1863907917998944
 20
-10.2388598452987996
 30
0.0
 11
110.1800570089002065
 21
-10.1955933140988098
 31
0.0
  0
LINE
  5
7DC4
  8
0
 10
110.2942283570004065
 20
-10.2388598452987996
 30
0.0
 11
110.3005621399000944
 21
-10.1955933140988098
 31
0.0
  0
LINE
  5
7DC5
  8
0
 10
110.1941819043998976
 20
-10.2455933140988105
 30
0.0
 11
110.2864372444004033
 21
-10.2455933140988105
 31
0.0
  0
ARC
  5
7DC6
  8
0
 10
110.1941817658001952
 20
-10.2377192982988099
 30
0.0
 40
0.0078740157
 50
188.3285625956953027
 51
270.001008127313014
  0
ARC
  5
7DC7
  8
0
 10
110.2864373830001057
 20
-10.2377192982988099
 30
0.0
 40
0.0078740157
 50
269.998991872686986
 51
351.6714374043044131
  0
LINE
  5
7DC8
  8
0
 10
110.5322673383760019
 20
-10.2388598452987996
 30
0.0
 11
110.5259335554763993
 21
-10.1955933140988098
 31
0.0
  0
LINE
  5
7DC9
  8
0
 10
110.6401049035764999
 20
-10.2388598452987996
 30
0.0
 11
110.646438686476202
 21
-10.1955933140988098
 31
0.0
  0
LINE
  5
7DCA
  8
0
 10
110.5400584509760051
 20
-10.2455933140988105
 30
0.0
 11
110.6323137909764966
 21
-10.2455933140988105
 31
0.0
  0
ARC
  5
7DCB
  8
0
 10
110.5400583123763028
 20
-10.2377192982988099
 30
0.0
 40
0.0078740157
 50
188.3285625956953027
 51
270.001008127313014
  0
ARC
  5
7DCC
  8
0
 10
110.6323139295762985
 20
-10.2377192982988099
 30
0.0
 40
0.0078740157
 50
269.998991872686986
 51
351.6714374043044131
  0
LINE
  5
7DCD
  8
0
 10
110.7019426644268947
 20
-10.2388598452987996
 30
0.0
 11
110.6956088815272068
 21
-10.1955933140988098
 31
0.0
  0
LINE
  5
7DCE
  8
0
 10
110.8097802296272931
 20
-10.2388598452987996
 30
0.0
 11
110.8161140125269952
 21
-10.1955933140988098
 31
0.0
  0
LINE
  5
7DCF
  8
0
 10
110.7097337770267984
 20
-10.2455933140988105
 30
0.0
 11
110.8019891170274036
 21
-10.2455933140988105
 31
0.0
  0
ARC
  5
7DD0
  8
0
 10
110.709733638427096
 20
-10.2377192982988099
 30
0.0
 40
0.0078740157
 50
188.3285625956953027
 51
270.001008127313014
  0
ARC
  5
7DD1
  8
0
 10
110.801989255627106
 20
-10.2377192982988099
 30
0.0
 40
0.0078740157
 50
269.998991872686986
 51
351.6714374043044131
  0
LINE
  5
7DD2
  8
0
 10
110.8363777651881037
 20
-10.2388598452987996
 30
0.0
 11
110.8300439822884016
 21
-10.1955933140988098
 31
0.0
  0
LINE
  5
7DD3
  8
0
 10
110.9442153303886016
 20
-10.2388598452987996
 30
0.0
 11
110.9505491132882042
 21
-10.1955933140988098
 31
0.0
  0
LINE
  5
7DD4
  8
0
 10
110.8441688777881069
 20
-10.2455933140988105
 30
0.0
 11
110.9364242177885984
 21
-10.2455933140988105
 31
0.0
  0
ARC
  5
7DD5
  8
0
 10
110.8441687391884045
 20
-10.2377192982988099
 30
0.0
 40
0.0078740157
 50
188.3285625956953027
 51
270.001008127313014
  0
ARC
  5
7DD6
  8
0
 10
110.9364243563883008
 20
-10.2377192982988099
 30
0.0
 40
0.0078740157
 50
269.998991872686986
 51
351.6714374043044131
  0
LINE
  5
7DD7
  8
0
 10
110.9851698902401012
 20
-10.2388598452987996
 30
0.0
 11
110.9788361073403991
 21
-10.1955933140988098
 31
0.0
  0
LINE
  5
7DD8
  8
0
 10
111.0930074554405991
 20
-10.2388598452987996
 30
0.0
 11
111.0993412383403012
 21
-10.1955933140988098
 31
0.0
  0
LINE
  5
7DD9
  8
0
 10
110.9929610028401044
 20
-10.2455933140988105
 30
0.0
 11
111.0852163428405959
 21
-10.2455933140988105
 31
0.0
  0
ARC
  5
7DDA
  8
0
 10
110.992960864240402
 20
-10.2377192982988099
 30
0.0
 40
0.0078740157
 50
188.3285625956953027
 51
270.001008127313014
  0
ARC
  5
7DDB
  8
0
 10
111.0852164814402983
 20
-10.2377192982988099
 30
0.0
 40
0.0078740157
 50
269.998991872686986
 51
351.6714374043044131
  0
LINE
  5
7DDC
  8
0
 10
111.1587608282379023
 20
-10.2388598452987996
 30
0.0
 11
111.1524270453382002
 21
-10.1955933140988098
 31
0.0
  0
LINE
  5
7DDD
  8
0
 10
111.2665983934384002
 20
-10.2388598452987996
 30
0.0
 11
111.2729321763381023
 21
-10.1955933140988098
 31
0.0
  0
LINE
  5
7DDE
  8
0
 10
111.1665519408379055
 20
-10.2455933140988105
 30
0.0
 11
111.258807280838397
 21
-10.2455933140988105
 31
0.0
  0
ARC
  5
7DDF
  8
0
 10
111.1665518022382031
 20
-10.2377192982988099
 30
0.0
 40
0.0078740157
 50
188.3285625956953027
 51
270.001008127313014
  0
ARC
  5
7DE0
  8
0
 10
111.2588074194380994
 20
-10.2377192982988099
 30
0.0
 40
0.0078740157
 50
269.998991872686986
 51
351.6714374043044131
  0
LINE
  5
7DE1
  8
0
 10
111.4867753881558059
 20
-10.2388598452987996
 30
0.0
 11
111.4804416052561038
 21
-10.1955933140988098
 31
0.0
  0
LINE
  5
7DE2
  8
0
 10
111.5946129533563038
 20
-10.2388598452987996
 30
0.0
 11
111.6009467362559064
 21
-10.1955933140988098
 31
0.0
  0
LINE
  5
7DE3
  8
0
 10
111.4945665007556954
 20
-10.2455933140988105
 30
0.0
 11
111.5868218407563006
 21
-10.2455933140988105
 31
0.0
  0
ARC
  5
7DE4
  8
0
 10
111.494566362155993
 20
-10.2377192982988099
 30
0.0
 40
0.0078740157
 50
188.3285625956953027
 51
270.001008127313014
  0
ARC
  5
7DE5
  8
0
 10
111.586821979356003
 20
-10.2377192982988099
 30
0.0
 40
0.0078740157
 50
269.998991872686986
 51
351.6714374043044131
  0
LINE
  5
7DE6
  8
0
 10
111.6574399870758043
 20
-10.2388598452987996
 30
0.0
 11
111.6637737699754069
 21
-10.1955933140988098
 31
0.0
  0
LINE
  5
7DE7
  8
0
 10
111.5868218407563006
 20
-10.2455933140988105
 30
0.0
 11
111.6496488744758011
 21
-10.2455933140988105
 31
0.0
  0
ARC
  5
7DE8
  8
0
 10
111.6496490130755035
 20
-10.2377192982988099
 30
0.0
 40
0.0078740157
 50
269.998991872686986
 51
351.6714374043044131
  0
LINE
  5
7DE9
  8
0
 10
111.6959233113822023
 20
-10.2388598452987996
 30
0.0
 11
111.6895895284825002
 21
-10.1955933140988098
 31
0.0
  0
LINE
  5
7DEA
  8
0
 10
111.8037608765827002
 20
-10.2388598452987996
 30
0.0
 11
111.8100946594823029
 21
-10.1955933140988098
 31
0.0
  0
LINE
  5
7DEB
  8
0
 10
111.703714423982106
 20
-10.2455933140988105
 30
0.0
 11
111.795969763982697
 21
-10.2455933140988105
 31
0.0
  0
ARC
  5
7DEC
  8
0
 10
111.7037142853824037
 20
-10.2377192982988099
 30
0.0
 40
0.0078740157
 50
188.3285625956953027
 51
270.001008127313014
  0
ARC
  5
7DED
  8
0
 10
111.7959699025823994
 20
-10.2377192982988099
 30
0.0
 40
0.0078740157
 50
269.998991872686986
 51
351.6714374043044131
  0
LINE
  5
7DEE
  8
0
 10
111.8273641040526059
 20
-10.2388598452987996
 30
0.0
 11
111.8210303211529038
 21
-10.1955933140988098
 31
0.0
  0
LINE
  5
7DEF
  8
0
 10
111.9352016692531038
 20
-10.2388598452987996
 30
0.0
 11
111.9415354521527064
 21
-10.1955933140988098
 31
0.0
  0
LINE
  5
7DF0
  8
0
 10
111.8351552166525948
 20
-10.2455933140988105
 30
0.0
 11
111.9274105566531006
 21
-10.2455933140988105
 31
0.0
  0
ARC
  5
7DF1
  8
0
 10
111.8351550780529067
 20
-10.2377192982988099
 30
0.0
 40
0.0078740157
 50
188.3285625956953027
 51
270.001008127313014
  0
ARC
  5
7DF2
  8
0
 10
111.927410695252803
 20
-10.2377192982988099
 30
0.0
 40
0.0078740157
 50
269.998991872686986
 51
351.6714374043044131
  0
LINE
  5
7DF3
  8
0
 10
112.1640240371110053
 20
-10.2388598452987996
 30
0.0
 11
112.1576902542113032
 21
-10.1955933140988098
 31
0.0
  0
LINE
  5
7DF4
  8
0
 10
112.2718616023115032
 20
-10.2388598452987996
 30
0.0
 11
112.2781953852111059
 21
-10.1955933140988098
 31
0.0
  0
LINE
  5
7DF5
  8
0
 10
112.1718151497108948
 20
-10.2455933140988105
 30
0.0
 11
112.2640704897115
 21
-10.2455933140988105
 31
0.0
  0
ARC
  5
7DF6
  8
0
 10
112.1718150111112067
 20
-10.2377192982988099
 30
0.0
 40
0.0078740157
 50
188.3285625956953027
 51
270.001008127313014
  0
ARC
  5
7DF7
  8
0
 10
112.2640706283112024
 20
-10.2377192982988099
 30
0.0
 40
0.0078740157
 50
269.998991872686986
 51
351.6714374043044131
  0
LINE
  5
7DF8
  8
0
 10
112.3690385582926012
 20
-10.2388598452987996
 30
0.0
 11
112.3627047753928991
 21
-10.1955933140988098
 31
0.0
  0
LINE
  5
7DF9
  8
0
 10
112.4768761234930992
 20
-10.2388598452987996
 30
0.0
 11
112.4832099063928013
 21
-10.1955933140988098
 31
0.0
  0
LINE
  5
7DFA
  8
0
 10
112.3768296708926044
 20
-10.2455933140988105
 30
0.0
 11
112.469085010893096
 21
-10.2455933140988105
 31
0.0
  0
ARC
  5
7DFB
  8
0
 10
112.3768295322929021
 20
-10.2377192982988099
 30
0.0
 40
0.0078740157
 50
188.3285625956953027
 51
270.001008127313014
  0
ARC
  5
7DFC
  8
0
 10
112.4690851494927983
 20
-10.2377192982988099
 30
0.0
 40
0.0078740157
 50
269.998991872686986
 51
351.6714374043044131
  0
LINE
  5
7DFD
  8
0
 10
112.6722373712615024
 20
-10.2388598452987996
 30
0.0
 11
112.6659035883618003
 21
-10.1955933140988098
 31
0.0
  0
LINE
  5
7DFE
  8
0
 10
112.7800749364620003
 20
-10.2388598452987996
 30
0.0
 11
112.7864087193616029
 21
-10.1955933140988098
 31
0.0
  0
LINE
  5
7DFF
  8
0
 10
112.6800284838615056
 20
-10.2455933140988105
 30
0.0
 11
112.7722838238619971
 21
-10.2455933140988105
 31
0.0
  0
ARC
  5
7E00
  8
0
 10
112.6800283452618032
 20
-10.2377192982988099
 30
0.0
 40
0.0078740157
 50
188.3285625956953027
 51
270.001008127313014
  0
ARC
  5
7E01
  8
0
 10
112.7722839624616995
 20
-10.2377192982988099
 30
0.0
 40
0.0078740157
 50
269.998991872686986
 51
351.6714374043044131
  0
LINE
  5
7E02
  8
0
 10
112.9817902926495066
 20
-10.2388598452987996
 30
0.0
 11
112.9754565097498045
 21
-10.1955933140988098
 31
0.0
  0
LINE
  5
7E03
  8
0
 10
113.0896278578500045
 20
-10.2388598452987996
 30
0.0
 11
113.0959616407495929
 21
-10.1955933140988098
 31
0.0
  0
LINE
  5
7E04
  8
0
 10
112.9895814052494956
 20
-10.2455933140988105
 30
0.0
 11
113.0818367452500013
 21
-10.2455933140988105
 31
0.0
  0
ARC
  5
7E05
  8
0
 10
112.9895812666496937
 20
-10.2377192982988099
 30
0.0
 40
0.0078740157
 50
188.3285625956953027
 51
270.001008127313014
  0
ARC
  5
7E06
  8
0
 10
113.0818368838497037
 20
-10.2377192982988099
 30
0.0
 40
0.0078740157
 50
269.998991872686986
 51
351.6714374043044131
  0
LINE
  5
7E07
  8
0
 10
113.1186312448875952
 20
-10.2388598452987996
 30
0.0
 11
113.1122974619878931
 21
-10.1955933140988098
 31
0.0
  0
LINE
  5
7E08
  8
0
 10
113.2264688100880932
 20
-10.2388598452987996
 30
0.0
 11
113.2328025929877953
 21
-10.1955933140988098
 31
0.0
  0
LINE
  5
7E09
  8
0
 10
113.1264223574875984
 20
-10.2455933140988105
 30
0.0
 11
113.2186776974881042
 21
-10.2455933140988105
 31
0.0
  0
ARC
  5
7E0A
  8
0
 10
113.1264222188878961
 20
-10.2377192982988099
 30
0.0
 40
0.0078740157
 50
188.3285625956953027
 51
270.001008127313014
  0
ARC
  5
7E0B
  8
0
 10
113.2186778360878066
 20
-10.2377192982988099
 30
0.0
 40
0.0078740157
 50
269.998991872686986
 51
351.6714374043044131
  0
LINE
  5
7E0C
  8
0
 10
113.3179762326131055
 20
-10.2388598452987996
 30
0.0
 11
113.3116424497134034
 21
-10.1955933140988098
 31
0.0
  0
LINE
  5
7E0D
  8
0
 10
113.4258137978136034
 20
-10.2388598452987996
 30
0.0
 11
113.432147580713206
 21
-10.1955933140988098
 31
0.0
  0
LINE
  5
7E0E
  8
0
 10
113.3257673452130945
 20
-10.2455933140988105
 30
0.0
 11
113.4180226852136002
 21
-10.2455933140988105
 31
0.0
  0
ARC
  5
7E0F
  8
0
 10
113.3257672066133068
 20
-10.2377192982988099
 30
0.0
 40
0.0078740157
 50
188.3285625956953027
 51
270.001008127313014
  0
ARC
  5
7E10
  8
0
 10
113.4180228238133026
 20
-10.2377192982988099
 30
0.0
 40
0.0078740157
 50
269.998991872686986
 51
351.6714374043044131
  0
LINE
  5
7E11
  8
0
 10
113.8339280657633026
 20
-10.2388598452987996
 30
0.0
 11
113.8275942828637
 21
-10.1955933140988098
 31
0.0
  0
LINE
  5
7E12
  8
0
 10
113.9417656309638005
 20
-10.2388598452987996
 30
0.0
 11
113.9480994138635026
 21
-10.1955933140988098
 31
0.0
  0
LINE
  5
7E13
  8
0
 10
113.8417191783633058
 20
-10.2455933140988105
 30
0.0
 11
113.9339745183637973
 21
-10.2455933140988105
 31
0.0
  0
ARC
  5
7E14
  8
0
 10
113.8417190397636034
 20
-10.2377192982988099
 30
0.0
 40
0.0078740157
 50
188.3285625956953027
 51
270.001008127313014
  0
ARC
  5
7E15
  8
0
 10
113.9339746569634997
 20
-10.2377192982988099
 30
0.0
 40
0.0078740157
 50
269.998991872686986
 51
351.6714374043044131
  0
LINE
  5
7E16
  8
0
 10
114.1896221373113036
 20
-10.2388598452987996
 30
0.0
 11
114.1832883544116015
 21
-10.1955933140988098
 31
0.0
  0
LINE
  5
7E17
  8
0
 10
114.2974597025118015
 20
-10.2388598452987996
 30
0.0
 11
114.3037934854115036
 21
-10.1955933140988098
 31
0.0
  0
LINE
  5
7E18
  8
0
 10
114.1974132499113068
 20
-10.2455933140988105
 30
0.0
 11
114.2896685899117983
 21
-10.2455933140988105
 31
0.0
  0
ARC
  5
7E19
  8
0
 10
114.1974131113116044
 20
-10.2377192982988099
 30
0.0
 40
0.0078740157
 50
188.3285625956953027
 51
270.001008127313014
  0
ARC
  5
7E1A
  8
0
 10
114.2896687285115007
 20
-10.2377192982988099
 30
0.0
 40
0.0078740157
 50
269.998991872686986
 51
351.6714374043044131
  0
LINE
  5
7E1B
  8
0
 10
113.5759521940207009
 20
-10.2388598452987996
 30
0.0
 11
113.5696184111209988
 21
-10.1955933140988098
 31
0.0
  0
LINE
  5
7E1C
  8
0
 10
113.6837897592211988
 20
-10.2388598452987996
 30
0.0
 11
113.6901235421209009
 21
-10.1955933140988098
 31
0.0
  0
LINE
  5
7E1D
  8
0
 10
113.5837433066207041
 20
-10.2455933140988105
 30
0.0
 11
113.6759986466211956
 21
-10.2455933140988105
 31
0.0
  0
ARC
  5
7E1E
  8
0
 10
113.5837431680210017
 20
-10.2377192982988099
 30
0.0
 40
0.0078740157
 50
188.3285625956953027
 51
270.001008127313014
  0
ARC
  5
7E1F
  8
0
 10
113.675998785220898
 20
-10.2377192982988099
 30
0.0
 40
0.0078740157
 50
269.998991872686986
 51
351.6714374043044131
  0
LINE
  5
7E20
  8
0
 10
105.3722017065610999
 20
-10.2388598452987996
 30
0.0
 11
105.3658679236613978
 21
-10.1955933140988098
 31
0.0
  0
LINE
  5
7E21
  8
0
 10
105.4800392717615978
 20
-10.2388598452987996
 30
0.0
 11
105.4863730546612999
 21
-10.1955933140988098
 31
0.0
  0
LINE
  5
7E22
  8
0
 10
105.3799928191611031
 20
-10.2455933140988105
 30
0.0
 11
105.4722481591615946
 21
-10.2455933140988105
 31
0.0
  0
ARC
  5
7E23
  8
0
 10
105.3799926805614007
 20
-10.2377192982988099
 30
0.0
 40
0.0078740157
 50
188.3285625956953027
 51
270.001008127313014
  0
ARC
  5
7E24
  8
0
 10
105.472248297761297
 20
-10.2377192982988099
 30
0.0
 40
0.0078740157
 50
269.998991872686986
 51
351.6714374043044131
  0
LINE
  5
7E25
  8
0
 10
105.6823982200021987
 20
-10.2388598452987996
 30
0.0
 11
105.6760644371025961
 21
-10.1955933140988098
 31
0.0
  0
LINE
  5
7E26
  8
0
 10
105.7902357852026967
 20
-10.2388598452987996
 30
0.0
 11
105.7965695681023988
 21
-10.1955933140988098
 31
0.0
  0
LINE
  5
7E27
  8
0
 10
105.6901893326022019
 20
-10.2455933140988105
 30
0.0
 11
105.7824446726026935
 21
-10.2455933140988105
 31
0.0
  0
ARC
  5
7E28
  8
0
 10
105.6901891940024996
 20
-10.2377192982988099
 30
0.0
 40
0.0078740157
 50
188.3285625956953027
 51
270.001008127313014
  0
ARC
  5
7E29
  8
0
 10
105.7824448112024953
 20
-10.2377192982988099
 30
0.0
 40
0.0078740157
 50
269.998991872686986
 51
351.6714374043044131
  0
LINE
  5
7E2A
  8
0
 10
106.1226770757801035
 20
-10.2388598452987996
 30
0.0
 11
106.1163432928805008
 21
-10.1955933140988098
 31
0.0
  0
LINE
  5
7E2B
  8
0
 10
106.2305146409806014
 20
-10.2388598452987996
 30
0.0
 11
106.2368484238803035
 21
-10.1955933140988098
 31
0.0
  0
LINE
  5
7E2C
  8
0
 10
106.1304681883801067
 20
-10.2455933140988105
 30
0.0
 11
106.2227235283805982
 21
-10.2455933140988105
 31
0.0
  0
ARC
  5
7E2D
  8
0
 10
106.1304680497804043
 20
-10.2377192982988099
 30
0.0
 40
0.0078740157
 50
188.3285625956953027
 51
270.001008127313014
  0
ARC
  5
7E2E
  8
0
 10
106.2227236669804
 20
-10.2377192982988099
 30
0.0
 40
0.0078740157
 50
269.998991872686986
 51
351.6714374043044131
  0
LINE
  5
7E2F
  8
0
 10
106.3228038528605026
 20
-10.2388598452987996
 30
0.0
 11
106.3164700699609
 21
-10.1955933140988098
 31
0.0
  0
LINE
  5
7E30
  8
0
 10
106.4306414180610005
 20
-10.2388598452987996
 30
0.0
 11
106.4369752009607026
 21
-10.1955933140988098
 31
0.0
  0
LINE
  5
7E31
  8
0
 10
106.3305949654605058
 20
-10.2455933140988105
 30
0.0
 11
106.4228503054610968
 21
-10.2455933140988105
 31
0.0
  0
ARC
  5
7E32
  8
0
 10
106.3305948268608034
 20
-10.2377192982988099
 30
0.0
 40
0.0078740157
 50
188.3285625956953027
 51
270.001008127313014
  0
ARC
  5
7E33
  8
0
 10
106.4228504440607992
 20
-10.2377192982988099
 30
0.0
 40
0.0078740157
 50
269.998991872686986
 51
351.6714374043044131
  0
LINE
  5
7E34
  8
0
 10
104.9134640773565934
 20
-9.7231523691988144
 30
0.0
 11
104.9134640773565934
 21
-10.1656720549132693
 31
0.0
  0
LINE
  5
7E35
  8
0
 10
114.9134640773565934
 20
-9.7231523691988144
 30
0.0
 11
114.9134640773565934
 21
-10.1656720540273007
 31
0.0
  0
ENDSEC
  0
EOF
