  0
SECTION
  2
HEADER
  9
$ACADVER
  1
AC1009
  9
$INSBASE
 10
5277.8691032083797836
 20
293.7043961324795873
 30
0.0
  9
$EXTMIN
 10
5272.4679215254018345
 20
291.1037915666677804
 30
-0.0000000349181948
  9
$EXTMAX
 10
5282.908763987437851
 20
293.7066832430556929
 30
0.0000000814935746
  9
$LIMMIN
 10
0.0
 20
0.0
  9
$LIMMAX
 10
11.6929133858000007
 20
8.2677165353999982
  9
$ORTHOMODE
 70
     0
  9
$REGENMODE
 70
     1
  9
$FILLMODE
 70
     1
  9
$QTEXTMODE
 70
     0
  9
$MIRRTEXT
 70
     0
  9
$DRAGMODE
 70
     2
  9
$LTSCALE
 40
0.6431102362
  9
$OSMODE
 70
  4095
  9
$ATTMODE
 70
     1
  9
$TEXTSIZE
 40
0.2
  9
$TRACEWID
 40
0.05
  9
$TEXTSTYLE
  7
STANDARD
  9
$CLAYER
  8
0
  9
$CELTYPE
  6
BYLAYER
  9
$CECOLOR
 62
   256
  9
$DIMSCALE
 40
1.0
  9
$DIMASZ
 40
0.1875
  9
$DIMEXO
 40
0.0625
  9
$DIMDLI
 40
0.4443307087
  9
$DIMRND
 40
0.0
  9
$DIMDLE
 40
0.0
  9
$DIMEXE
 40
0.125
  9
$DIMTP
 40
0.01
  9
$DIMTM
 40
0.01
  9
$DIMTXT
 40
2.0
  9
$DIMCEN
 40
0.1052362205
  9
$DIMTSZ
 40
0.0
  9
$DIMTOL
 70
     1
  9
$DIMLIM
 70
     0
  9
$DIMTIH
 70
     1
  9
$DIMTOH
 70
     1
  9
$DIMSE1
 70
     0
  9
$DIMSE2
 70
     0
  9
$DIMTAD
 70
     0
  9
$DIMZIN
 70
     0
  9
$DIMBLK
  1

  9
$DIMASO
 70
     1
  9
$DIMSHO
 70
     1
  9
$DIMPOST
  1
\X
  9
$DIMAPOST
  1

  9
$DIMALT
 70
     1
  9
$DIMALTD
 70
     2
  9
$DIMALTF
 40
25.3999999999999986
  9
$DIMLFAC
 40
1.0
  9
$DIMTOFL
 70
     0
  9
$DIMTVP
 40
0.0
  9
$DIMTIX
 70
     0
  9
$DIMSOXD
 70
     0
  9
$DIMSAH
 70
     0
  9
$DIMBLK1
  1

  9
$DIMBLK2
  1

  9
$DIMSTYLE
  2
STANDARD
  9
$DIMCLRD
 70
     0
  9
$DIMCLRE
 70
     0
  9
$DIMCLRT
 70
     0
  9
$DIMTFAC
 40
1.0
  9
$DIMGAP
 40
0.09
  9
$LUNITS
 70
     2
  9
$LUPREC
 70
     4
  9
$SKETCHINC
 40
0.1
  9
$FILLETRAD
 40
0.0
  9
$AUNITS
 70
     0
  9
$AUPREC
 70
     0
  9
$MENU
  1
.
  9
$ELEVATION
 40
0.0
  9
$PELEVATION
 40
0.0
  9
$THICKNESS
 40
0.0
  9
$LIMCHECK
 70
     0
  9
$BLIPMODE
 70
     0
  9
$CHAMFERA
 40
0.0
  9
$CHAMFERB
 40
0.0
  9
$SKPOLY
 70
     0
  9
$TDCREATE
 40
2458060.468368056230247
  9
$TDUPDATE
 40
2460164.5799074079841375
  9
$TDINDWG
 40
0.599509375
  9
$TDUSRTIMER
 40
0.599509375
  9
$USRTIMER
 70
     1
  9
$ANGBASE
 50
0.0
  9
$ANGDIR
 70
     0
  9
$PDMODE
 70
     0
  9
$PDSIZE
 40
0.3125
  9
$PLINEWID
 40
0.0
  9
$COORDS
 70
     1
  9
$SPLFRAME
 70
     0
  9
$SPLINETYPE
 70
     6
  9
$SPLINESEGS
 70
     8
  9
$ATTDIA
 70
     1
  9
$ATTREQ
 70
     1
  9
$HANDLING
 70
     1
  9
$HANDSEED
  5
29C4E
  9
$SURFTAB1
 70
     6
  9
$SURFTAB2
 70
     6
  9
$SURFTYPE
 70
     6
  9
$SURFU
 70
     6
  9
$SURFV
 70
     6
  9
$UCSNAME
  2

  9
$UCSORG
 10
0.0
 20
0.0
 30
0.0
  9
$UCSXDIR
 10
1.0
 20
0.0
 30
0.0
  9
$UCSYDIR
 10
0.0
 20
1.0
 30
0.0
  9
$PUCSNAME
  2

  9
$PUCSORG
 10
0.0
 20
0.0
 30
0.0
  9
$PUCSXDIR
 10
1.0
 20
0.0
 30
0.0
  9
$PUCSYDIR
 10
0.0
 20
1.0
 30
0.0
  9
$USERI1
 70
     0
  9
$USERI2
 70
     0
  9
$USERI3
 70
     0
  9
$USERI4
 70
     0
  9
$USERI5
 70
     0
  9
$USERR1
 40
0.0
  9
$USERR2
 40
0.0
  9
$USERR3
 40
0.0
  9
$USERR4
 40
0.0
  9
$USERR5
 40
0.0
  9
$WORLDVIEW
 70
     1
  9
$SHADEDGE
 70
     3
  9
$SHADEDIF
 70
    70
  9
$TILEMODE
 70
     1
  9
$MAXACTVP
 70
    64
  9
$PLIMCHECK
 70
     0
  9
$PEXTMIN
 10
1.0000000000000000E+20
 20
1.0000000000000000E+20
 30
1.0000000000000000E+20
  9
$PEXTMAX
 10
-1.0000000000000000E+20
 20
-1.0000000000000000E+20
 30
-1.0000000000000000E+20
  9
$PLIMMIN
 10
0.0
 20
0.0
  9
$PLIMMAX
 10
12.0
 20
9.0
  9
$UNITMODE
 70
     0
  9
$VISRETAIN
 70
     1
  9
$PLINEGEN
 70
     0
  9
$PSLTSCALE
 70
     1
  0
ENDSEC
  0
SECTION
  2
TABLES
  0
TABLE
  2
VPORT
 70
     1
  0
VPORT
  2
*ACTIVE
 70
     0
 10
0.0
 20
0.0
 11
1.0
 21
1.0
 12
1366.322986311106888
 22
159.8256323023227026
 13
0.0
 23
0.0
 14
1.0
 24
1.0
 15
0.0
 25
0.0
 16
0.0
 26
0.0
 36
60.4960186965801583
 17
3911.3653564453120453
 27
132.5796051025390057
 37
0.0
 40
3.692101610032235
 41
2.8368263473053892
 42
50.0
 43
0.0
 44
0.0
 50
0.0
 51
0.0
 71
     0
 72
   100
 73
     1
 74
     1
 75
     0
 76
     0
 77
     0
 78
     0
  0
ENDTAB
  0
TABLE
  2
LTYPE
 70
     2
  0
LTYPE
  2
CONTINUOUS
 70
     0
  3
Solid line
 72
    65
 73
     0
 40
0.0
  0
LTYPE
  2
PHANTOM2
 70
     0
  3
___ _ _ ___ _ _ ___ _ _ ___ _ _
 72
    65
 73
     6
 40
1.25
 49
0.625
 49
-0.125
 49
0.125
 49
-0.125
 49
0.125
 49
-0.125
  0
ENDTAB
  0
TABLE
  2
LAYER
 70
     2
  0
LAYER
  2
0
 70
     0
 62
   255
  6
CONTINUOUS
  0
LAYER
  2
DEFPOINTS
 70
     0
 62
     7
  6
CONTINUOUS
  0
ENDTAB
  0
TABLE
  2
STYLE
 70
     1
  0
STYLE
  2
STANDARD
 70
     0
 40
0.0
 41
0.8
 50
0.0
 71
     0
 42
0.2
  3
txt
  4

  0
ENDTAB
  0
TABLE
  2
VIEW
 70
     0
  0
ENDTAB
  0
TABLE
  2
UCS
 70
     0
  0
ENDTAB
  0
TABLE
  2
APPID
 70
    11
  0
APPID
  2
ACAD
 70
     0
  0
APPID
  2
ACAD_MLEADERVER
 70
     0
  0
APPID
  2
ACAD_EXEMPT_FROM_CAD_STANDARDS
 70
     0
  0
APPID
  2
ACAD_NAV_VCDISPLAY
 70
     0
  0
APPID
  2
ACAECLAYERSTANDARD
 70
     0
  0
APPID
  2
ACCMTRANSPARENCY
 70
     0
  0
APPID
  2
ACAD_DSTYLE_DIMJAG
 70
     0
  0
APPID
  2
ACAD_DSTYLE_DIMTALN
 70
     0
  0
APPID
  2
ACDBATTR
 70
     0
  0
APPID
  2
ACADANNOTATIVE
 70
     0
  0
APPID
  2
DCO15
 70
     0
  0
ENDTAB
  0
TABLE
  2
DIMSTYLE
 70
     1
  0
DIMSTYLE
  2
STANDARD
 70
     0
  3

  4

  5

  6

  7

 40
1.0
 41
0.1875
 42
0.0625
 43
0.38
 44
0.125
 45
0.0
 46
0.0
 47
0.01
 48
0.01
140
0.15625
141
0.09
142
0.0
143
25.3999999999999986
144
1.0
145
0.0
146
1.0
147
0.09
 71
     1
 72
     0
 73
     1
 74
     1
 75
     0
 76
     0
 77
     0
 78
     4
170
     0
171
     2
172
     0
173
     0
174
     0
175
     0
176
     0
177
     0
178
     0
  0
ENDTAB
  0
ENDSEC
  0
SECTION
  2
BLOCKS
  0
BLOCK
  8
0
  2
$MODEL_SPACE
 70
     0
 10
0.0
 20
0.0
 30
0.0
  3
$MODEL_SPACE
  1

  0
ENDBLK
  5
21
  8
0
  0
BLOCK
 67
     1
  8
0
  2
$PAPER_SPACE
 70
     0
 10
0.0
 20
0.0
 30
0.0
  3
$PAPER_SPACE
  1

  0
ENDBLK
  5
1D
 67
     1
  8
0
  0
BLOCK
  8
0
  2
_FILLED
 70
     0
 10
0.0
 20
0.0
 30
0.0
  3
_FILLED
  1

  0
SOLID
  5
26C2A
  8
0
  6
BYBLOCK
 62
     0
 10
0.0
 20
0.0
 30
0.0
 11
-1.0
 21
0.1666666667
 31
0.0
 12
-1.0
 22
-0.1666666667
 32
0.0
 13
-1.0
 23
-0.1666666667
 33
0.0
  0
ENDBLK
  5
26C2B
  8
0
  6
BYBLOCK
 62
     0
  0
ENDSEC
  0
SECTION
  2
ENTITIES
  0
ATTDEF
  5
26A5B
  8
DEFPOINTS
 10
5277.8692155650569475
 20
293.703012094957387
 30
0.0
 40
0.001
  1
K-18359T-CL
  3

  2
MODELNUMBER
 70
     0
1001
ACDBATTR
1070
     0
1070
     1
  0
ATTDEF
  5
26A5C
  8
DEFPOINTS
 10
5277.8690897553997274
 20
293.7013452545783139
 30
0.0
 40
0.001
  1
KATALYST AIR
  3

  2
TRADENAME
 70
     0
1001
ACDBATTR
1070
     0
1070
     1
  0
ATTDEF
  5
26A5D
  8
DEFPOINTS
 10
5277.8692155650569475
 20
293.6996787616241136
 30
0.0
 40
0.001
  1
SHOWERHEAD
  3

  2
PRODUCT
 70
     0
1001
ACDBATTR
1070
     0
1070
     1
  0
LINE
  5
29972
  8
0
 10
5277.1505992713791784
 20
292.2396008568795764
 30
0.0
 11
5277.1505992713791784
 21
291.6333016442795838
 31
0.0
  0
LINE
  5
29973
  8
0
 10
5277.3741032083798927
 20
293.6843961324796055
 30
0.0
 11
5277.3741032083798927
 21
293.5785382681236797
 31
0.0
  0
LINE
  5
29974
  8
0
 10
5277.1801268305289341
 20
292.7120418017796055
 30
0.0
 11
5278.5580795864298125
 21
292.7120418017796055
 31
0.0
  0
LINE
  5
29975
  8
0
 10
5278.5876071453803888
 20
292.2396008568795764
 30
0.0
 11
5278.5876071453803888
 21
291.6333016442795838
 31
0.0
  0
LINE
  5
29976
  8
0
 10
5278.3441032083801474
 20
293.7043961324795873
 30
0.0
 11
5277.3941032083794198
 21
293.7043961324795873
 31
0.0
  0
ARC
  5
29977
  8
0
 10
5277.3941032083794198
 20
293.6843961324796055
 30
0.0
 40
0.02
 50
90.0
 51
180.0
  0
ARC
  5
29978
  8
0
 10
5278.3441032083801474
 20
293.6843961324796055
 30
0.0
 40
0.02
 50
0.0
 51
90.0
  0
LINE
  5
29979
  8
0
 10
5277.1801268304334371
 20
292.2396008568795764
 30
0.0
 11
5277.1801268305289341
 21
292.7120418017796055
 31
0.0
  0
LINE
  5
2997A
  8
0
 10
5278.5580795863315871
 20
292.2396008568795764
 30
0.0
 11
5278.5580795864298125
 21
292.7120418017796055
 31
0.0
  0
ARC
  5
2997B
  8
0
 10
5277.3841205783528494
 20
293.5785454630316167
 30
0.0
 40
0.0100173725565584
 50
180.0411522997536053
 51
224.9588483723566128
  0
LINE
  5
2997C
  8
0
 10
5277.3770321406309449
 20
293.5714672002795851
 30
0.0
 11
5277.4111497472204064
 21
293.5373005497830263
 31
0.0
  0
ARC
  5
2997D
  8
0
 10
5277.4040009385089434
 20
293.5301620027007061
 30
0.0
 40
0.0101026887728329
 50
0.5217363114579491
 51
44.958848372356627
  0
LINE
  5
2997E
  8
0
 10
5277.4141032084298786
 20
293.5302539966796189
 30
0.0
 11
5277.4141032084298786
 21
293.0397484313676841
 31
0.0
  0
ARC
  5
2997F
  8
0
 10
5277.4244564891905611
 20
293.0398192534191821
 30
0.0
 40
0.0103535229888438
 50
180.3919280709702946
 51
217.9744903697585983
  0
ARC
  5
29980
  8
0
 10
5277.6041032084285689
 20
293.1662193391796905
 30
0.0
 40
0.2299999999999895
 50
215.2583355248052897
 51
247.4596895364917089
  0
ARC
  5
29981
  8
0
 10
5277.4851587609909984
 20
292.8885498728043899
 30
0.0
 40
0.0721347254302598
 50
312.1696347050335021
 51
64.7435346915251557
  0
ARC
  5
29982
  8
0
 10
5277.8691032084298058
 20
292.4273961324796005
 30
0.0
 40
0.5279999999999822
 50
129.4534797916327022
 51
147.3774950569030864
  0
LINE
  5
29983
  8
0
 10
5278.3641032085797633
 20
293.6843961324796055
 30
0.0
 11
5278.3641032085797633
 21
293.5785382681236797
 31
0.0
  0
ARC
  5
29984
  8
0
 10
5278.3540858386068066
 20
293.5785454630316167
 30
0.0
 40
0.0100173725565584
 50
315.0411516276433872
 51
359.958847700246281
  0
LINE
  5
29985
  8
0
 10
5278.3611742763296206
 20
293.5714672002795851
 30
0.0
 11
5278.3270566697383401
 21
293.5373005497830263
 31
0.0
  0
ARC
  5
29986
  8
0
 10
5278.3342054784507127
 20
293.5301620027007061
 30
0.0
 40
0.0101026887728329
 50
135.0411516276433872
 51
179.4782636885420004
  0
LINE
  5
29987
  8
0
 10
5278.3241032085297775
 20
293.5302539966796189
 30
0.0
 11
5278.3241032085297775
 21
293.0397484313676841
 31
0.0
  0
ARC
  5
29988
  8
0
 10
5278.3137499277690949
 20
293.0398192534191821
 30
0.0
 40
0.0103535229888438
 50
322.0255096302412881
 51
359.6080719290296202
  0
ARC
  5
29989
  8
0
 10
5278.1341032085292682
 20
293.1662193391796905
 30
0.0
 40
0.2299999999999895
 50
292.5403104635083196
 51
324.7416644751946819
  0
ARC
  5
2998A
  8
0
 10
5278.2530476559677481
 20
292.8885498728043899
 30
0.0
 40
0.0721347254302598
 50
115.2564653084748016
 51
227.8303652949664979
  0
ARC
  5
2998B
  8
0
 10
5277.8691032085298502
 20
292.4273961324796005
 30
0.0
 40
0.5279999999999822
 50
32.6225049430968568
 51
50.5465202083673475
  0
LINE
  5
2998C
  8
0
 10
5274.5282750200285591
 20
291.1180545226296204
 30
0.0
 11
5274.5220086283688943
 21
291.1608606993796116
 31
0.0
  0
LINE
  5
2998D
  8
0
 10
5274.636112585230876
 20
291.1180545226296204
 30
0.0
 11
5274.6423789768896313
 21
291.1608606993796116
 31
0.0
  0
LINE
  5
2998E
  8
0
 10
5274.5360661326285481
 20
291.111321053829613
 30
0.0
 11
5274.6283214726299775
 21
291.111321053829613
 31
0.0
  0
LINE
  5
2998F
  8
0
 10
5282.8391819486796521
 20
291.1608606993796116
 30
0.0
 11
5272.8990244682790944
 21
291.1608606993796116
 31
0.0
  0
LINE
  5
29990
  8
0
 10
5282.8691032085798724
 20
291.6333016442795838
 30
0.0
 11
5272.8691032085798724
 21
291.6333016442795838
 31
0.0
  0
ARC
  5
29991
  8
0
 10
5272.9013119933879352
 20
291.1930694843345009
 30
0.0
 40
0.0322899147249966
 50
184.0624279475661922
 51
265.9375732281851015
  0
ARC
  5
29992
  8
0
 10
5282.839181948607802
 20
291.1907819594512148
 30
0.0
 40
0.0299212599715069
 50
270.0000001360597253
 51
359.9999996715852149
  0
ARC
  5
29993
  8
0
 10
5274.536065994029741
 20
291.1191950696295976
 30
0.0
 40
0.0078740157
 50
188.3285625956933131
 51
270.001008127313014
  0
ARC
  5
29994
  8
0
 10
5274.6283216112287846
 20
291.1191950696295976
 30
0.0
 40
0.0078740157
 50
269.998991872686986
 51
351.6714374043066869
  0
LINE
  5
29995
  8
0
 10
5274.8066052502290404
 20
291.1169383530295818
 30
0.0
 11
5274.800175462619336
 21
291.1608606993796116
 31
0.0
  0
LINE
  5
29996
  8
0
 10
5274.9144428154286288
 20
291.1169383530295818
 30
0.0
 11
5274.9208726030401522
 21
291.1608606993796116
 31
0.0
  0
LINE
  5
29997
  8
0
 10
5274.8143963628290294
 20
291.1102048842295744
 30
0.0
 11
5274.9066517028295493
 21
291.1102048842295744
 31
0.0
  0
ARC
  5
29998
  8
0
 10
5274.8143962242293128
 20
291.1180789000296159
 30
0.0
 40
0.0078740157
 50
188.3285625956933131
 51
270.001008127313014
  0
ARC
  5
29999
  8
0
 10
5274.9066518414301754
 20
291.1180789000296159
 30
0.0
 40
0.0078740157
 50
269.998991872686986
 51
351.6714374043066869
  0
LINE
  5
2999A
  8
0
 10
5274.9759713593803099
 20
291.1171924951295864
 30
0.0
 11
5274.9823639431551783
 21
291.1608606993796116
 31
0.0
  0
LINE
  5
2999B
  8
0
 10
5274.9086361922154538
 20
291.110459026329579
 30
0.0
 11
5274.9681802467803209
 21
291.110459026329579
 31
0.0
  0
ARC
  5
2999C
  8
0
 10
5274.9681803853800375
 20
291.1183330421296205
 30
0.0
 40
0.0078740157
 50
269.998991872686986
 51
351.6714374043066869
  0
LINE
  5
2999D
  8
0
 10
5275.2640033215293442
 20
291.1175941814295811
 30
0.0
 11
5275.2576695405696228
 21
291.1608606993796116
 31
0.0
  0
LINE
  5
2999E
  8
0
 10
5275.3718566601228304
 20
291.1177019306219904
 30
0.0
 11
5275.3781746676895636
 21
291.1608606993796116
 31
0.0
  0
LINE
  5
2999F
  8
0
 10
5275.2717944341293332
 20
291.1108607126295738
 30
0.0
 11
5275.3640497741298532
 21
291.1108607126295738
 31
0.0
  0
ARC
  5
299A0
  8
0
 10
5275.2717942955296166
 20
291.1187347284296152
 30
0.0
 40
0.0078740157
 50
188.3285625956933131
 51
270.001008127313014
  0
ARC
  5
299A1
  8
0
 10
5275.3639410265441256
 20
291.1188606993795815
 30
0.0
 40
0.008
 50
270.0
 51
351.6716330217104201
  0
LINE
  5
299A2
  8
0
 10
5275.4090124747299342
 20
291.1179322743295756
 30
0.0
 11
5275.4027281871522064
 21
291.1608606993796116
 31
0.0
  0
LINE
  5
299A3
  8
0
 10
5275.5168500399313416
 20
291.1179322743295756
 30
0.0
 11
5275.5231343275072504
 21
291.1608606993796116
 31
0.0
  0
LINE
  5
299A4
  8
0
 10
5275.4168035873290137
 20
291.1111988055296251
 30
0.0
 11
5275.5090589273313526
 21
291.1111988055296251
 31
0.0
  0
ARC
  5
299A5
  8
0
 10
5275.4168034487302066
 20
291.1190728213296097
 30
0.0
 40
0.0078740157
 50
188.3285625956933131
 51
270.001008127313014
  0
ARC
  5
299A6
  8
0
 10
5275.5090590659301597
 20
291.1190728213296097
 30
0.0
 40
0.0078740157
 50
269.998991872686986
 51
351.6714374043066869
  0
LINE
  5
299A7
  8
0
 10
5275.6057967795786681
 20
291.1175941814295811
 30
0.0
 11
5275.5994629986198561
 21
291.1608606993796116
 31
0.0
  0
LINE
  5
299A8
  8
0
 10
5275.6135878921795666
 20
291.1108607126295738
 30
0.0
 11
5275.695755350179752
 21
291.1113394199795721
 31
0.0
  0
ARC
  5
299A9
  8
0
 10
5275.6135877535789405
 20
291.1187347284296152
 30
0.0
 40
0.0078740157
 50
188.3285625956933131
 51
270.001008127313014
  0
LINE
  5
299AA
  8
0
 10
5275.687964237579763
 20
291.1180728887795794
 30
0.0
 11
5275.6817005345374128
 21
291.1608606993796116
 31
0.0
  0
LINE
  5
299AB
  8
0
 10
5275.7958018027811704
 20
291.1180728887795794
 30
0.0
 11
5275.8020655058207922
 21
291.1608606993796116
 31
0.0
  0
LINE
  5
299AC
  8
0
 10
5275.695755350179752
 20
291.1113394199795721
 30
0.0
 11
5275.7880106901802719
 21
291.1113394199795721
 31
0.0
  0
ARC
  5
299AD
  8
0
 10
5275.6957552115800354
 20
291.1192134357796135
 30
0.0
 40
0.0078740157
 50
188.3285625956933131
 51
270.001008127313014
  0
ARC
  5
299AE
  8
0
 10
5275.7880108287799885
 20
291.1192134357796135
 30
0.0
 40
0.0078740157
 50
269.998991872686986
 51
351.6714374043066869
  0
LINE
  5
299AF
  8
0
 10
5276.1137777823796569
 20
291.1178345512296914
 30
0.0
 11
5276.1074791891278437
 21
291.1608606993796116
 31
0.0
  0
LINE
  5
299B0
  8
0
 10
5276.2216311229121857
 20
291.1179423136720175
 30
0.0
 11
5276.2279139408301489
 21
291.1608606993796116
 31
0.0
  0
LINE
  5
299B1
  8
0
 10
5276.1215688949787364
 20
291.1111010824296272
 30
0.0
 11
5276.213715489331662
 21
291.1111010824296272
 31
0.0
  0
ARC
  5
299B2
  8
0
 10
5276.213715489331662
 20
291.1191010824296086
 30
0.0
 40
0.008
 50
270.0
 51
351.6716330217104201
  0
ARC
  5
299B3
  8
0
 10
5276.1215687563799293
 20
291.1189750982296118
 30
0.0
 40
0.0078740157
 50
188.3285625956933131
 51
270.001008127313014
  0
LINE
  5
299B4
  8
0
 10
5276.3420128987299904
 20
291.1192775552796093
 30
0.0
 11
5276.3359255466893956
 21
291.1608606993796116
 31
0.0
  0
LINE
  5
299B5
  8
0
 10
5276.4498504639295788
 20
291.1192775552796093
 30
0.0
 11
5276.4559378159701737
 21
291.1608606993796116
 31
0.0
  0
LINE
  5
299B6
  8
0
 10
5276.3498040113299794
 20
291.1125440864796019
 30
0.0
 11
5276.4420593513314088
 21
291.1125440864796019
 31
0.0
  0
ARC
  5
299B7
  8
0
 10
5276.3498038727302628
 20
291.1204181022795865
 30
0.0
 40
0.0078740157
 50
188.3285625956933131
 51
270.001008127313014
  0
ARC
  5
299B8
  8
0
 10
5276.4420594899302159
 20
291.1204181022795865
 30
0.0
 40
0.0078740157
 50
269.998991872686986
 51
351.6714374043066869
  0
LINE
  5
299B9
  8
0
 10
5276.5395938727297107
 20
291.1175941814295811
 30
0.0
 11
5276.5332600917699892
 21
291.1608606993796116
 31
0.0
  0
LINE
  5
299BA
  8
0
 10
5276.6474314379302086
 20
291.1175941814295811
 30
0.0
 11
5276.6537652188899301
 21
291.1608606993796116
 31
0.0
  0
LINE
  5
299BB
  8
0
 10
5276.5473849853296997
 20
291.1108607126295738
 30
0.0
 11
5276.6396403253302196
 21
291.1108607126295738
 31
0.0
  0
ARC
  5
299BC
  8
0
 10
5276.5473848467299831
 20
291.1187347284296152
 30
0.0
 40
0.0078740157
 50
188.3285625956933131
 51
270.001008127313014
  0
ARC
  5
299BD
  8
0
 10
5276.6396404639299362
 20
291.1187347284296152
 30
0.0
 40
0.0078740157
 50
269.998991872686986
 51
351.6714374043066869
  0
LINE
  5
299BE
  8
0
 10
5276.7141018931297367
 20
291.1178451211795846
 30
0.0
 11
5276.7078048472121736
 21
291.1608606993796116
 31
0.0
  0
LINE
  5
299BF
  8
0
 10
5276.8219394583302346
 20
291.1178451211795846
 30
0.0
 11
5276.8282365042468882
 21
291.1608606993796116
 31
0.0
  0
LINE
  5
299C0
  8
0
 10
5276.7218930057297257
 20
291.1111116523795772
 30
0.0
 11
5276.8141483457311551
 21
291.1111116523795772
 31
0.0
  0
ARC
  5
299C1
  8
0
 10
5276.7218928671290996
 20
291.1189856681796186
 30
0.0
 40
0.0078740157
 50
188.3285625956933131
 51
270.001008127313014
  0
ARC
  5
299C2
  8
0
 10
5276.8141484843299622
 20
291.1189856681796186
 30
0.0
 40
0.0078740157
 50
269.998991872686986
 51
351.6714374043066869
  0
LINE
  5
299C3
  8
0
 10
5276.9344942978295876
 20
291.1177208675296129
 30
0.0
 11
5276.9281790624336281
 21
291.1608606993796116
 31
0.0
  0
LINE
  5
299C4
  8
0
 10
5277.0423318630300855
 20
291.1177208675296129
 30
0.0
 11
5277.0486470984251355
 21
291.1608606993796116
 31
0.0
  0
LINE
  5
299C5
  8
0
 10
5276.9422854104295766
 20
291.1109873987296055
 30
0.0
 11
5277.0345407504300965
 21
291.1109873987296055
 31
0.0
  0
ARC
  5
299C6
  8
0
 10
5276.94228527182986
 20
291.1188614145297038
 30
0.0
 40
0.0078740157
 50
188.3285625956933131
 51
270.001008127313014
  0
ARC
  5
299C7
  8
0
 10
5277.0345408890298131
 20
291.1188614145297038
 30
0.0
 40
0.0078740157
 50
269.998991872686986
 51
351.6714374043066869
  0
LINE
  5
299C8
  8
0
 10
5277.3899875773286112
 20
291.1175941814295811
 30
0.0
 11
5277.3836537963697992
 21
291.1608606993796116
 31
0.0
  0
LINE
  5
299C9
  8
0
 10
5277.4978251425300186
 20
291.1175941814295811
 30
0.0
 11
5277.5041589234888306
 21
291.1608606993796116
 31
0.0
  0
LINE
  5
299CA
  8
0
 10
5277.3977786899286002
 20
291.1108607126295738
 30
0.0
 11
5277.4900340299309391
 21
291.1108607126295738
 31
0.0
  0
ARC
  5
299CB
  8
0
 10
5277.3977785513288836
 20
291.1187347284296152
 30
0.0
 40
0.0078740157
 50
188.3285625956933131
 51
270.001008127313014
  0
ARC
  5
299CC
  8
0
 10
5277.4900341685288367
 20
291.1187347284296152
 30
0.0
 40
0.0078740157
 50
269.998991872686986
 51
351.6714374043066869
  0
LINE
  5
299CD
  8
0
 10
5273.5606443763299467
 20
291.118546450379597
 30
0.0
 11
5273.5544499979196189
 21
291.1608606993796116
 31
0.0
  0
LINE
  5
299CE
  8
0
 10
5273.6684819415304446
 20
291.118546450379597
 30
0.0
 11
5273.6746763199398629
 21
291.1608606993796116
 31
0.0
  0
LINE
  5
299CF
  8
0
 10
5273.5684354889299357
 20
291.1118129815795896
 30
0.0
 11
5273.6606908289295461
 21
291.1118129815795896
 31
0.0
  0
ARC
  5
299D0
  8
0
 10
5273.5684353503302191
 20
291.1196869973795742
 30
0.0
 40
0.0078740157
 50
188.3285625956933131
 51
270.001008127313014
  0
ARC
  5
299D1
  8
0
 10
5273.6606909675301722
 20
291.1196869973795742
 30
0.0
 40
0.0078740157
 50
269.998991872686986
 51
351.6714374043066869
  0
LINE
  5
299D2
  8
0
 10
5273.7056177446793299
 20
291.1185141257295754
 30
0.0
 11
5273.6994186342690227
 21
291.1608606993796116
 31
0.0
  0
LINE
  5
299D3
  8
0
 10
5273.8134553098798278
 20
291.1185141257295754
 30
0.0
 11
5273.819654420291954
 21
291.1608606993796116
 31
0.0
  0
LINE
  5
299D4
  8
0
 10
5273.7134088572793189
 20
291.1117806569296249
 30
0.0
 11
5273.8056641972789294
 21
291.1117806569296249
 31
0.0
  0
ARC
  5
299D5
  8
0
 10
5273.7134087186796023
 20
291.1196546727296095
 30
0.0
 40
0.0078740157
 50
188.3285625956933131
 51
270.001008127313014
  0
ARC
  5
299D6
  8
0
 10
5273.8056643358786459
 20
291.1196546727296095
 30
0.0
 40
0.0078740157
 50
269.998991872686986
 51
351.6714374043066869
  0
LINE
  5
299D7
  8
0
 10
5274.130465040379022
 20
291.1167901369295805
 30
0.0
 11
5274.1240135554307926
 21
291.1608606993796116
 31
0.0
  0
LINE
  5
299D8
  8
0
 10
5274.2383026055804294
 20
291.1167901369295805
 30
0.0
 11
5274.2447540905286587
 21
291.1608606993796116
 31
0.0
  0
LINE
  5
299D9
  8
0
 10
5274.1382561529790109
 20
291.1100566681295732
 30
0.0
 11
5274.2305114929804404
 21
291.1100566681295732
 31
0.0
  0
ARC
  5
299DA
  8
0
 10
5274.1382560143792944
 20
291.1179306839296146
 30
0.0
 40
0.0078740157
 50
188.3285625956933131
 51
270.001008127313014
  0
ARC
  5
299DB
  8
0
 10
5274.2305116315792475
 20
291.1179306839296146
 30
0.0
 40
0.0078740157
 50
269.998991872686986
 51
351.6714374043066869
  0
LINE
  5
299DC
  8
0
 10
5274.412323728379306
 20
291.1180706268796143
 30
0.0
 11
5274.4060596942181292
 21
291.1608606993796116
 31
0.0
  0
LINE
  5
299DD
  8
0
 10
5274.5201612935798039
 20
291.1180706268796143
 30
0.0
 11
5274.5242169780549375
 21
291.1457753022144175
 31
0.0
  0
LINE
  5
299DE
  8
0
 10
5274.420114840979295
 20
291.111337158079607
 30
0.0
 11
5274.5123701809798149
 21
291.111337158079607
 31
0.0
  0
ARC
  5
299DF
  8
0
 10
5274.4201147023795784
 20
291.1192111738797053
 30
0.0
 40
0.0078740157
 50
188.3285625956933131
 51
270.001008127313014
  0
ARC
  5
299E0
  8
0
 10
5274.512370319578622
 20
291.1192111738797053
 30
0.0
 40
0.0078740157
 50
269.998991872686986
 51
351.6714374043066869
  0
LINE
  5
299E1
  8
0
 10
5272.8691032085798724
 20
291.6333016442795838
 30
0.0
 11
5272.8691032085798724
 21
291.1907819585651964
 31
0.0
  0
LINE
  5
299E2
  8
0
 10
5282.8691032085798724
 20
291.6333016442795838
 30
0.0
 11
5282.8691032085798724
 21
291.1907819594512148
 31
0.0
  0
LINE
  5
299E3
  8
0
 10
5277.5159365417630397
 20
292.9537890238079854
 30
0.0
 11
5278.2222698751966163
 21
292.9537890238079854
 31
0.0
  0
LINE
  5
299E4
  8
0
 10
5277.5335848138338406
 20
292.8350864645801721
 30
0.0
 11
5278.204621603124906
 21
292.8350864645801721
 31
0.0
  0
LINE
  5
299E5
  8
0
 10
5277.823559297011343
 20
291.1092514730112271
 30
0.0
 11
5277.9146471197482242
 21
291.1092514730112271
 31
0.0
  0
LINE
  5
299E6
  8
0
 10
5277.0726440655826082
 20
291.1177019306256284
 30
0.0
 11
5277.0789620731293326
 21
291.1608606993796116
 31
0.0
  0
LINE
  5
299E7
  8
0
 10
5277.0647284320029939
 20
291.1108606993796002
 30
0.0
 11
5277.0345407504846662
 21
291.1109873988309005
 31
0.0
  0
ARC
  5
299E8
  8
0
 10
5277.0647284320029939
 20
291.1188606993795815
 30
0.0
 40
0.008
 50
270.0
 51
351.6716330480783768
  0
LINE
  5
299E9
  8
0
 10
5277.8088195560549138
 20
291.1608606993796116
 30
0.0
 11
5277.8156506472732872
 21
291.1160459609483269
 31
0.0
  0
ARC
  5
299EA
  8
0
 10
5277.823559297011343
 20
291.1172514730110947
 30
0.0
 40
0.008
 50
188.6668576722418891
 51
270.0000000000521254
  0
LINE
  5
299EB
  8
0
 10
5277.9293868607046534
 20
291.1608606993796116
 30
0.0
 11
5277.9225557694853705
 21
291.1160459609483269
 31
0.0
  0
ARC
  5
299EC
  8
0
 10
5277.9146471197482242
 20
291.1172514730110947
 30
0.0
 40
0.008
 50
269.9999999999478746
 51
351.3331423277580825
  0
LINE
  5
299ED
  8
0
 10
5281.2099313967300986
 20
291.1180545226296204
 30
0.0
 11
5281.2161977883906729
 21
291.1608606993796116
 31
0.0
  0
LINE
  5
299EE
  8
0
 10
5281.1020938315286912
 20
291.1180545226296204
 30
0.0
 11
5281.0958274398699359
 21
291.1608606993796116
 31
0.0
  0
LINE
  5
299EF
  8
0
 10
5281.2021402841301096
 20
291.111321053829613
 30
0.0
 11
5281.1098849441286802
 21
291.111321053829613
 31
0.0
  0
ARC
  5
299F0
  8
0
 10
5281.2021404227298262
 20
291.1191950696295976
 30
0.0
 40
0.0078740157
 50
269.998991872686986
 51
351.6714374043066869
  0
ARC
  5
299F1
  8
0
 10
5281.1098848055298731
 20
291.1191950696295976
 30
0.0
 40
0.0078740157
 50
188.3285625956933131
 51
270.001008127313014
  0
LINE
  5
299F2
  8
0
 10
5280.9316011665287078
 20
291.1169383530295818
 30
0.0
 11
5280.9380309541393217
 21
291.1608606993796116
 31
0.0
  0
LINE
  5
299F3
  8
0
 10
5280.8237636013291194
 20
291.1169383530295818
 30
0.0
 11
5280.817333813719415
 21
291.1608606993796116
 31
0.0
  0
LINE
  5
299F4
  8
0
 10
5280.9238100539296283
 20
291.1102048842295744
 30
0.0
 11
5280.8315547139291084
 21
291.1102048842295744
 31
0.0
  0
ARC
  5
299F5
  8
0
 10
5280.9238101925293449
 20
291.1180789000296159
 30
0.0
 40
0.0078740157
 50
269.998991872686986
 51
351.6714374043066869
  0
ARC
  5
299F6
  8
0
 10
5280.8315545753293918
 20
291.1180789000296159
 30
0.0
 40
0.0078740157
 50
188.3285625956933131
 51
270.001008127313014
  0
LINE
  5
299F7
  8
0
 10
5280.7622350573792573
 20
291.1171924951295864
 30
0.0
 11
5280.7558424736043889
 21
291.1608606993796116
 31
0.0
  0
LINE
  5
299F8
  8
0
 10
5280.8295702245441134
 20
291.110459026329579
 30
0.0
 11
5280.7700261699792463
 21
291.110459026329579
 31
0.0
  0
ARC
  5
299F9
  8
0
 10
5280.7700260313804392
 20
291.1183330421296205
 30
0.0
 40
0.0078740157
 50
188.3285625956933131
 51
270.001008127313014
  0
LINE
  5
299FA
  8
0
 10
5280.4742030952311325
 20
291.1175941814295811
 30
0.0
 11
5280.4805368761899445
 21
291.1608606993796116
 31
0.0
  0
LINE
  5
299FB
  8
0
 10
5280.3663497566358274
 20
291.1177019306219904
 30
0.0
 11
5280.3600317490690941
 21
291.1608606993796116
 31
0.0
  0
LINE
  5
299FC
  8
0
 10
5280.466411982630234
 20
291.1108607126295738
 30
0.0
 11
5280.3741566426288045
 21
291.1108607126295738
 31
0.0
  0
ARC
  5
299FD
  8
0
 10
5280.4664121212299506
 20
291.1187347284296152
 30
0.0
 40
0.0078740157
 50
269.998991872686986
 51
351.6714374043066869
  0
ARC
  5
299FE
  8
0
 10
5280.3742653902163511
 20
291.1188606993795815
 30
0.0
 40
0.008
 50
188.3283669782894947
 51
270.0
  0
LINE
  5
299FF
  8
0
 10
5280.329193942029633
 20
291.1179322743295756
 30
0.0
 11
5280.3354782296073608
 21
291.1608606993796116
 31
0.0
  0
LINE
  5
29A00
  8
0
 10
5280.2213563768291351
 20
291.1179322743295756
 30
0.0
 11
5280.2150720892532263
 21
291.1608606993796116
 31
0.0
  0
LINE
  5
29A01
  8
0
 10
5280.321402829429644
 20
291.1111988055296251
 30
0.0
 11
5280.2291474894282146
 21
291.1111988055296251
 31
0.0
  0
ARC
  5
29A02
  8
0
 10
5280.3214029680302701
 20
291.1190728213296097
 30
0.0
 40
0.0078740157
 50
269.998991872686986
 51
351.6714374043066869
  0
ARC
  5
29A03
  8
0
 10
5280.229147350830317
 20
291.1190728213296097
 30
0.0
 40
0.0078740157
 50
188.3285625956933131
 51
270.001008127313014
  0
LINE
  5
29A04
  8
0
 10
5280.1324096371799897
 20
291.1175941814295811
 30
0.0
 11
5280.1387434181397111
 21
291.1608606993796116
 31
0.0
  0
LINE
  5
29A05
  8
0
 10
5280.1246185245800007
 20
291.1108607126295738
 30
0.0
 11
5280.0424510665798152
 21
291.1113394199795721
 31
0.0
  0
ARC
  5
29A06
  8
0
 10
5280.1246186631797173
 20
291.1187347284296152
 30
0.0
 40
0.0078740157
 50
269.998991872686986
 51
351.6714374043066869
  0
LINE
  5
29A07
  8
0
 10
5280.0502421791788947
 20
291.1180728887795794
 30
0.0
 11
5280.0565058822221545
 21
291.1608606993796116
 31
0.0
  0
LINE
  5
29A08
  8
0
 10
5279.9424046139793063
 20
291.1180728887795794
 30
0.0
 11
5279.9361409109369561
 21
291.1608606993796116
 31
0.0
  0
LINE
  5
29A09
  8
0
 10
5280.0424510665798152
 20
291.1113394199795721
 30
0.0
 11
5279.9501957265802048
 21
291.1113394199795721
 31
0.0
  0
ARC
  5
29A0A
  8
0
 10
5280.0424512051786223
 20
291.1192134357796135
 30
0.0
 40
0.0078740157
 50
269.998991872686986
 51
351.6714374043066869
  0
ARC
  5
29A0B
  8
0
 10
5279.9501955879786692
 20
291.1192134357796135
 30
0.0
 40
0.0078740157
 50
188.3285625956933131
 51
270.001008127313014
  0
LINE
  5
29A0C
  8
0
 10
5279.6244286343799104
 20
291.1178345512296914
 30
0.0
 11
5279.630727227630814
 21
291.1608606993796116
 31
0.0
  0
LINE
  5
29A0D
  8
0
 10
5279.5165752938473815
 20
291.1179423136720175
 30
0.0
 11
5279.5102924759275993
 21
291.1608606993796116
 31
0.0
  0
LINE
  5
29A0E
  8
0
 10
5279.6166375217799214
 20
291.1111010824296272
 30
0.0
 11
5279.5244909274260863
 21
291.1111010824296272
 31
0.0
  0
ARC
  5
29A0F
  8
0
 10
5279.5244909274260863
 20
291.1191010824296086
 30
0.0
 40
0.008
 50
188.3283669782894947
 51
270.0
  0
ARC
  5
29A10
  8
0
 10
5279.616637660379638
 20
291.1189750982296118
 30
0.0
 40
0.0078740157
 50
269.998991872686986
 51
351.6714374043066869
  0
LINE
  5
29A11
  8
0
 10
5279.3961935180295768
 20
291.1192775552796093
 30
0.0
 11
5279.4022808700710812
 21
291.1608606993796116
 31
0.0
  0
LINE
  5
29A12
  8
0
 10
5279.2883559528290789
 20
291.1192775552796093
 30
0.0
 11
5279.2822686007875745
 21
291.1608606993796116
 31
0.0
  0
LINE
  5
29A13
  8
0
 10
5279.3884024054295878
 20
291.1125440864796019
 30
0.0
 11
5279.2961470654290679
 21
291.1125440864796019
 31
0.0
  0
ARC
  5
29A14
  8
0
 10
5279.3884025440293044
 20
291.1204181022795865
 30
0.0
 40
0.0078740157
 50
269.998991872686986
 51
351.6714374043066869
  0
ARC
  5
29A15
  8
0
 10
5279.2961469268293513
 20
291.1204181022795865
 30
0.0
 40
0.0078740157
 50
188.3285625956933131
 51
270.001008127313014
  0
LINE
  5
29A16
  8
0
 10
5279.1986125440298565
 20
291.1175941814295811
 30
0.0
 11
5279.2049463249886685
 21
291.1608606993796116
 31
0.0
  0
LINE
  5
29A17
  8
0
 10
5279.0907749788293586
 20
291.1175941814295811
 30
0.0
 11
5279.0844411978696371
 21
291.1608606993796116
 31
0.0
  0
LINE
  5
29A18
  8
0
 10
5279.1908214314298675
 20
291.1108607126295738
 30
0.0
 11
5279.0985660914302571
 21
291.1108607126295738
 31
0.0
  0
ARC
  5
29A19
  8
0
 10
5279.1908215700286746
 20
291.1187347284296152
 30
0.0
 40
0.0078740157
 50
269.998991872686986
 51
351.6714374043066869
  0
ARC
  5
29A1A
  8
0
 10
5279.0985659528287215
 20
291.1187347284296152
 30
0.0
 40
0.0078740157
 50
188.3285625956933131
 51
270.001008127313014
  0
LINE
  5
29A1B
  8
0
 10
5279.0241045236298305
 20
291.1178451211795846
 30
0.0
 11
5279.0304015695473936
 21
291.1608606993796116
 31
0.0
  0
LINE
  5
29A1C
  8
0
 10
5278.9162669584293326
 20
291.1178451211795846
 30
0.0
 11
5278.909969912512679
 21
291.1608606993796116
 31
0.0
  0
LINE
  5
29A1D
  8
0
 10
5279.0163134110298415
 20
291.1111116523795772
 30
0.0
 11
5278.9240580710293216
 21
291.1111116523795772
 31
0.0
  0
ARC
  5
29A1E
  8
0
 10
5279.0163135496295581
 20
291.1189856681796186
 30
0.0
 40
0.0078740157
 50
269.998991872686986
 51
351.6714374043066869
  0
ARC
  5
29A1F
  8
0
 10
5278.924057932429605
 20
291.1189856681796186
 30
0.0
 40
0.0078740157
 50
188.3285625956933131
 51
270.001008127313014
  0
LINE
  5
29A20
  8
0
 10
5278.8037121189290701
 20
291.1177208675296129
 30
0.0
 11
5278.8100273543250296
 21
291.1608606993796116
 31
0.0
  0
LINE
  5
29A21
  8
0
 10
5278.6958745537285722
 20
291.1177208675296129
 30
0.0
 11
5278.6895593183344317
 21
291.1608606993796116
 31
0.0
  0
LINE
  5
29A22
  8
0
 10
5278.7959210063299906
 20
291.1109873987296055
 30
0.0
 11
5278.7036656663303802
 21
291.1109873987296055
 31
0.0
  0
ARC
  5
29A23
  8
0
 10
5278.7959211449287977
 20
291.1188614145297038
 30
0.0
 40
0.0078740157
 50
269.998991872686986
 51
351.6714374043066869
  0
ARC
  5
29A24
  8
0
 10
5278.7036655277288446
 20
291.1188614145297038
 30
0.0
 40
0.0078740157
 50
188.3285625956933131
 51
270.001008127313014
  0
LINE
  5
29A25
  8
0
 10
5278.3482188394300465
 20
291.1175941814295811
 30
0.0
 11
5278.354552620389768
 21
291.1608606993796116
 31
0.0
  0
LINE
  5
29A26
  8
0
 10
5278.2403812742295486
 20
291.1175941814295811
 30
0.0
 11
5278.2340474932698271
 21
291.1608606993796116
 31
0.0
  0
LINE
  5
29A27
  8
0
 10
5278.3404277268300575
 20
291.1108607126295738
 30
0.0
 11
5278.2481723868286281
 21
291.1108607126295738
 31
0.0
  0
ARC
  5
29A28
  8
0
 10
5278.3404278654297741
 20
291.1187347284296152
 30
0.0
 40
0.0078740157
 50
269.998991872686986
 51
351.6714374043066869
  0
ARC
  5
29A29
  8
0
 10
5278.248172248229821
 20
291.1187347284296152
 30
0.0
 40
0.0078740157
 50
188.3285625956933131
 51
270.001008127313014
  0
LINE
  5
29A2A
  8
0
 10
5282.1775620404296205
 20
291.118546450379597
 30
0.0
 11
5282.1837564188399483
 21
291.1608606993796116
 31
0.0
  0
LINE
  5
29A2B
  8
0
 10
5282.0697244752291226
 20
291.118546450379597
 30
0.0
 11
5282.0635300968197043
 21
291.1608606993796116
 31
0.0
  0
LINE
  5
29A2C
  8
0
 10
5282.1697709278287221
 20
291.1118129815795896
 30
0.0
 11
5282.0775155878291116
 21
291.1118129815795896
 31
0.0
  0
ARC
  5
29A2D
  8
0
 10
5282.1697710664293481
 20
291.1196869973795742
 30
0.0
 40
0.0078740157
 50
269.998991872686986
 51
351.6714374043066869
  0
ARC
  5
29A2E
  8
0
 10
5282.0775154492303045
 20
291.1196869973795742
 30
0.0
 40
0.0078740157
 50
188.3285625956933131
 51
270.001008127313014
  0
LINE
  5
29A2F
  8
0
 10
5282.0325886720802373
 20
291.1185141257295754
 30
0.0
 11
5282.038787782491454
 21
291.1608606993796116
 31
0.0
  0
LINE
  5
29A30
  8
0
 10
5281.9247511068788299
 20
291.1185141257295754
 30
0.0
 11
5281.9185519964676132
 21
291.1608606993796116
 31
0.0
  0
LINE
  5
29A31
  8
0
 10
5282.0247975594802483
 20
291.1117806569296249
 30
0.0
 11
5281.9325422194797284
 21
291.1117806569296249
 31
0.0
  0
ARC
  5
29A32
  8
0
 10
5282.0247976980799649
 20
291.1196546727296095
 30
0.0
 40
0.0078740157
 50
269.998991872686986
 51
351.6714374043066869
  0
ARC
  5
29A33
  8
0
 10
5281.9325420808800118
 20
291.1196546727296095
 30
0.0
 40
0.0078740157
 50
188.3285625956933131
 51
270.001008127313014
  0
LINE
  5
29A34
  8
0
 10
5281.6077413763796358
 20
291.1167901369295805
 30
0.0
 11
5281.6141928613287746
 21
291.1608606993796116
 31
0.0
  0
LINE
  5
29A35
  8
0
 10
5281.4999038111791378
 20
291.1167901369295805
 30
0.0
 11
5281.493452326229999
 21
291.1608606993796116
 31
0.0
  0
LINE
  5
29A36
  8
0
 10
5281.5999502637787373
 20
291.1100566681295732
 30
0.0
 11
5281.5076949237791268
 21
291.1100566681295732
 31
0.0
  0
ARC
  5
29A37
  8
0
 10
5281.5999504023793634
 20
291.1179306839296146
 30
0.0
 40
0.0078740157
 50
269.998991872686986
 51
351.6714374043066869
  0
ARC
  5
29A38
  8
0
 10
5281.5076947851803197
 20
291.1179306839296146
 30
0.0
 40
0.0078740157
 50
188.3285625956933131
 51
270.001008127313014
  0
LINE
  5
29A39
  8
0
 10
5281.3258826883802612
 20
291.1180706268796143
 30
0.0
 11
5281.3321467225414381
 21
291.1608606993796116
 31
0.0
  0
LINE
  5
29A3A
  8
0
 10
5281.2180451231788538
 20
291.1180706268796143
 30
0.0
 11
5281.2139894387037202
 21
291.1457753022144175
 31
0.0
  0
LINE
  5
29A3B
  8
0
 10
5281.3180915757802723
 20
291.111337158079607
 30
0.0
 11
5281.2258362357797523
 21
291.111337158079607
 31
0.0
  0
ARC
  5
29A3C
  8
0
 10
5281.3180917143799888
 20
291.1192111738797053
 30
0.0
 40
0.0078740157
 50
269.998991872686986
 51
351.6714374043066869
  0
ARC
  5
29A3D
  8
0
 10
5281.2258360971800357
 20
291.1192111738797053
 30
0.0
 40
0.0078740157
 50
188.3285625956933131
 51
270.001008127313014
  0
LINE
  5
29A3E
  8
0
 10
5278.6655623511760496
 20
291.1177019306256284
 30
0.0
 11
5278.6592443436293252
 21
291.1608606993796116
 31
0.0
  0
LINE
  5
29A3F
  8
0
 10
5278.6734779847565733
 20
291.1108606993796002
 30
0.0
 11
5278.7036656662739915
 21
291.1109873988309005
 31
0.0
  0
ARC
  5
29A40
  8
0
 10
5278.6734779847565733
 20
291.1188606993795815
 30
0.0
 40
0.008
 50
188.3283669519215948
 51
270.0
  0
LINE
  5
29A41
  8
0
 10
5277.1505992713791784
 20
292.2396008568795764
 30
0.0
 11
5277.1801268304334371
 21
292.2396008568795764
 31
0.0
  0
LINE
  5
29A42
  8
0
 10
5278.5580795863315871
 20
292.2396008568795764
 30
0.0
 11
5278.5876071453803888
 21
292.2396008568795764
 31
0.0
  0
ENDSEC
  0
EOF
