  0
SECTION
  2
HEADER
  9
$ACADVER
  1
AC1009
  9
$INSBASE
 10
4115.1634798864370168
 20
127.510141988500294
 30
0.0
  9
$EXTMIN
 10
4109.9239466651415569
 20
124.919983210478506
 30
-0.0000000000112498
  9
$EXTMAX
 10
4120.2972986002596372
 20
127.5176991464730065
 30
0.0000000000002956
  9
$LIMMIN
 10
0.0
 20
0.0
  9
$LIMMAX
 10
11.6929133858000007
 20
8.2677165353999982
  9
$ORTHOMODE
 70
     0
  9
$REGENMODE
 70
     1
  9
$FILLMODE
 70
     1
  9
$QTEXTMODE
 70
     0
  9
$MIRRTEXT
 70
     0
  9
$DRAGMODE
 70
     2
  9
$LTSCALE
 40
0.6431102362
  9
$OSMODE
 70
  4095
  9
$ATTMODE
 70
     1
  9
$TEXTSIZE
 40
0.2
  9
$TRACEWID
 40
0.05
  9
$TEXTSTYLE
  7
STANDARD
  9
$CLAYER
  8
0
  9
$CELTYPE
  6
BYLAYER
  9
$CECOLOR
 62
   256
  9
$DIMSCALE
 40
1.0
  9
$DIMASZ
 40
0.1875
  9
$DIMEXO
 40
0.0625
  9
$DIMDLI
 40
0.4443307087
  9
$DIMRND
 40
0.0
  9
$DIMDLE
 40
0.0
  9
$DIMEXE
 40
0.125
  9
$DIMTP
 40
0.01
  9
$DIMTM
 40
0.01
  9
$DIMTXT
 40
2.0
  9
$DIMCEN
 40
0.1052362205
  9
$DIMTSZ
 40
0.0
  9
$DIMTOL
 70
     1
  9
$DIMLIM
 70
     0
  9
$DIMTIH
 70
     1
  9
$DIMTOH
 70
     1
  9
$DIMSE1
 70
     0
  9
$DIMSE2
 70
     0
  9
$DIMTAD
 70
     0
  9
$DIMZIN
 70
     0
  9
$DIMBLK
  1

  9
$DIMASO
 70
     1
  9
$DIMSHO
 70
     1
  9
$DIMPOST
  1
\X
  9
$DIMAPOST
  1

  9
$DIMALT
 70
     1
  9
$DIMALTD
 70
     2
  9
$DIMALTF
 40
25.3999999999999986
  9
$DIMLFAC
 40
1.0
  9
$DIMTOFL
 70
     0
  9
$DIMTVP
 40
0.0
  9
$DIMTIX
 70
     0
  9
$DIMSOXD
 70
     0
  9
$DIMSAH
 70
     0
  9
$DIMBLK1
  1

  9
$DIMBLK2
  1

  9
$DIMSTYLE
  2
STANDARD
  9
$DIMCLRD
 70
     0
  9
$DIMCLRE
 70
     0
  9
$DIMCLRT
 70
     0
  9
$DIMTFAC
 40
1.0
  9
$DIMGAP
 40
0.09
  9
$LUNITS
 70
     2
  9
$LUPREC
 70
     4
  9
$SKETCHINC
 40
0.1
  9
$FILLETRAD
 40
0.0
  9
$AUNITS
 70
     0
  9
$AUPREC
 70
     0
  9
$MENU
  1
.
  9
$ELEVATION
 40
0.0
  9
$PELEVATION
 40
0.0
  9
$THICKNESS
 40
0.0
  9
$LIMCHECK
 70
     0
  9
$BLIPMODE
 70
     0
  9
$CHAMFERA
 40
0.0
  9
$CHAMFERB
 40
0.0
  9
$SKPOLY
 70
     0
  9
$TDCREATE
 40
2458060.468368056230247
  9
$TDUPDATE
 40
2460027.467766203917563
  9
$TDINDWG
 40
0.3204584491
  9
$TDUSRTIMER
 40
0.3204584491
  9
$USRTIMER
 70
     1
  9
$ANGBASE
 50
0.0
  9
$ANGDIR
 70
     0
  9
$PDMODE
 70
     0
  9
$PDSIZE
 40
0.3125
  9
$PLINEWID
 40
0.0
  9
$COORDS
 70
     1
  9
$SPLFRAME
 70
     0
  9
$SPLINETYPE
 70
     6
  9
$SPLINESEGS
 70
     8
  9
$ATTDIA
 70
     1
  9
$ATTREQ
 70
     1
  9
$HANDLING
 70
     1
  9
$HANDSEED
  5
7371
  9
$SURFTAB1
 70
     6
  9
$SURFTAB2
 70
     6
  9
$SURFTYPE
 70
     6
  9
$SURFU
 70
     6
  9
$SURFV
 70
     6
  9
$UCSNAME
  2

  9
$UCSORG
 10
0.0
 20
0.0
 30
0.0
  9
$UCSXDIR
 10
1.0
 20
0.0
 30
0.0
  9
$UCSYDIR
 10
0.0
 20
1.0
 30
0.0
  9
$PUCSNAME
  2

  9
$PUCSORG
 10
0.0
 20
0.0
 30
0.0
  9
$PUCSXDIR
 10
1.0
 20
0.0
 30
0.0
  9
$PUCSYDIR
 10
0.0
 20
1.0
 30
0.0
  9
$USERI1
 70
     0
  9
$USERI2
 70
     0
  9
$USERI3
 70
     0
  9
$USERI4
 70
     0
  9
$USERI5
 70
     0
  9
$USERR1
 40
0.0
  9
$USERR2
 40
0.0
  9
$USERR3
 40
0.0
  9
$USERR4
 40
0.0
  9
$USERR5
 40
0.0
  9
$WORLDVIEW
 70
     1
  9
$SHADEDGE
 70
     3
  9
$SHADEDIF
 70
    70
  9
$TILEMODE
 70
     1
  9
$MAXACTVP
 70
    64
  9
$PLIMCHECK
 70
     0
  9
$PEXTMIN
 10
1.0000000000000000E+20
 20
1.0000000000000000E+20
 30
1.0000000000000000E+20
  9
$PEXTMAX
 10
-1.0000000000000000E+20
 20
-1.0000000000000000E+20
 30
-1.0000000000000000E+20
  9
$PLIMMIN
 10
0.0
 20
0.0
  9
$PLIMMAX
 10
12.0
 20
9.0
  9
$UNITMODE
 70
     0
  9
$VISRETAIN
 70
     1
  9
$PLINEGEN
 70
     0
  9
$PSLTSCALE
 70
     1
  0
ENDSEC
  0
SECTION
  2
TABLES
  0
TABLE
  2
VPORT
 70
     1
  0
VPORT
  2
*ACTIVE
 70
     0
 10
0.0
 20
0.0
 11
1.0
 21
1.0
 12
39.5001489998885518
 22
0.2531581950773614
 13
0.0
 23
0.0
 14
1.0
 24
1.0
 15
0.0
 25
0.0
 16
0.0
 26
0.0
 36
53.3788880271138382
 17
4075.6104736328129547
 27
125.9656829833983949
 37
0.0
 40
4.120937538202182
 41
2.5251322751322749
 42
50.0
 43
0.0
 44
0.0
 50
0.0
 51
0.0
 71
     0
 72
   100
 73
     1
 74
     1
 75
     0
 76
     0
 77
     0
 78
     0
  0
ENDTAB
  0
TABLE
  2
LTYPE
 70
     2
  0
LTYPE
  2
CONTINUOUS
 70
     0
  3
Solid line
 72
    65
 73
     0
 40
0.0
  0
LTYPE
  2
PHANTOM2
 70
     0
  3
___ _ _ ___ _ _ ___ _ _ ___ _ _
 72
    65
 73
     6
 40
1.25
 49
0.625
 49
-0.125
 49
0.125
 49
-0.125
 49
0.125
 49
-0.125
  0
ENDTAB
  0
TABLE
  2
LAYER
 70
     2
  0
LAYER
  2
0
 70
     0
 62
   255
  6
CONTINUOUS
  0
LAYER
  2
DEFPOINTS
 70
     0
 62
     7
  6
CONTINUOUS
  0
ENDTAB
  0
TABLE
  2
STYLE
 70
     1
  0
STYLE
  2
STANDARD
 70
     0
 40
0.0
 41
0.8
 50
0.0
 71
     0
 42
0.2
  3
txt
  4

  0
ENDTAB
  0
TABLE
  2
VIEW
 70
     0
  0
ENDTAB
  0
TABLE
  2
UCS
 70
     0
  0
ENDTAB
  0
TABLE
  2
APPID
 70
     9
  0
APPID
  2
ACAD
 70
     0
  0
APPID
  2
ACAD_MLEADERVER
 70
     0
  0
APPID
  2
ACAD_EXEMPT_FROM_CAD_STANDARDS
 70
     0
  0
APPID
  2
ACAD_NAV_VCDISPLAY
 70
     0
  0
APPID
  2
ACAECLAYERSTANDARD
 70
     0
  0
APPID
  2
ACCMTRANSPARENCY
 70
     0
  0
APPID
  2
ACAD_DSTYLE_DIMJAG
 70
     0
  0
APPID
  2
ACAD_DSTYLE_DIMTALN
 70
     0
  0
APPID
  2
ACDBATTR
 70
     0
  0
ENDTAB
  0
TABLE
  2
DIMSTYLE
 70
     1
  0
DIMSTYLE
  2
STANDARD
 70
     0
  3

  4

  5

  6

  7

 40
1.0
 41
0.1875
 42
0.0625
 43
0.38
 44
0.125
 45
0.0
 46
0.0
 47
0.01
 48
0.01
140
0.15625
141
0.09
142
0.0
143
25.3999999999999986
144
1.0
145
0.0
146
1.0
147
0.09
 71
     1
 72
     0
 73
     1
 74
     1
 75
     0
 76
     0
 77
     0
 78
     4
170
     0
171
     2
172
     0
173
     0
174
     0
175
     0
176
     0
177
     0
178
     0
  0
ENDTAB
  0
ENDSEC
  0
SECTION
  2
BLOCKS
  0
BLOCK
  8
0
  2
$MODEL_SPACE
 70
     0
 10
0.0
 20
0.0
 30
0.0
  3
$MODEL_SPACE
  1

  0
ENDBLK
  5
21
  8
0
  0
BLOCK
 67
     1
  8
0
  2
$PAPER_SPACE
 70
     0
 10
0.0
 20
0.0
 30
0.0
  3
$PAPER_SPACE
  1

  0
ENDBLK
  5
1D
 67
     1
  8
0
  0
ENDSEC
  0
SECTION
  2
ENTITIES
  0
ATTDEF
  5
3930
  8
DEFPOINTS
 10
4115.1597803584272697
 20
127.5149734543956015
 30
0.0
 40
0.001
  1
K-18361T-CL
  3

  2
MODELNUMBER
 70
     0
1001
ACDBATTR
1070
     0
1070
     1
  0
ATTDEF
  5
3931
  8
DEFPOINTS
 10
4115.1597803584272697
 20
127.5133067877289932
 30
0.0
 40
0.001
  1
KATALYST AIR
  3

  2
TRADENAME
 70
     0
1001
ACDBATTR
1070
     0
1070
     1
  0
ATTDEF
  5
3932
  8
DEFPOINTS
 10
4115.1597803584272697
 20
127.5116401210622996
 30
0.0
 40
0.001
  1
SHOWERHEAD
  3

  2
PRODUCT
 70
     0
1001
ACDBATTR
1070
     0
1070
     1
  0
LINE
  5
7036
  8
0
 10
4110.1654483903876098
 20
125.4508585240002958
 30
0.0
 11
4110.1654483903876098
 21
125.0083388389003005
 31
0.0
  0
LINE
  5
7037
  8
0
 10
4110.9383012573871383
 20
124.9351510744002951
 30
0.0
 11
4110.9319674784883318
 21
124.9784175791002951
 31
0.0
  0
LINE
  5
7038
  8
0
 10
4111.0461388304865977
 20
124.9351510744002951
 30
0.0
 11
4111.0524726093872232
 21
124.9784175791002951
 31
0.0
  0
LINE
  5
7039
  8
0
 10
4111.9816083439873182
 20
124.9351510744002951
 30
0.0
 11
4111.9752745650876022
 21
124.9784175791002951
 31
0.0
  0
LINE
  5
703A
  8
0
 10
4112.0894459170876871
 20
124.9351510744002951
 30
0.0
 11
4112.0957796959874031
 21
124.9784175791002951
 31
0.0
  0
LINE
  5
703B
  8
0
 10
4113.024915430686633
 20
124.9351510744002951
 30
0.0
 11
4113.0185816516868726
 21
124.9784175791002951
 31
0.0
  0
LINE
  5
703C
  8
0
 10
4113.132753003687867
 20
124.9351510744002951
 30
0.0
 11
4113.1390867825866735
 21
124.9784175791002951
 31
0.0
  0
LINE
  5
703D
  8
0
 10
4110.9460922353873684
 20
124.928417579100298
 30
0.0
 11
4111.0383478524872771
 21
124.928417579100298
 31
0.0
  0
LINE
  5
703E
  8
0
 10
4111.9893993219866388
 20
124.928417579100298
 30
0.0
 11
4112.0816549390865475
 21
124.928417579100298
 31
0.0
  0
LINE
  5
703F
  8
0
 10
4113.0327064085877282
 20
124.928417579100298
 30
0.0
 11
4113.1249620257867718
 21
124.928417579100298
 31
0.0
  0
LINE
  5
7040
  8
0
 10
4114.0760134951869986
 20
124.928417579100298
 30
0.0
 11
4114.1682691123878612
 21
124.928417579100298
 31
0.0
  0
LINE
  5
7041
  8
0
 10
4115.1193205817871785
 20
124.928417579100298
 30
0.0
 11
4115.2115761989862222
 21
124.928417579100298
 31
0.0
  0
LINE
  5
7042
  8
0
 10
4116.1626276683873584
 20
124.928417579100298
 30
0.0
 11
4116.2548832855873115
 21
124.928417579100298
 31
0.0
  0
LINE
  5
7043
  8
0
 10
4117.2059347549866288
 20
124.928417579100298
 30
0.0
 11
4117.2981903721884009
 21
124.928417579100298
 31
0.0
  0
LINE
  5
7044
  8
0
 10
4118.2492418416868531
 20
124.928417579100298
 30
0.0
 11
4118.3414974587867619
 21
124.928417579100298
 31
0.0
  0
LINE
  5
7045
  8
0
 10
4119.292548928287033
 20
124.928417579100298
 30
0.0
 11
4119.3848045453869418
 21
124.928417579100298
 31
0.0
  0
LINE
  5
7046
  8
0
 10
4120.1355271305883434
 20
124.9784175791002951
 30
0.0
 11
4110.1953696501868762
 21
124.9784175791002951
 31
0.0
  0
LINE
  5
7047
  8
0
 10
4114.0682225172877224
 20
124.9351510744002951
 30
0.0
 11
4114.0618887382861431
 21
124.9784175791002951
 31
0.0
  0
LINE
  5
7048
  8
0
 10
4114.1760600902871374
 20
124.9351510744002951
 30
0.0
 11
4114.1823938691877629
 21
124.9784175791002951
 31
0.0
  0
LINE
  5
7049
  8
0
 10
4120.1654483903876098
 20
125.4508585240002958
 30
0.0
 11
4110.1654483903876098
 21
125.4508585240002958
 31
0.0
  0
LINE
  5
704A
  8
0
 10
4115.1115296038869928
 20
124.9351510744002951
 30
0.0
 11
4115.1051958248872324
 21
124.9784175791002951
 31
0.0
  0
LINE
  5
704B
  8
0
 10
4115.2193671768873173
 20
124.9351510744002951
 30
0.0
 11
4115.2257009558870777
 21
124.9784175791002951
 31
0.0
  0
LINE
  5
704C
  8
0
 10
4116.1548366904871727
 20
124.9351510744002951
 30
0.0
 11
4116.1485029115865473
 21
124.9784175791002951
 31
0.0
  0
LINE
  5
704D
  8
0
 10
4116.2626742634865877
 20
124.9351510744002951
 30
0.0
 11
4116.2690080424872576
 21
124.9784175791002951
 31
0.0
  0
LINE
  5
704E
  8
0
 10
4117.1981437770873526
 20
124.9351510744002951
 30
0.0
 11
4117.1918099981876367
 21
124.9784175791002951
 31
0.0
  0
LINE
  5
704F
  8
0
 10
4117.3059813500876771
 20
124.9351510744002951
 30
0.0
 11
4117.3123151290874375
 21
124.9784175791002951
 31
0.0
  0
LINE
  5
7050
  8
0
 10
4118.2414508636866231
 20
124.9351510744002951
 30
0.0
 11
4118.2351170847878166
 21
124.9784175791002951
 31
0.0
  0
LINE
  5
7051
  8
0
 10
4118.349288436786992
 20
124.9351510744002951
 30
0.0
 11
4118.3556222156867079
 21
124.9784175791002951
 31
0.0
  0
LINE
  5
7052
  8
0
 10
4119.284757950286803
 20
124.9351510744002951
 30
0.0
 11
4119.278424171387087
 21
124.9784175791002951
 31
0.0
  0
LINE
  5
7053
  8
0
 10
4119.3925955233871719
 20
124.9351510744002951
 30
0.0
 11
4119.3989293022868878
 21
124.9784175791002951
 31
0.0
  0
LINE
  5
7054
  8
0
 10
4120.1654483903876098
 20
125.4508585240002958
 30
0.0
 11
4120.1654483903876098
 21
125.0083388389003005
 31
0.0
  0
ARC
  5
7055
  8
0
 10
4120.1355271305883434
 20
125.0083388389003005
 30
0.0
 40
0.0299212598
 50
270.0
 51
0.0
  0
ARC
  5
7056
  8
0
 10
4110.1953696501868762
 20
125.0083388389003005
 30
0.0
 40
0.0299212598
 50
180.0
 51
270.0
  0
ARC
  5
7057
  8
0
 10
4114.1682691123878612
 20
124.936291594800295
 30
0.0
 40
0.0078740157
 50
270.0
 51
351.6716331295002078
  0
ARC
  5
7058
  8
0
 10
4114.0760134951869986
 20
124.936291594800295
 30
0.0
 40
0.0078740157
 50
188.3283668704989964
 51
270.0
  0
ARC
  5
7059
  8
0
 10
4113.1249620257867718
 20
124.936291594800295
 30
0.0
 40
0.0078740157
 50
270.0
 51
351.6716331295002078
  0
ARC
  5
705A
  8
0
 10
4113.0327064085877282
 20
124.936291594800295
 30
0.0
 40
0.0078740157
 50
188.3283668704989964
 51
270.0
  0
ARC
  5
705B
  8
0
 10
4111.9893993219866388
 20
124.936291594800295
 30
0.0
 40
0.0078740157
 50
188.3283668704989964
 51
270.0
  0
ARC
  5
705C
  8
0
 10
4112.0816549390865475
 20
124.936291594800295
 30
0.0
 40
0.0078740157
 50
270.0
 51
351.6716331295002078
  0
ARC
  5
705D
  8
0
 10
4117.2059347549866288
 20
124.936291594800295
 30
0.0
 40
0.0078740157
 50
188.3283668704989964
 51
270.0
  0
ARC
  5
705E
  8
0
 10
4117.2981903721884009
 20
124.936291594800295
 30
0.0
 40
0.0078740157
 50
270.0
 51
351.6716331295002078
  0
ARC
  5
705F
  8
0
 10
4111.0383478524872771
 20
124.936291594800295
 30
0.0
 40
0.0078740157
 50
270.0
 51
351.6716331295002078
  0
ARC
  5
7060
  8
0
 10
4110.9460922353873684
 20
124.936291594800295
 30
0.0
 40
0.0078740157
 50
188.3283668704989964
 51
270.0
  0
ARC
  5
7061
  8
0
 10
4118.2492418416868531
 20
124.936291594800295
 30
0.0
 40
0.0078740157
 50
188.3283668704989964
 51
270.0
  0
ARC
  5
7062
  8
0
 10
4118.3414974587867619
 20
124.936291594800295
 30
0.0
 40
0.0078740157
 50
270.0
 51
351.6716331295002078
  0
ARC
  5
7063
  8
0
 10
4119.292548928287033
 20
124.936291594800295
 30
0.0
 40
0.0078740157
 50
188.3283668704989964
 51
270.0
  0
ARC
  5
7064
  8
0
 10
4119.3848045453869418
 20
124.936291594800295
 30
0.0
 40
0.0078740157
 50
270.0
 51
351.6716331295002078
  0
ARC
  5
7065
  8
0
 10
4115.2115761989862222
 20
124.936291594800295
 30
0.0
 40
0.0078740157
 50
270.0
 51
351.6716331295002078
  0
ARC
  5
7066
  8
0
 10
4115.1193205817871785
 20
124.936291594800295
 30
0.0
 40
0.0078740157
 50
188.3283668704989964
 51
270.0
  0
ARC
  5
7067
  8
0
 10
4116.2548832855873115
 20
124.936291594800295
 30
0.0
 40
0.0078740157
 50
270.0
 51
351.6716331295002078
  0
ARC
  5
7068
  8
0
 10
4116.1626276683873584
 20
124.936291594800295
 30
0.0
 40
0.0078740157
 50
188.3283668704989964
 51
270.0
  0
LINE
  5
7069
  8
0
 10
4114.4449759494373211
 20
126.517787657800298
 30
0.0
 11
4114.4449759494373211
 21
125.4508585240002958
 31
0.0
  0
LINE
  5
706A
  8
0
 10
4114.668479886437126
 20
127.490141988500298
 30
0.0
 11
4114.668479886437126
 21
126.9719651952002977
 31
0.0
  0
LINE
  5
706B
  8
0
 10
4114.9596185165373754
 20
126.517787657800298
 30
0.0
 11
4114.9596185165373754
 21
126.0453467129002973
 31
0.0
  0
LINE
  5
706C
  8
0
 10
4114.9706068712375782
 20
127.3372155508986054
 30
0.0
 11
4114.9706068712375782
 21
126.9809476137481994
 31
0.0
  0
LINE
  5
706D
  8
0
 10
4115.3673412563366583
 20
126.0453467129002973
 30
0.0
 11
4114.9596185165373754
 21
126.0453467129002973
 31
0.0
  0
LINE
  5
706E
  8
0
 10
4115.356352901637365
 20
126.9809493239858966
 30
0.0
 11
4115.356352901637365
 21
127.3372116687006042
 31
0.0
  0
LINE
  5
706F
  8
0
 10
4115.3673412563366583
 20
126.0453467129002973
 30
0.0
 11
4115.3673412563366583
 21
126.517787657800298
 31
0.0
  0
LINE
  5
7070
  8
0
 10
4114.4449759494373211
 20
126.517787657800298
 30
0.0
 11
4115.8819838234367126
 21
126.517787657800298
 31
0.0
  0
LINE
  5
7071
  8
0
 10
4115.6584798864369077
 20
127.490141988500298
 30
0.0
 11
4115.6584798864369077
 21
126.9719651952002977
 31
0.0
  0
LINE
  5
7072
  8
0
 10
4115.8819838234367126
 20
126.517787657800298
 30
0.0
 11
4115.8819838234367126
 21
125.4508585240002958
 31
0.0
  0
LINE
  5
7073
  8
0
 10
4114.9847281420370564
 20
127.3430709206002973
 30
0.0
 11
4115.3422274857111915
 21
127.3430709206002973
 31
0.0
  0
LINE
  5
7074
  8
0
 10
4115.6384798864373806
 20
127.510141988500294
 30
0.0
 11
4114.6884798864375625
 21
127.510141988500294
 31
0.0
  0
ARC
  5
7075
  8
0
 10
4115.1634773641653737
 20
126.233139750058001
 30
0.0
 40
0.5280033311073798
 50
32.6225619723152604
 51
50.5464698824427288
  0
ARC
  5
7076
  8
0
 10
4115.1634798864370168
 20
126.233141988500293
 30
0.0
 40
0.5280000000000001
 50
129.4531705177761864
 51
147.3774950569018074
  0
ARC
  5
7077
  8
0
 10
4115.1635433261699291
 20
126.8918704679282001
 30
0.0
 40
0.4853418574241055
 50
90.007489443078839
 51
113.4236652216001033
  0
ARC
  5
7078
  8
0
 10
4115.1636359658168658
 20
126.8929721555471986
 30
0.0
 40
0.4842401908128644
 50
66.548166677134418
 51
90.0184676971599771
  0
ARC
  5
7079
  8
0
 10
4115.4284798864373442
 20
126.9719651952002977
 30
0.0
 40
0.23
 50
292.5403104635075806
 51
0.0
  0
ARC
  5
707A
  8
0
 10
4114.8984798864366894
 20
126.9719651952002977
 30
0.0
 40
0.23
 50
180.0
 51
247.4596895364923057
  0
ARC
  5
707B
  8
0
 10
4114.7834798864378172
 20
126.6948821751003038
 30
0.0
 40
0.07
 50
309.4558127082385113
 51
67.4596895364923341
  0
ARC
  5
707C
  8
0
 10
4115.5434798864362165
 20
126.6948821751003038
 30
0.0
 40
0.07
 50
112.5403104635075948
 51
230.5464698824060008
  0
ARC
  5
707D
  8
0
 10
4114.6884798864375625
 20
127.490141988500298
 30
0.0
 40
0.02
 50
90.0
 51
180.0
  0
ARC
  5
707E
  8
0
 10
4115.6384798864373806
 20
127.490141988500298
 30
0.0
 40
0.02
 50
0.0
 51
90.0
  0
ARC
  5
707F
  8
0
 10
4115.0766436977392004
 20
126.976456404574094
 30
0.0
 40
0.1061318968768907
 50
177.5746764021141075
 51
232.8318702342714914
  0
ARC
  5
7080
  8
0
 10
4115.1469042319258733
 20
127.0712742386059944
 30
0.0
 40
0.2241410844898894
 50
233.1632938155208876
 51
259.6147020042052986
  0
ARC
  5
7081
  8
0
 10
4115.1630074233498817
 20
127.1476033850259029
 30
0.0
 40
0.3021298169401144
 50
259.220290718734816
 51
270.0895979020335176
  0
ARC
  5
7082
  8
0
 10
4115.2503161496333632
 20
126.9764563562447961
 30
0.0
 40
0.1061318968768907
 50
307.1680978773750894
 51
2.4262738196575429
  0
ARC
  5
7083
  8
0
 10
4115.1800556682183014
 20
127.0712742293806059
 30
0.0
 40
0.2241410844898893
 50
280.3852661074777757
 51
306.836674296141382
  0
ARC
  5
7084
  8
0
 10
4115.1639525192767906
 20
127.1476033847629026
 30
0.0
 40
0.3021298169401144
 50
269.9103702096589927
 51
280.7796773929164829
  0
ENDSEC
  0
EOF
