  0
SECTION
  2
HEADER
  9
$ACADVER
  1
AC1009
  9
$INSBASE
 10
4125.6260051869167
 20
129.9558133287731039
 30
0.0
  9
$EXTMIN
 10
4120.5855533384201408
 20
127.3715939252680016
 30
-0.0000000000112498
  9
$EXTMAX
 10
4130.6706553318963415
 20
129.9694761250563886
 30
0.0000000000002956
  9
$LIMMIN
 10
0.0
 20
0.0
  9
$LIMMAX
 10
11.6929133858000007
 20
8.2677165353999982
  9
$ORTHOMODE
 70
     0
  9
$REGENMODE
 70
     1
  9
$FILLMODE
 70
     1
  9
$QTEXTMODE
 70
     0
  9
$MIRRTEXT
 70
     0
  9
$DRAGMODE
 70
     2
  9
$LTSCALE
 40
0.6431102362
  9
$OSMODE
 70
  4095
  9
$ATTMODE
 70
     1
  9
$TEXTSIZE
 40
0.2
  9
$TRACEWID
 40
0.05
  9
$TEXTSTYLE
  7
STANDARD
  9
$CLAYER
  8
0
  9
$CELTYPE
  6
BYLAYER
  9
$CECOLOR
 62
   256
  9
$DIMSCALE
 40
1.0
  9
$DIMASZ
 40
0.1875
  9
$DIMEXO
 40
0.0625
  9
$DIMDLI
 40
0.4443307087
  9
$DIMRND
 40
0.0
  9
$DIMDLE
 40
0.0
  9
$DIMEXE
 40
0.125
  9
$DIMTP
 40
0.01
  9
$DIMTM
 40
0.01
  9
$DIMTXT
 40
2.0
  9
$DIMCEN
 40
0.1052362205
  9
$DIMTSZ
 40
0.0
  9
$DIMTOL
 70
     1
  9
$DIMLIM
 70
     0
  9
$DIMTIH
 70
     1
  9
$DIMTOH
 70
     1
  9
$DIMSE1
 70
     0
  9
$DIMSE2
 70
     0
  9
$DIMTAD
 70
     0
  9
$DIMZIN
 70
     0
  9
$DIMBLK
  1

  9
$DIMASO
 70
     1
  9
$DIMSHO
 70
     1
  9
$DIMPOST
  1
\X
  9
$DIMAPOST
  1

  9
$DIMALT
 70
     1
  9
$DIMALTD
 70
     2
  9
$DIMALTF
 40
25.3999999999999986
  9
$DIMLFAC
 40
1.0
  9
$DIMTOFL
 70
     0
  9
$DIMTVP
 40
0.0
  9
$DIMTIX
 70
     0
  9
$DIMSOXD
 70
     0
  9
$DIMSAH
 70
     0
  9
$DIMBLK1
  1

  9
$DIMBLK2
  1

  9
$DIMSTYLE
  2
STANDARD
  9
$DIMCLRD
 70
     0
  9
$DIMCLRE
 70
     0
  9
$DIMCLRT
 70
     0
  9
$DIMTFAC
 40
1.0
  9
$DIMGAP
 40
0.09
  9
$LUNITS
 70
     2
  9
$LUPREC
 70
     4
  9
$SKETCHINC
 40
0.1
  9
$FILLETRAD
 40
0.0
  9
$AUNITS
 70
     0
  9
$AUPREC
 70
     0
  9
$MENU
  1
.
  9
$ELEVATION
 40
0.0
  9
$PELEVATION
 40
0.0
  9
$THICKNESS
 40
0.0
  9
$LIMCHECK
 70
     0
  9
$BLIPMODE
 70
     0
  9
$CHAMFERA
 40
0.0
  9
$CHAMFERB
 40
0.0
  9
$SKPOLY
 70
     0
  9
$TDCREATE
 40
2458060.468368056230247
  9
$TDUPDATE
 40
2460027.4681712971068919
  9
$TDINDWG
 40
0.3221251157
  9
$TDUSRTIMER
 40
0.3221251157
  9
$USRTIMER
 70
     1
  9
$ANGBASE
 50
0.0
  9
$ANGDIR
 70
     0
  9
$PDMODE
 70
     0
  9
$PDSIZE
 40
0.3125
  9
$PLINEWID
 40
0.0
  9
$COORDS
 70
     1
  9
$SPLFRAME
 70
     0
  9
$SPLINETYPE
 70
     6
  9
$SPLINESEGS
 70
     8
  9
$ATTDIA
 70
     1
  9
$ATTREQ
 70
     1
  9
$HANDLING
 70
     1
  9
$HANDSEED
  5
7497
  9
$SURFTAB1
 70
     6
  9
$SURFTAB2
 70
     6
  9
$SURFTYPE
 70
     6
  9
$SURFU
 70
     6
  9
$SURFV
 70
     6
  9
$UCSNAME
  2

  9
$UCSORG
 10
0.0
 20
0.0
 30
0.0
  9
$UCSXDIR
 10
1.0
 20
0.0
 30
0.0
  9
$UCSYDIR
 10
0.0
 20
1.0
 30
0.0
  9
$PUCSNAME
  2

  9
$PUCSORG
 10
0.0
 20
0.0
 30
0.0
  9
$PUCSXDIR
 10
1.0
 20
0.0
 30
0.0
  9
$PUCSYDIR
 10
0.0
 20
1.0
 30
0.0
  9
$USERI1
 70
     0
  9
$USERI2
 70
     0
  9
$USERI3
 70
     0
  9
$USERI4
 70
     0
  9
$USERI5
 70
     0
  9
$USERR1
 40
0.0
  9
$USERR2
 40
0.0
  9
$USERR3
 40
0.0
  9
$USERR4
 40
0.0
  9
$USERR5
 40
0.0
  9
$WORLDVIEW
 70
     1
  9
$SHADEDGE
 70
     3
  9
$SHADEDIF
 70
    70
  9
$TILEMODE
 70
     1
  9
$MAXACTVP
 70
    64
  9
$PLIMCHECK
 70
     0
  9
$PEXTMIN
 10
1.0000000000000000E+20
 20
1.0000000000000000E+20
 30
1.0000000000000000E+20
  9
$PEXTMAX
 10
-1.0000000000000000E+20
 20
-1.0000000000000000E+20
 30
-1.0000000000000000E+20
  9
$PLIMMIN
 10
0.0
 20
0.0
  9
$PLIMMAX
 10
12.0
 20
9.0
  9
$UNITMODE
 70
     0
  9
$VISRETAIN
 70
     1
  9
$PLINEGEN
 70
     0
  9
$PSLTSCALE
 70
     1
  0
ENDSEC
  0
SECTION
  2
TABLES
  0
TABLE
  2
VPORT
 70
     1
  0
VPORT
  2
*ACTIVE
 70
     0
 10
0.0
 20
0.0
 11
1.0
 21
1.0
 12
50.0176307023457412
 22
2.704852041763786
 13
0.0
 23
0.0
 14
1.0
 24
1.0
 15
0.0
 25
0.0
 16
0.0
 26
0.0
 36
53.3788880271138382
 17
4075.6104736328129547
 27
125.9656829833983949
 37
0.0
 40
4.006426817624118
 41
2.5251322751322749
 42
50.0
 43
0.0
 44
0.0
 50
0.0
 51
0.0
 71
     0
 72
   100
 73
     1
 74
     1
 75
     0
 76
     0
 77
     0
 78
     0
  0
ENDTAB
  0
TABLE
  2
LTYPE
 70
     2
  0
LTYPE
  2
CONTINUOUS
 70
     0
  3
Solid line
 72
    65
 73
     0
 40
0.0
  0
LTYPE
  2
PHANTOM2
 70
     0
  3
___ _ _ ___ _ _ ___ _ _ ___ _ _
 72
    65
 73
     6
 40
1.25
 49
0.625
 49
-0.125
 49
0.125
 49
-0.125
 49
0.125
 49
-0.125
  0
ENDTAB
  0
TABLE
  2
LAYER
 70
     2
  0
LAYER
  2
0
 70
     0
 62
   255
  6
CONTINUOUS
  0
LAYER
  2
DEFPOINTS
 70
     0
 62
     7
  6
CONTINUOUS
  0
ENDTAB
  0
TABLE
  2
STYLE
 70
     1
  0
STYLE
  2
STANDARD
 70
     0
 40
0.0
 41
0.8
 50
0.0
 71
     0
 42
0.2
  3
txt
  4

  0
ENDTAB
  0
TABLE
  2
VIEW
 70
     0
  0
ENDTAB
  0
TABLE
  2
UCS
 70
     0
  0
ENDTAB
  0
TABLE
  2
APPID
 70
     9
  0
APPID
  2
ACAD
 70
     0
  0
APPID
  2
ACAD_MLEADERVER
 70
     0
  0
APPID
  2
ACAD_EXEMPT_FROM_CAD_STANDARDS
 70
     0
  0
APPID
  2
ACAD_NAV_VCDISPLAY
 70
     0
  0
APPID
  2
ACAECLAYERSTANDARD
 70
     0
  0
APPID
  2
ACCMTRANSPARENCY
 70
     0
  0
APPID
  2
ACAD_DSTYLE_DIMJAG
 70
     0
  0
APPID
  2
ACAD_DSTYLE_DIMTALN
 70
     0
  0
APPID
  2
ACDBATTR
 70
     0
  0
ENDTAB
  0
TABLE
  2
DIMSTYLE
 70
     1
  0
DIMSTYLE
  2
STANDARD
 70
     0
  3

  4

  5

  6

  7

 40
1.0
 41
0.1875
 42
0.0625
 43
0.38
 44
0.125
 45
0.0
 46
0.0
 47
0.01
 48
0.01
140
0.15625
141
0.09
142
0.0
143
25.3999999999999986
144
1.0
145
0.0
146
1.0
147
0.09
 71
     1
 72
     0
 73
     1
 74
     1
 75
     0
 76
     0
 77
     0
 78
     4
170
     0
171
     2
172
     0
173
     0
174
     0
175
     0
176
     0
177
     0
178
     0
  0
ENDTAB
  0
ENDSEC
  0
SECTION
  2
BLOCKS
  0
BLOCK
  8
0
  2
$MODEL_SPACE
 70
     0
 10
0.0
 20
0.0
 30
0.0
  3
$MODEL_SPACE
  1

  0
ENDBLK
  5
21
  8
0
  0
BLOCK
 67
     1
  8
0
  2
$PAPER_SPACE
 70
     0
 10
0.0
 20
0.0
 30
0.0
  3
$PAPER_SPACE
  1

  0
ENDBLK
  5
1D
 67
     1
  8
0
  0
ENDSEC
  0
SECTION
  2
ENTITIES
  0
ATTDEF
  5
3930
  8
DEFPOINTS
 10
4125.6223056589060434
 20
129.9606447946684114
 30
0.0
 40
0.001
  1
K-18361T-CL
  3

  2
MODELNUMBER
 70
     0
1001
ACDBATTR
1070
     0
1070
     1
  0
ATTDEF
  5
3931
  8
DEFPOINTS
 10
4125.6223056589060434
 20
129.9589781280016894
 30
0.0
 40
0.001
  1
KATALYST AIR
  3

  2
TRADENAME
 70
     0
1001
ACDBATTR
1070
     0
1070
     1
  0
ATTDEF
  5
3932
  8
DEFPOINTS
 10
4125.6223056589060434
 20
129.9573114613349958
 30
0.0
 40
0.001
  1
SHOWERHEAD
  3

  2
PRODUCT
 70
     0
1001
ACDBATTR
1070
     0
1070
     1
  0
LINE
  5
7164
  8
0
 10
4120.6260051869157905
 20
127.8965298642731057
 30
0.0
 11
4120.6260051869157905
 21
127.4540101791730962
 31
0.0
  0
LINE
  5
7165
  8
0
 10
4121.3988580539162285
 20
127.380822414673105
 30
0.0
 11
4121.3925242750156031
 21
127.424088919373105
 31
0.0
  0
LINE
  5
7166
  8
0
 10
4121.5066956270156879
 20
127.380822414673105
 30
0.0
 11
4121.5130294059172229
 21
127.424088919373105
 31
0.0
  0
LINE
  5
7167
  8
0
 10
4122.4421651405164084
 20
127.380822414673105
 30
0.0
 11
4122.435831361615783
 21
127.424088919373105
 31
0.0
  0
LINE
  5
7168
  8
0
 10
4122.5500027136167773
 20
127.380822414673105
 30
0.0
 11
4122.5563364925155838
 21
127.424088919373105
 31
0.0
  0
LINE
  5
7169
  8
0
 10
4123.4854722272157233
 20
127.380822414673105
 30
0.0
 11
4123.4791384482159629
 21
127.424088919373105
 31
0.0
  0
LINE
  5
716A
  8
0
 10
4123.5933098002160477
 20
127.380822414673105
 30
0.0
 11
4123.5996435791157637
 21
127.424088919373105
 31
0.0
  0
LINE
  5
716B
  8
0
 10
4121.4066490319155491
 20
127.3740889193730936
 30
0.0
 11
4121.4989028487161704
 21
127.3740889193730936
 31
0.0
  0
LINE
  5
716C
  8
0
 10
4122.449957918815926
 20
127.3740889193730936
 30
0.0
 11
4122.5422099353172598
 21
127.3740889193730936
 31
0.0
  0
LINE
  5
716D
  8
0
 10
4123.4932650054161059
 20
127.3740889193730936
 30
0.0
 11
4123.5855170219174397
 21
127.3740889193730936
 31
0.0
  0
LINE
  5
716E
  8
0
 10
4124.5365720920162858
 20
127.3740889193730936
 30
0.0
 11
4124.6288241085158006
 21
127.3740889193730936
 31
0.0
  0
LINE
  5
716F
  8
0
 10
4125.5798791787156006
 20
127.3740889193730936
 30
0.0
 11
4125.672131195115071
 21
127.3740889193730936
 31
0.0
  0
LINE
  5
7170
  8
0
 10
4126.6231862653157805
 20
127.3740889193730936
 30
0.0
 11
4126.7154382818162048
 21
127.3740889193730936
 31
0.0
  0
LINE
  5
7171
  8
0
 10
4127.6664933519159604
 20
127.3740889193730936
 30
0.0
 11
4127.7587453684163847
 21
127.3740889193730936
 31
0.0
  0
LINE
  5
7172
  8
0
 10
4128.7098004385161403
 20
127.3740889193730936
 30
0.0
 11
4128.8020524550165646
 21
127.3740889193730936
 31
0.0
  0
LINE
  5
7173
  8
0
 10
4129.7531075251163202
 20
127.3740889193730936
 30
0.0
 11
4129.8453595416167445
 21
127.3740889193730936
 31
0.0
  0
LINE
  5
7174
  8
0
 10
4130.5960839271156146
 20
127.424088919373105
 30
0.0
 11
4120.655926446715057
 21
127.424088919373105
 31
0.0
  0
LINE
  5
7175
  8
0
 10
4124.5287793138159032
 20
127.380822414673105
 30
0.0
 11
4124.5224455348161428
 21
127.424088919373105
 31
0.0
  0
LINE
  5
7176
  8
0
 10
4124.6366168868162276
 20
127.380822414673105
 30
0.0
 11
4124.6429506657150341
 21
127.424088919373105
 31
0.0
  0
LINE
  5
7177
  8
0
 10
4130.6260051869167
 20
127.8965298642731057
 30
0.0
 11
4120.6260051869157905
 21
127.8965298642731057
 31
0.0
  0
LINE
  5
7178
  8
0
 10
4125.5720864004160831
 20
127.380822414673105
 30
0.0
 11
4125.5657526214163227
 21
127.424088919373105
 31
0.0
  0
LINE
  5
7179
  8
0
 10
4125.6799239734164075
 20
127.380822414673105
 30
0.0
 11
4125.6862577524152584
 21
127.424088919373105
 31
0.0
  0
LINE
  5
717A
  8
0
 10
4126.615393487016263
 20
127.380822414673105
 30
0.0
 11
4126.6090597081156375
 21
127.424088919373105
 31
0.0
  0
LINE
  5
717B
  8
0
 10
4126.7232310600156779
 20
127.380822414673105
 30
0.0
 11
4126.7295648390163478
 21
127.424088919373105
 31
0.0
  0
LINE
  5
717C
  8
0
 10
4127.6587005736173523
 20
127.380822414673105
 30
0.0
 11
4127.6523667947158174
 21
127.424088919373105
 31
0.0
  0
LINE
  5
717D
  8
0
 10
4127.7665381466167673
 20
127.380822414673105
 30
0.0
 11
4127.7728719256174372
 21
127.424088919373105
 31
0.0
  0
LINE
  5
717E
  8
0
 10
4128.7020076602157133
 20
127.380822414673105
 30
0.0
 11
4128.6956738813159973
 21
127.424088919373105
 31
0.0
  0
LINE
  5
717F
  8
0
 10
4128.8098452333151727
 20
127.380822414673105
 30
0.0
 11
4128.8161790122167076
 21
127.424088919373105
 31
0.0
  0
LINE
  5
7180
  8
0
 10
4129.7453147468158932
 20
127.380822414673105
 30
0.0
 11
4129.7389809679161772
 21
127.424088919373105
 31
0.0
  0
LINE
  5
7181
  8
0
 10
4129.8531523199162621
 20
127.380822414673105
 30
0.0
 11
4129.859486098815978
 21
127.424088919373105
 31
0.0
  0
LINE
  5
7182
  8
0
 10
4130.6260051869167
 20
127.8965298642731057
 30
0.0
 11
4130.6260051869167
 21
127.4540101791730962
 31
0.0
  0
ARC
  5
7183
  8
0
 10
4120.655926446715057
 20
127.4540101791730962
 30
0.0
 40
0.0299212598
 50
180.0
 51
270.0
  0
ARC
  5
7184
  8
0
 10
4125.5798773787137179
 20
127.3819629352911988
 30
0.0
 40
0.0078740161250103
 50
188.3283680215039908
 51
270.0130978350030091
  0
ARC
  5
7185
  8
0
 10
4121.4066490319155491
 20
127.3819629350731049
 30
0.0
 40
0.0078740157
 50
188.3283668704989964
 51
270.0
  0
ARC
  5
7186
  8
0
 10
4121.4989046486198276
 20
127.3819629352914973
 30
0.0
 40
0.0078740161241358
 50
269.9869028863591893
 51
351.6716319750818229
  0
ARC
  5
7187
  8
0
 10
4122.542211735220917
 20
127.3819629352910994
 30
0.0
 40
0.0078740161237808
 50
269.9869028797406258
 51
351.6716319766811125
  0
ARC
  5
7188
  8
0
 10
4122.4499561189140877
 20
127.3819629352912983
 30
0.0
 40
0.007874016125035
 50
188.3283680227318087
 51
270.0130971004051048
  0
ARC
  5
7189
  8
0
 10
4123.4932632055142676
 20
127.3819629352916962
 30
0.0
 40
0.0078740161250864
 50
188.3283680252897057
 51
270.0130971004044795
  0
ARC
  5
718A
  8
0
 10
4123.5855188219202319
 20
127.3819629352909999
 30
0.0
 40
0.0078740161236897
 50
269.9869021583788822
 51
351.6716319784582083
  0
ARC
  5
718B
  8
0
 10
4124.5365702921126285
 20
127.3819629352909004
 30
0.0
 40
0.0078740161240754
 50
188.3283680207233033
 51
270.013097113641777
  0
ARC
  5
718C
  8
0
 10
4124.6288259085204118
 20
127.3819629352907015
 30
0.0
 40
0.0078740161234055
 50
269.9869021583784274
 51
351.6716319795459071
  0
ARC
  5
718D
  8
0
 10
4130.5960839271156146
 20
127.4540101791730962
 30
0.0
 40
0.0299212598
 50
270.0
 51
0.0
  0
ARC
  5
718E
  8
0
 10
4125.6721329951187727
 20
127.3819629352909999
 30
0.0
 40
0.0078740161236897
 50
269.9869021583788822
 51
351.6716319784582083
  0
ARC
  5
718F
  8
0
 10
4126.6231844653120788
 20
127.3819629352911988
 30
0.0
 40
0.0078740161241104
 50
188.3283680224625982
 51
270.0130978416208904
  0
ARC
  5
7190
  8
0
 10
4126.7154400817198621
 20
127.3819629352914973
 30
0.0
 40
0.0078740161241358
 50
269.9869028863591893
 51
351.6716319750818229
  0
ARC
  5
7191
  8
0
 10
4127.6664915519149872
 20
127.3819629352918952
 30
0.0
 40
0.0078740161260213
 50
188.3283680260705069
 51
270.0130978217657116
  0
ARC
  5
7192
  8
0
 10
4127.7587471683191325
 20
127.3819629352914973
 30
0.0
 40
0.0078740161241356
 50
269.9869028929771844
 51
351.6716319760403735
  0
ARC
  5
7193
  8
0
 10
4128.7097986386133925
 20
127.3819629352912983
 30
0.0
 40
0.0078740161250267
 50
188.3283680223225076
 51
270.0130971070230999
  0
ARC
  5
7194
  8
0
 10
4128.8020542549202219
 20
127.3819629352910994
 30
0.0
 40
0.0078740161237806
 50
269.9869028863586209
 51
351.6716319776397199
  0
ARC
  5
7195
  8
0
 10
4129.7531057252126629
 20
127.3819629352912983
 30
0.0
 40
0.0078740161241268
 50
188.3283680232810866
 51
270.0130971136410949
  0
ARC
  5
7196
  8
0
 10
4129.8453613415185828
 20
127.3819629352911988
 30
0.0
 40
0.0078740161238372
 50
269.9869028929766728
 51
351.6716319772303905
  0
LINE
  5
7197
  8
0
 10
4124.9075012499160948
 20
128.491018053173093
 30
0.0
 11
4124.9075012499160948
 21
127.8965298642731057
 31
0.0
  0
LINE
  5
7198
  8
0
 10
4124.9370288089166934
 20
128.491018053173093
 30
0.0
 11
4124.9370288089166934
 21
128.9634589980730937
 31
0.0
  0
LINE
  5
7199
  8
0
 10
4125.1310051869168092
 20
129.9358133287730936
 30
0.0
 11
4125.1310051869168092
 21
129.829955464371892
 31
0.0
  0
LINE
  5
719A
  8
0
 10
4125.1710051869158633
 20
129.2911454290799895
 30
0.0
 11
4125.1710051869158633
 21
129.7816711930730946
 31
0.0
  0
LINE
  5
719B
  8
0
 10
4126.0839341191158383
 20
129.7887422608731072
 30
0.0
 11
4126.1180762547155609
 21
129.8228843965731016
 31
0.0
  0
LINE
  5
719C
  8
0
 10
4126.3445091239163958
 20
128.491018053173093
 30
0.0
 11
4126.3149815649157972
 21
128.491018053173093
 31
0.0
  0
LINE
  5
719D
  8
0
 10
4124.9370288089166934
 20
128.491018053173093
 30
0.0
 11
4124.9075012499160948
 21
128.491018053173093
 31
0.0
  0
LINE
  5
719E
  8
0
 10
4126.3149815649157972
 20
128.9634589980730937
 30
0.0
 11
4124.9370288089166934
 21
128.9634589980730937
 31
0.0
  0
LINE
  5
719F
  8
0
 10
4126.0810051869157178
 20
129.2911454290702125
 30
0.0
 11
4126.0810051869157178
 21
129.7816711929731071
 31
0.0
  0
LINE
  5
71A0
  8
0
 10
4126.1210051869156814
 20
129.9358133287730936
 30
0.0
 11
4126.1210051869156814
 21
129.8299554643731142
 31
0.0
  0
LINE
  5
71A1
  8
0
 10
4126.3149815649157972
 20
128.9634589980730937
 30
0.0
 11
4126.3149815649157972
 21
128.491018053173093
 31
0.0
  0
LINE
  5
71A2
  8
0
 10
4126.3445091239163958
 20
128.491018053173093
 30
0.0
 11
4126.3445091239163958
 21
127.8965298642731057
 31
0.0
  0
LINE
  5
71A3
  8
0
 10
4126.1010051869161543
 20
129.9558133287731039
 30
0.0
 11
4125.1510051869163362
 21
129.9558133287731039
 31
0.0
  0
ARC
  5
71A4
  8
0
 10
4125.3610051869163726
 20
129.4176365354730933
 30
0.0
 40
0.23
 50
215.0968012274925911
 51
247.4596895364923057
  0
ARC
  5
71A5
  8
0
 10
4125.2460051869156814
 20
129.1405535153731137
 30
0.0
 40
0.07
 50
309.453479799108095
 51
67.4596895364923341
  0
ARC
  5
71A6
  8
0
 10
4125.1510051869163362
 20
129.9358133287730936
 30
0.0
 40
0.02
 50
90.0
 51
180.0
  0
ARC
  5
71A7
  8
0
 10
4125.6260051869167
 20
128.6788133287730886
 30
0.0
 40
0.5280000000000001
 50
32.6225049430989174
 51
50.5465202008919192
  0
ARC
  5
71A8
  8
0
 10
4125.6260051869167
 20
128.6788133287730886
 30
0.0
 40
0.5280000000000001
 50
129.453479799108095
 51
147.3774950569010969
  0
ARC
  5
71A9
  8
0
 10
4125.891005186916118
 20
129.4176365354730933
 30
0.0
 40
0.23
 50
292.5403104635075806
 51
324.9031987725073805
  0
ARC
  5
71AA
  8
0
 10
4126.0060051869158997
 20
129.1405535153731137
 30
0.0
 40
0.07
 50
112.5403104635075948
 51
230.546520200891905
  0
ARC
  5
71AB
  8
0
 10
4126.1010051869161543
 20
129.9358133287730936
 30
0.0
 40
0.02
 50
0.0
 51
90.0
  0
ARC
  5
71AC
  8
0
 10
4126.0910051869159361
 20
129.7816711930730946
 30
0.0
 40
0.01
 50
135.0000000000914895
 51
180.0
  0
LINE
  5
71AD
  8
0
 10
4126.0801804446164169
 20
129.4176365354730933
 30
0.0
 11
4126.0801798445172608
 21
129.4136104082730867
 31
0.0
  0
ARC
  5
71AE
  8
0
 10
4125.1835196702568282
 20
129.2919405785148967
 30
0.0
 40
0.0125397191323685
 50
183.6355912495332063
 51
211.4612099060819048
  0
ARC
  5
71AF
  8
0
 10
4126.0677401303955776
 20
129.2921779305943062
 30
0.0
 40
0.0133051788365035
 50
329.3539105620321834
 51
355.5492882384684776
  0
ARC
  5
71B0
  8
0
 10
4126.1116435910216751
 20
129.829691028756514
 30
0.0
 40
0.0093653298866682
 50
313.3820045793075906
 51
1.6179951887446169
  0
LINE
  5
71B1
  8
0
 10
4125.1680762547157428
 20
129.7887422608731072
 30
0.0
 11
4125.1339341191160202
 21
129.8228843965738122
 31
0.0
  0
ARC
  5
71B2
  8
0
 10
4125.161005186915645
 20
129.7816711930730946
 30
0.0
 40
0.01
 50
0.0
 51
44.9999999999084466
  0
ARC
  5
71B3
  8
0
 10
4125.1403667828108155
 20
129.829691028756514
 30
0.0
 40
0.0093653298866682
 50
178.3820048184568918
 51
226.6179954142286022
  0
ENDSEC
  0
EOF
