  0
SECTION
  2
HEADER
  9
$ACADVER
  1
AC1009
  9
$INSBASE
 10
4540.2943928129980122
 20
271.4793848486087882
 30
0.0
  9
$EXTMIN
 10
4536.5879499684087932
 20
268.2116426463226162
 30
0.0
  9
$EXTMAX
 10
4540.3051796789441141
 20
274.7471270508950738
 30
0.0
  9
$LIMMIN
 10
0.0
 20
0.0
  9
$LIMMAX
 10
11.6929133858000007
 20
8.2677165353999982
  9
$ORTHOMODE
 70
     0
  9
$REGENMODE
 70
     1
  9
$FILLMODE
 70
     1
  9
$QTEXTMODE
 70
     0
  9
$MIRRTEXT
 70
     0
  9
$DRAGMODE
 70
     2
  9
$LTSCALE
 40
0.6431102362
  9
$OSMODE
 70
   575
  9
$ATTMODE
 70
     1
  9
$TEXTSIZE
 40
0.2
  9
$TRACEWID
 40
0.05
  9
$TEXTSTYLE
  7
STANDARD
  9
$CLAYER
  8
0
  9
$CELTYPE
  6
BYLAYER
  9
$CECOLOR
 62
   256
  9
$DIMSCALE
 40
1.0
  9
$DIMASZ
 40
0.1875
  9
$DIMEXO
 40
0.0625
  9
$DIMDLI
 40
0.4443307087
  9
$DIMRND
 40
0.0
  9
$DIMDLE
 40
0.0
  9
$DIMEXE
 40
0.125
  9
$DIMTP
 40
0.01
  9
$DIMTM
 40
0.01
  9
$DIMTXT
 40
2.0
  9
$DIMCEN
 40
0.1052362205
  9
$DIMTSZ
 40
0.0
  9
$DIMTOL
 70
     1
  9
$DIMLIM
 70
     0
  9
$DIMTIH
 70
     1
  9
$DIMTOH
 70
     1
  9
$DIMSE1
 70
     0
  9
$DIMSE2
 70
     0
  9
$DIMTAD
 70
     0
  9
$DIMZIN
 70
     0
  9
$DIMBLK
  1

  9
$DIMASO
 70
     1
  9
$DIMSHO
 70
     1
  9
$DIMPOST
  1
\X
  9
$DIMAPOST
  1

  9
$DIMALT
 70
     1
  9
$DIMALTD
 70
     2
  9
$DIMALTF
 40
25.3999999999999986
  9
$DIMLFAC
 40
1.0
  9
$DIMTOFL
 70
     0
  9
$DIMTVP
 40
0.0
  9
$DIMTIX
 70
     0
  9
$DIMSOXD
 70
     0
  9
$DIMSAH
 70
     0
  9
$DIMBLK1
  1

  9
$DIMBLK2
  1

  9
$DIMSTYLE
  2
STANDARD
  9
$DIMCLRD
 70
     0
  9
$DIMCLRE
 70
     0
  9
$DIMCLRT
 70
     0
  9
$DIMTFAC
 40
1.0
  9
$DIMGAP
 40
0.09
  9
$LUNITS
 70
     2
  9
$LUPREC
 70
     4
  9
$SKETCHINC
 40
0.1
  9
$FILLETRAD
 40
0.0
  9
$AUNITS
 70
     0
  9
$AUPREC
 70
     0
  9
$MENU
  1
.
  9
$ELEVATION
 40
0.0
  9
$PELEVATION
 40
0.0
  9
$THICKNESS
 40
0.0
  9
$LIMCHECK
 70
     0
  9
$BLIPMODE
 70
     0
  9
$CHAMFERA
 40
0.0
  9
$CHAMFERB
 40
0.0
  9
$SKPOLY
 70
     0
  9
$TDCREATE
 40
2458060.468368056230247
  9
$TDUPDATE
 40
2459382.7774305557832122
  9
$TDINDWG
 40
0.536546412
  9
$TDUSRTIMER
 40
0.536546412
  9
$USRTIMER
 70
     1
  9
$ANGBASE
 50
0.0
  9
$ANGDIR
 70
     0
  9
$PDMODE
 70
     0
  9
$PDSIZE
 40
0.3125
  9
$PLINEWID
 40
0.0
  9
$COORDS
 70
     2
  9
$SPLFRAME
 70
     0
  9
$SPLINETYPE
 70
     6
  9
$SPLINESEGS
 70
     8
  9
$ATTDIA
 70
     1
  9
$ATTREQ
 70
     1
  9
$HANDLING
 70
     1
  9
$HANDSEED
  5
20FC8
  9
$SURFTAB1
 70
     6
  9
$SURFTAB2
 70
     6
  9
$SURFTYPE
 70
     6
  9
$SURFU
 70
     6
  9
$SURFV
 70
     6
  9
$UCSNAME
  2

  9
$UCSORG
 10
0.0
 20
0.0
 30
0.0
  9
$UCSXDIR
 10
1.0
 20
0.0
 30
0.0
  9
$UCSYDIR
 10
0.0
 20
1.0
 30
0.0
  9
$PUCSNAME
  2

  9
$PUCSORG
 10
0.0
 20
0.0
 30
0.0
  9
$PUCSXDIR
 10
1.0
 20
0.0
 30
0.0
  9
$PUCSYDIR
 10
0.0
 20
1.0
 30
0.0
  9
$USERI1
 70
     0
  9
$USERI2
 70
     0
  9
$USERI3
 70
     0
  9
$USERI4
 70
     0
  9
$USERI5
 70
     0
  9
$USERR1
 40
0.0
  9
$USERR2
 40
0.0
  9
$USERR3
 40
0.0
  9
$USERR4
 40
0.0
  9
$USERR5
 40
0.0
  9
$WORLDVIEW
 70
     1
  9
$SHADEDGE
 70
     3
  9
$SHADEDIF
 70
    70
  9
$TILEMODE
 70
     1
  9
$MAXACTVP
 70
    64
  9
$PLIMCHECK
 70
     0
  9
$PEXTMIN
 10
1.0000000000000000E+20
 20
1.0000000000000000E+20
 30
1.0000000000000000E+20
  9
$PEXTMAX
 10
-1.0000000000000000E+20
 20
-1.0000000000000000E+20
 30
-1.0000000000000000E+20
  9
$PLIMMIN
 10
0.0
 20
0.0
  9
$PLIMMAX
 10
12.0
 20
9.0
  9
$UNITMODE
 70
     0
  9
$VISRETAIN
 70
     1
  9
$PLINEGEN
 70
     0
  9
$PSLTSCALE
 70
     1
  0
ENDSEC
  0
SECTION
  2
TABLES
  0
TABLE
  2
VPORT
 70
     1
  0
VPORT
  2
*ACTIVE
 70
     0
 10
0.0
 20
0.0
 11
1.0
 21
1.0
 12
627.0812083598519848
 22
138.8997797383889861
 13
0.0
 23
0.0
 14
1.0
 24
1.0
 15
0.0
 25
0.0
 16
0.0
 26
0.0
 36
60.4960186965801583
 17
3911.3653564453120453
 27
132.5796051025390057
 37
0.0
 40
9.1048634116519622
 41
2.4101748807631158
 42
50.0
 43
0.0
 44
0.0
 50
0.0
 51
0.0
 71
     0
 72
   100
 73
     1
 74
     1
 75
     0
 76
     0
 77
     0
 78
     0
  0
ENDTAB
  0
TABLE
  2
LTYPE
 70
     2
  0
LTYPE
  2
CONTINUOUS
 70
     0
  3
Solid line
 72
    65
 73
     0
 40
0.0
  0
LTYPE
  2
PHANTOM2
 70
     0
  3
___ _ _ ___ _ _ ___ _ _ ___ _ _
 72
    65
 73
     6
 40
1.25
 49
0.625
 49
-0.125
 49
0.125
 49
-0.125
 49
0.125
 49
-0.125
  0
ENDTAB
  0
TABLE
  2
LAYER
 70
     2
  0
LAYER
  2
0
 70
     0
 62
   255
  6
CONTINUOUS
  0
LAYER
  2
DEFPOINTS
 70
     0
 62
     7
  6
CONTINUOUS
  0
ENDTAB
  0
TABLE
  2
STYLE
 70
     1
  0
STYLE
  2
STANDARD
 70
     0
 40
0.0
 41
0.8
 50
0.0
 71
     0
 42
0.2
  3
txt
  4

  0
ENDTAB
  0
TABLE
  2
VIEW
 70
     1
  0
ENDTAB
  0
TABLE
  2
UCS
 70
     0
  0
ENDTAB
  0
TABLE
  2
APPID
 70
    11
  0
APPID
  2
ACAD
 70
     0
  0
APPID
  2
ACAD_MLEADERVER
 70
     0
  0
APPID
  2
ACAD_EXEMPT_FROM_CAD_STANDARDS
 70
     0
  0
APPID
  2
ACAD_NAV_VCDISPLAY
 70
     0
  0
APPID
  2
ACAECLAYERSTANDARD
 70
     0
  0
APPID
  2
ACCMTRANSPARENCY
 70
     0
  0
APPID
  2
ACAD_DSTYLE_DIMJAG
 70
     0
  0
APPID
  2
ACAD_DSTYLE_DIMTALN
 70
     0
  0
APPID
  2
ACDBATTR
 70
     0
  0
APPID
  2
ACADANNOTATIVE
 70
     0
  0
APPID
  2
DCO15
 70
     0
  0
ENDTAB
  0
TABLE
  2
DIMSTYLE
 70
     1
  0
DIMSTYLE
  2
STANDARD
 70
     0
  3

  4

  5

  6

  7

 40
1.0
 41
0.1875
 42
0.0625
 43
0.38
 44
0.125
 45
0.0
 46
0.0
 47
0.01
 48
0.01
140
0.15625
141
0.09
142
0.0
143
25.3999999999999986
144
1.0
145
0.0
146
1.0
147
0.09
 71
     1
 72
     0
 73
     1
 74
     1
 75
     0
 76
     0
 77
     0
 78
     4
170
     0
171
     2
172
     0
173
     0
174
     0
175
     0
176
     0
177
     0
178
     0
  0
ENDTAB
  0
ENDSEC
  0
SECTION
  2
BLOCKS
  0
BLOCK
  8
0
  2
$MODEL_SPACE
 70
     0
 10
0.0
 20
0.0
 30
0.0
  3
$MODEL_SPACE
  1

  0
ENDBLK
  5
21
  8
0
  0
BLOCK
 67
     1
  8
0
  2
$PAPER_SPACE
 70
     0
 10
0.0
 20
0.0
 30
0.0
  3
$PAPER_SPACE
  1

  0
ENDBLK
  5
1D
 67
     1
  8
0
  0
BLOCK
  8
0
  2
_FILLED
 70
     0
 10
0.0
 20
0.0
 30
0.0
  3
_FILLED
  1

  0
SOLID
  5
20DD6
  8
0
  6
BYBLOCK
 62
     0
 10
0.0
 20
0.0
 30
0.0
 11
-1.0
 21
0.1666666667
 31
0.0
 12
-1.0
 22
-0.1666666667
 32
0.0
 13
-1.0
 23
-0.1666666667
 33
0.0
  0
ENDBLK
  5
20DD7
  8
0
  6
BYBLOCK
 62
     0
  0
ENDSEC
  0
SECTION
  2
ENTITIES
  0
ATTDEF
  5
20106
  8
DEFPOINTS
 10
4540.2945130122752744
 20
271.4828910686086942
 30
0.0
 40
0.001
  1
K-18471IN-4FP
  3

  2
MODELNUMBER
 70
     0
1001
ACDBATTR
1070
     0
1070
     1
  0
ATTDEF
  5
20107
  8
DEFPOINTS
 10
4540.2945205032883678
 20
271.4812242282296211
 30
0.0
 40
0.001
  1
SYMBOL
  3

  2
TRADENAME
 70
     0
1001
ACDBATTR
1070
     0
1070
     1
  0
ATTDEF
  5
20108
  8
DEFPOINTS
 10
4540.2945131004689756
 20
271.4795577352754208
 30
0.0
 40
0.001
  1
VALVE TRIM
  3

  2
PRODUCT
 70
     0
1001
ACDBATTR
1070
     0
1070
     1
  0
LINE
  5
20E3A
  8
0
 10
4540.2943928129980122
 20
268.2116426463226162
 30
0.0
 11
4540.2943928129980122
 21
274.7471270508950738
 31
0.0
  0
LINE
  5
20E3B
  8
0
 10
4539.9146001642684496
 20
274.7139772209196735
 30
0.0
 11
4540.2943928129980122
 21
274.7471270508950738
 31
0.0
  0
LINE
  5
20E3C
  8
0
 10
4539.9132870699431805
 20
268.24506296382458
 30
0.0
 11
4540.2943928129980122
 21
268.2116426463226162
 31
0.0
  0
LINE
  5
20E3D
  8
0
 10
4539.8990227612102899
 20
274.6945621579180283
 30
0.0
 11
4539.8990227612102899
 21
268.2643618936828034
 31
0.0
  0
ARC
  5
20E3E
  8
0
 10
4569.6949729802599904
 20
270.8890837161030731
 30
0.0
 40
29.9141500375063707
 50
182.6972789789199112
 51
185.0365559179236925
  0
ARC
  5
20E3F
  8
0
 10
4570.3461320304641049
 20
271.373798050879202
 30
0.0
 40
30.5859334069144211
 50
179.7648772787190126
 51
181.63836091488389
  0
ARC
  5
20E40
  8
0
 10
4498.6550267046950466
 20
273.651815473307181
 30
0.0
 40
41.16174924753944
 50
357.0024200136264199
 51
359.8559426439941262
  0
ARC
  5
20E41
  8
0
 10
4581.5227821429671167
 20
271.2289207376120999
 30
0.0
 40
41.77058096700231
 50
175.2389605544923086
 51
176.8168893471340937
  0
ARC
  5
20E42
  8
0
 10
4539.9187227612110291
 20
274.6945621579180283
 30
0.0
 40
0.0197
 50
94.9883637731210513
 51
180.0000000000032117
  0
ARC
  5
20E43
  8
0
 10
4539.9166460555516096
 20
274.6936390598796152
 30
0.0
 40
0.0204408039382639
 50
95.7442720148908251
 51
173.6831239238819933
  0
ARC
  5
20E44
  8
0
 10
4539.9187227612110291
 20
268.2643618936828034
 30
0.0
 40
0.0197
 50
179.9999999999967031
 51
264.9883797940836985
  0
ARC
  5
20E45
  8
0
 10
4539.9158735586497642
 20
268.2645080193954072
 30
0.0
 40
0.019616322539853
 50
184.7575510083377139
 51
262.4232645095855219
  0
LINE
  5
20E46
  8
0
 10
4539.0660466673971314
 20
269.4813533525588127
 30
0.0
 11
4539.813964501798182
 21
269.4813533525588127
 31
0.0
  0
LINE
  5
20E47
  8
0
 10
4539.0463616280976566
 20
270.4262353066588958
 30
0.0
 11
4539.0463616280976566
 21
269.5010383919587866
 31
0.0
  0
LINE
  5
20E48
  8
0
 10
4539.0660466673971314
 20
269.4813533525588127
 30
0.0
 11
4539.0660466673971314
 21
270.4459200348587729
 31
0.0
  0
LINE
  5
20E49
  8
0
 10
4539.0660466673971314
 20
269.4813533525588127
 30
0.0
 11
4539.0463616280976566
 21
269.5010383919587866
 31
0.0
  0
LINE
  5
20E4A
  8
0
 10
4539.0660466673971314
 20
270.4459200348587729
 30
0.0
 11
4539.7759835443694101
 21
270.4459200348587729
 31
0.0
  0
LINE
  5
20E4B
  8
0
 10
4539.0463616280976566
 20
270.4262353066588958
 30
0.0
 11
4539.0660466673971314
 21
270.4459200348587729
 31
0.0
  0
LINE
  5
20E4C
  8
0
 10
4538.612896829096826
 20
270.3569517761588941
 30
0.0
 11
4539.0463616280976566
 21
270.3482824801349125
 31
0.0
  0
LINE
  5
20E4D
  8
0
 10
4538.606509632201778
 20
269.5701941141649058
 30
0.0
 11
4539.0463616280976566
 21
269.5789911581690035
 31
0.0
  0
LINE
  5
20E4E
  8
0
 10
4538.5936054113981299
 20
269.557019364222981
 30
0.0
 11
4538.5936054113981299
 21
270.4143184802576911
 31
0.0
  0
LINE
  5
20E4F
  8
0
 10
4538.4781912517491946
 20
270.4347970776642001
 30
0.0
 11
4538.5148652538982788
 21
270.4360777619588134
 31
0.0
  0
LINE
  5
20E50
  8
0
 10
4538.4401953689566653
 20
270.3938004107865254
 30
0.0
 11
4538.4401953689566653
 21
269.575112355554495
 31
0.0
  0
ARC
  5
20E51
  8
0
 10
4538.4795915474696812
 20
270.3953935725203905
 30
0.0
 40
0.0394283786848879
 50
92.0352830415475438
 51
182.3157508295776097
  0
ARC
  5
20E52
  8
0
 10
4538.480044294066829
 20
269.5763390712647833
 30
0.0
 40
0.0398678023452234
 50
181.7632456305059065
 51
270.0829782595661186
  0
ARC
  5
20E53
  8
0
 10
4538.5739203720786463
 20
269.5570193641243009
 30
0.0
 40
0.0196850393195202
 50
271.999996664429716
 51
0.0000002873617415
  0
ARC
  5
20E54
  8
0
 10
4538.5739203719967918
 20
270.4143184735588079
 30
0.0
 40
0.0196850394000028
 50
0.0000000000032569
 51
87.9999999999964047
  0
ARC
  5
20E55
  8
0
 10
4538.6064959165869368
 20
269.5515420321352735
 30
0.0
 40
0.0186520870724366
 50
89.9578681496065684
 51
133.7174498071599942
  0
LINE
  5
20E56
  8
0
 10
4538.6644715530983376
 20
273.4872588643588074
 30
0.0
 11
4539.8164470183801313
 21
273.4872588643588074
 31
0.0
  0
LINE
  5
20E57
  8
0
 10
4538.6526605295421177
 20
273.4754348775011863
 30
0.0
 11
4538.6526605295421177
 21
271.5699010193011986
 31
0.0
  0
LINE
  5
20E58
  8
0
 10
4538.6512863266134445
 20
273.4668626308991861
 30
0.0
 11
4538.6526605295421177
 21
273.4668866176596111
 31
0.0
  0
ARC
  5
20E59
  8
0
 10
4538.5518292118977115
 20
272.4521075595588968
 30
0.0
 40
0.8661417323000032
 50
93.4272615559055453
 51
116.2616346096875048
  0
LINE
  5
20E5A
  8
0
 10
4538.5109280591968854
 20
272.4945618494689938
 30
0.0
 11
4538.1154559152973889
 21
273.3428089127701242
 31
0.0
  0
LINE
  5
20E5B
  8
0
 10
4538.5109280591968854
 20
272.4945618494689938
 30
0.0
 11
4538.5109280591968854
 21
271.6270451940587805
 31
0.0
  0
ARC
  5
20E5C
  8
0
 10
4540.6031493935215622
 20
257.0987971630988227
 30
0.0
 40
16.4333969879955717
 50
98.7069286510750032
 51
103.0020886366358042
  0
ARC
  5
20E5D
  8
0
 10
4534.2595936300831454
 20
273.126891333535184
 30
0.0
 40
2.614624546099368
 50
346.73472357068988
 51
358.9315112926636857
  0
ARC
  5
20E5E
  8
0
 10
4577.7530683338600284
 20
264.9551170523913015
 30
0.0
 40
41.6427836371158335
 50
169.5237480359656956
 51
169.8866479507290137
  0
ARC
  5
20E5F
  8
0
 10
4530.3030380179961867
 20
273.4291952968313808
 30
0.0
 40
6.5580053776699989
 50
347.3831697964873229
 51
349.7960656673714084
  0
ARC
  5
20E60
  8
0
 10
4540.3677160452853059
 20
271.0851387711758775
 30
0.0
 40
3.7766987506344138
 50
166.0324261856947032
 51
176.1102024552617991
  0
ARC
  5
20E61
  8
0
 10
4543.6719378319312455
 20
270.8854650949265874
 30
0.0
 40
7.0868981102322408
 50
176.3118113253009938
 51
181.6420610602143881
  0
ARC
  5
20E62
  8
0
 10
4546.0178550355622065
 20
271.0782038898406086
 30
0.0
 40
9.4382085538491154
 50
182.4035598330833068
 51
191.5928765298874055
  0
ARC
  5
20E63
  8
0
 10
4548.8886419603450122
 20
271.4141826134463145
 30
0.0
 40
12.3204408911590892
 50
190.4405187337929988
 51
194.5596705212905988
  0
ARC
  5
20E64
  8
0
 10
4537.1620080208658692
 20
268.3769528327704279
 30
0.0
 40
0.2070325048724685
 50
196.8416312701301081
 51
209.2298845216932932
  0
ARC
  5
20E65
  8
0
 10
4537.020160177337857
 20
268.296789718292473
 30
0.0
 40
0.044107046180484
 50
208.3343971623380924
 51
255.2673650816684017
  0
ARC
  5
20E66
  8
0
 10
4536.0014820354535914
 20
264.6606106213002931
 30
0.0
 40
3.732074465199466
 50
72.9126404347627357
 51
74.3389024903671469
  0
ARC
  5
20E67
  8
0
 10
4537.1106850572132316
 20
269.6062724704088964
 30
0.0
 40
1.3783868086211359
 50
269.4758451624890085
 51
276.2914842419799015
  0
ARC
  5
20E68
  8
0
 10
4537.2607766631217601
 20
268.3013144101138892
 30
0.0
 40
0.0651341658664403
 50
270.8454606696224118
 51
293.9699598101249762
  0
ARC
  5
20E69
  8
0
 10
4537.268778384171128
 20
268.2693557648373144
 30
0.0
 40
0.033169441067708
 50
303.8156232713694749
 51
28.2839665612655189
  0
ARC
  5
20E6A
  8
0
 10
4576.1032637206026266
 20
276.771613087334913
 30
0.0
 40
39.7224220129536718
 50
191.0629221116996916
 51
192.3361086580806898
  0
ARC
  5
20E6B
  8
0
 10
4546.4314450445335751
 20
270.9701718317674022
 30
0.0
 40
9.4887728090059493
 50
186.6834282017005933
 51
191.0629221116996916
  0
ARC
  5
20E6C
  8
0
 10
4544.5489993767560009
 20
270.7495872483876838
 30
0.0
 40
7.5934471772052614
 50
183.7270082077457118
 51
186.6834282017005933
  0
ARC
  5
20E6D
  8
0
 10
4540.0086268951490638
 20
270.4538252644475733
 30
0.0
 40
3.0434518560121329
 50
176.5375971891920983
 51
183.7270082077457118
  0
ARC
  5
20E6E
  8
0
 10
4538.0138862766498278
 20
270.5745150448689174
 30
0.0
 40
1.045063465786743
 50
135.0041912969645068
 51
176.5375971891920983
  0
ARC
  5
20E6F
  8
0
 10
4538.1426041187578448
 20
270.3298460434166941
 30
0.0
 40
1.3116481073925981
 50
110.457972031043596
 51
131.4195058779667136
  0
ARC
  5
20E70
  8
0
 10
4538.2687962468498881
 20
270.3868514446189124
 30
0.0
 40
1.26360925554582
 50
78.9527052244666123
 51
93.093795894397104
  0
ARC
  5
20E71
  8
0
 10
4538.6526605294802721
 20
273.388134465917517
 30
0.0
 40
0.078740157447836
 50
90.9999982796078228
 51
177.3922408117009866
  0
ARC
  5
20E72
  8
0
 10
4538.4953432984702886
 20
273.3952995480345862
 30
0.0
 40
0.0787401574313452
 50
273.4269803873920068
 51
357.3922408369354002
  0
LINE
  5
20E73
  8
0
 10
4538.5740019139675496
 20
273.3917170069938152
 30
0.0
 11
4538.5740019139630022
 21
271.6536668634366833
 31
0.0
  0
ARC
  5
20E74
  8
0
 10
4538.6645015216290631
 20
273.4754178980235224
 30
0.0
 40
0.0118410042591896
 50
90.1450106871728138
 51
179.917840351958489
  0
LINE
  5
20E75
  8
0
 10
4538.6644715530983376
 20
271.5581250060587877
 30
0.0
 11
4539.7634937321181496
 21
271.5581250060587877
 31
0.0
  0
LINE
  5
20E76
  8
0
 10
4538.6512863242523963
 20
271.5785212395663848
 30
0.0
 11
4538.652660529496643
 21
271.5784972527587797
 31
0.0
  0
ARC
  5
20E77
  8
0
 10
4538.6526605294766341
 20
271.6572494045087183
 30
0.0
 40
0.0787401574494905
 50
182.60775918509691
 51
269.0000000044544208
  0
ARC
  5
20E78
  8
0
 10
4538.4953432983966195
 20
271.6500843223589072
 30
0.0
 40
0.0787401574999967
 50
2.6077591864983058
 51
78.5155386617960573
  0
ARC
  5
20E79
  8
0
 10
4538.6644197556297513
 20
271.5698841301929747
 30
0.0
 40
0.0117592382142811
 50
179.9177093842185116
 51
270.2523790985551955
  0
ARC
  5
20E7A
  8
0
 10
4536.9012887892404251
 20
273.0808404095661786
 30
0.0
 40
0.0276578866421575
 50
115.916245948118501
 51
185.6135729535519943
  0
ARC
  5
20E7B
  8
0
 10
4536.9132749105619951
 20
273.057425814181272
 30
0.0
 40
0.0539591583078738
 50
97.9030058699864867
 51
116.4973082513122051
  0
ARC
  5
20E7C
  8
0
 10
4492.1001213288946019
 20
268.0571376492194986
 30
0.0
 40
47.7350942252966206
 50
1.7097203162641601
 51
2.9325968725132432
  0
LINE
  5
20E7D
  8
0
 10
4538.4801020323457124
 20
269.5364713107290981
 30
0.0
 11
4538.5148652538982788
 21
269.535260075758913
 31
0.0
  0
LINE
  5
20E7E
  8
0
 10
4538.5148652538982788
 20
269.535260075758913
 30
0.0
 11
4538.5746073688969773
 21
269.5373463163588212
 31
0.0
  0
ARC
  5
20E7F
  8
0
 10
4538.6132904508322099
 20
270.3766328797728988
 30
0.0
 40
0.0196850394345205
 50
180.0
 51
268.8542381447148841
  0
LINE
  5
20E80
  8
0
 10
4538.5148652538982788
 20
270.4360777619588134
 30
0.0
 11
4538.5746073696991516
 21
270.4339915213587915
 31
0.0
  0
ARC
  5
20E81
  8
0
 10
4538.4771136152794497
 20
269.5880584244849842
 30
0.0
 40
0.0370053473132171
 50
183.9318972284183928
 51
271.6687522883896122
  0
ARC
  5
20E82
  8
0
 10
4538.5748200471725795
 20
269.5706295232674279
 30
0.0
 40
0.0188557812918521
 50
269.3537353332216071
 51
355.0467576311285143
  0
LINE
  5
20E83
  8
0
 10
4538.478191251858334
 20
269.5510687714834717
 30
0.0
 11
4538.5148652538982788
 21
269.5499481435588223
 31
0.0
  0
LINE
  5
20E84
  8
0
 10
4538.5148652538982788
 20
269.5499481435588223
 30
0.0
 11
4538.5746073689097102
 21
269.5517749414348145
 31
0.0
  0
ARC
  5
20E85
  8
0
 10
4538.4773892274852187
 20
270.0031902675664242
 30
0.0
 40
0.0425760661376971
 50
87.1979964803947638
 51
150.8780772617344041
  0
LINE
  5
20E86
  8
0
 10
4538.4794705455369694
 20
270.0457154309750081
 30
0.0
 11
4538.5148652538982788
 21
270.0465083370588104
 31
0.0
  0
LINE
  5
20E87
  8
0
 10
4538.5148652538982788
 20
270.0465083370588104
 30
0.0
 11
4538.5746073699983754
 21
270.0451669730588264
 31
0.0
  0
ARC
  5
20E88
  8
0
 10
4538.574547060257828
 20
270.0194160284592044
 30
0.0
 40
0.0257510152234211
 50
59.1379059514434502
 51
89.8658112432302687
  0
ARC
  5
20E89
  8
0
 10
4538.5823671397065482
 20
270.0316182063597239
 30
0.0
 40
0.0112742384616046
 50
4.5778364566866916
 51
61.4426988324855614
  0
ARC
  5
20E8A
  8
0
 10
4538.4842710962630008
 20
270.2085743031998959
 30
0.0
 40
0.0984611867152151
 50
92.7945924596309766
 51
105.6661962050502979
  0
ARC
  5
20E8B
  8
0
 10
4538.4661016862055476
 20
270.2691771048363876
 30
0.0
 40
0.035221497126597
 50
103.8281384638680009
 51
128.6011172840742063
  0
ARC
  5
20E8C
  8
0
 10
4538.4553004043846158
 20
270.284516476332783
 30
0.0
 40
0.0165333701359631
 50
132.5161967185501055
 51
156.0089497958088884
  0
ARC
  5
20E8D
  8
0
 10
4538.5751009888108456
 20
270.2778250588683022
 30
0.0
 40
0.0288090608895454
 50
50.0355193594058534
 51
90.9817647964531346
  0
LINE
  5
20E8E
  8
0
 10
4538.4794705715921737
 20
270.3069183942894824
 30
0.0
 11
4538.5148652538982788
 21
270.3073429898589097
 31
0.0
  0
LINE
  5
20E8F
  8
0
 10
4538.5148652538982788
 20
270.3073429898589097
 30
0.0
 11
4538.5746073688969773
 21
270.3066298905587814
 31
0.0
  0
ARC
  5
20E90
  8
0
 10
4538.4767755321909135
 20
270.3303134776986099
 30
0.0
 40
0.0367009934994659
 50
87.7893083855804548
 51
175.3494340277993899
  0
ARC
  5
20E91
  8
0
 10
4538.5752762299880487
 20
270.3479156923247047
 30
0.0
 40
0.0183937561882372
 50
4.802429736447241
 51
92.083931204790531
  0
LINE
  5
20E92
  8
0
 10
4538.4781912463968183
 20
270.3669871559588955
 30
0.0
 11
4538.5148652538982788
 21
270.368083397258772
 31
0.0
  0
LINE
  5
20E93
  8
0
 10
4538.5148652538982788
 20
270.368083397258772
 30
0.0
 11
4538.5746073696991516
 21
270.3662972834587777
 31
0.0
  0
ARC
  5
20E94
  8
0
 10
4538.2764400054065845
 20
269.3841023966537023
 30
0.0
 40
2.265786280153125
 50
91.9181935511074784
 51
98.0346373007038494
  0
ARC
  5
20E95
  8
0
 10
4537.9085677783268693
 20
271.2466556924152883
 30
0.0
 40
0.3844136115097132
 50
82.3491411676438219
 51
125.7165202642162001
  0
LINE
  5
20E96
  8
0
 10
4537.7182486000319841
 20
271.5806503556768803
 30
0.0
 11
4537.9190773720492871
 21
271.630925614675391
 31
0.0
  0
ENDSEC
  0
EOF
