  0
SECTION
  2
HEADER
  9
$ACADVER
  1
AC1009
  9
$INSBASE
 10
705.0963776977250745
 20
112.1116919361451068
 30
0.0
  9
$EXTMIN
 10
702.8436860370366048
 20
108.1903773098006951
 30
-0.0000000000000053
  9
$EXTMAX
 10
707.3433932733863685
 20
112.1183178769682058
 30
0.0000000000000099
  9
$LIMMIN
 10
0.0
 20
0.0
  9
$LIMMAX
 10
11.6929133858000007
 20
8.2677165353999982
  9
$ORTHOMODE
 70
     0
  9
$REGENMODE
 70
     1
  9
$FILLMODE
 70
     1
  9
$QTEXTMODE
 70
     0
  9
$MIRRTEXT
 70
     0
  9
$DRAGMODE
 70
     2
  9
$LTSCALE
 40
0.6431102362
  9
$OSMODE
 70
  4095
  9
$ATTMODE
 70
     1
  9
$TEXTSIZE
 40
0.2
  9
$TRACEWID
 40
0.05
  9
$TEXTSTYLE
  7
STANDARD
  9
$CLAYER
  8
0
  9
$CELTYPE
  6
BYLAYER
  9
$CECOLOR
 62
   256
  9
$DIMSCALE
 40
1.0
  9
$DIMASZ
 40
0.1875
  9
$DIMEXO
 40
0.0625
  9
$DIMDLI
 40
0.4443307087
  9
$DIMRND
 40
0.0
  9
$DIMDLE
 40
0.0
  9
$DIMEXE
 40
0.125
  9
$DIMTP
 40
0.01
  9
$DIMTM
 40
0.01
  9
$DIMTXT
 40
1.0
  9
$DIMCEN
 40
0.1052362205
  9
$DIMTSZ
 40
0.0
  9
$DIMTOL
 70
     1
  9
$DIMLIM
 70
     0
  9
$DIMTIH
 70
     0
  9
$DIMTOH
 70
     1
  9
$DIMSE1
 70
     0
  9
$DIMSE2
 70
     0
  9
$DIMTAD
 70
     0
  9
$DIMZIN
 70
     0
  9
$DIMBLK
  1

  9
$DIMASO
 70
     1
  9
$DIMSHO
 70
     1
  9
$DIMPOST
  1
\X
  9
$DIMAPOST
  1

  9
$DIMALT
 70
     1
  9
$DIMALTD
 70
     2
  9
$DIMALTF
 40
25.3999999999999986
  9
$DIMLFAC
 40
1.0
  9
$DIMTOFL
 70
     0
  9
$DIMTVP
 40
0.0
  9
$DIMTIX
 70
     0
  9
$DIMSOXD
 70
     0
  9
$DIMSAH
 70
     0
  9
$DIMBLK1
  1

  9
$DIMBLK2
  1

  9
$DIMSTYLE
  2
STANDARD
  9
$DIMCLRD
 70
     0
  9
$DIMCLRE
 70
     0
  9
$DIMCLRT
 70
     0
  9
$DIMTFAC
 40
1.0
  9
$DIMGAP
 40
0.09
  9
$LUNITS
 70
     2
  9
$LUPREC
 70
     4
  9
$SKETCHINC
 40
0.1
  9
$FILLETRAD
 40
0.0
  9
$AUNITS
 70
     0
  9
$AUPREC
 70
     0
  9
$MENU
  1
.
  9
$ELEVATION
 40
0.0
  9
$PELEVATION
 40
0.0
  9
$THICKNESS
 40
0.0
  9
$LIMCHECK
 70
     0
  9
$BLIPMODE
 70
     0
  9
$CHAMFERA
 40
0.0
  9
$CHAMFERB
 40
0.0
  9
$SKPOLY
 70
     0
  9
$TDCREATE
 40
2458172.5207638889551163
  9
$TDUPDATE
 40
2459104.3969907411374152
  9
$TDINDWG
 40
0.3882646065
  9
$TDUSRTIMER
 40
0.3882646065
  9
$USRTIMER
 70
     1
  9
$ANGBASE
 50
0.0
  9
$ANGDIR
 70
     0
  9
$PDMODE
 70
     0
  9
$PDSIZE
 40
0.3125
  9
$PLINEWID
 40
0.0
  9
$COORDS
 70
     1
  9
$SPLFRAME
 70
     0
  9
$SPLINETYPE
 70
     6
  9
$SPLINESEGS
 70
     8
  9
$ATTDIA
 70
     1
  9
$ATTREQ
 70
     1
  9
$HANDLING
 70
     1
  9
$HANDSEED
  5
BEF6
  9
$SURFTAB1
 70
     6
  9
$SURFTAB2
 70
     6
  9
$SURFTYPE
 70
     6
  9
$SURFU
 70
     6
  9
$SURFV
 70
     6
  9
$UCSNAME
  2

  9
$UCSORG
 10
0.0
 20
0.0
 30
0.0
  9
$UCSXDIR
 10
1.0
 20
0.0
 30
0.0
  9
$UCSYDIR
 10
0.0
 20
1.0
 30
0.0
  9
$PUCSNAME
  2

  9
$PUCSORG
 10
0.0
 20
0.0
 30
0.0
  9
$PUCSXDIR
 10
1.0
 20
0.0
 30
0.0
  9
$PUCSYDIR
 10
0.0
 20
1.0
 30
0.0
  9
$USERI1
 70
     0
  9
$USERI2
 70
     0
  9
$USERI3
 70
     0
  9
$USERI4
 70
     0
  9
$USERI5
 70
     0
  9
$USERR1
 40
0.0
  9
$USERR2
 40
0.0
  9
$USERR3
 40
0.0
  9
$USERR4
 40
0.0
  9
$USERR5
 40
0.0
  9
$WORLDVIEW
 70
     1
  9
$SHADEDGE
 70
     3
  9
$SHADEDIF
 70
    70
  9
$TILEMODE
 70
     1
  9
$MAXACTVP
 70
    64
  9
$PLIMCHECK
 70
     0
  9
$PEXTMIN
 10
1.0000000000000000E+20
 20
1.0000000000000000E+20
 30
1.0000000000000000E+20
  9
$PEXTMAX
 10
-1.0000000000000000E+20
 20
-1.0000000000000000E+20
 30
-1.0000000000000000E+20
  9
$PLIMMIN
 10
0.0
 20
0.0
  9
$PLIMMAX
 10
12.0
 20
9.0
  9
$UNITMODE
 70
     0
  9
$VISRETAIN
 70
     1
  9
$PLINEGEN
 70
     0
  9
$PSLTSCALE
 70
     1
  0
ENDSEC
  0
SECTION
  2
TABLES
  0
TABLE
  2
VPORT
 70
     1
  0
VPORT
  2
*ACTIVE
 70
     0
 10
0.0
 20
0.0
 11
1.0
 21
1.0
 12
238.351337947381495
 22
21.0212004734546909
 13
0.0
 23
0.0
 14
1.0
 24
1.0
 15
0.0
 25
0.0
 16
0.0
 26
0.0
 36
24.1179433675886514
 17
466.74220170783002
 27
89.133147119929788
 37
0.0
 40
3.9525414475465008
 41
2.005224660397074
 42
50.0
 43
0.0
 44
0.0
 50
0.0
 51
0.0
 71
     0
 72
   100
 73
     1
 74
     1
 75
     0
 76
     0
 77
     0
 78
     0
  0
ENDTAB
  0
TABLE
  2
LTYPE
 70
     2
  0
LTYPE
  2
CONTINUOUS
 70
     0
  3
Solid line
 72
    65
 73
     0
 40
0.0
  0
LTYPE
  2
PHANTOM2
 70
     0
  3
___ _ _ ___ _ _ ___ _ _ ___ _ _
 72
    65
 73
     6
 40
1.25
 49
0.625
 49
-0.125
 49
0.125
 49
-0.125
 49
0.125
 49
-0.125
  0
ENDTAB
  0
TABLE
  2
LAYER
 70
     2
  0
LAYER
  2
0
 70
     0
 62
   255
  6
CONTINUOUS
  0
LAYER
  2
DEFPOINTS
 70
     0
 62
     7
  6
CONTINUOUS
  0
ENDTAB
  0
TABLE
  2
STYLE
 70
     1
  0
STYLE
  2
STANDARD
 70
     0
 40
0.0
 41
0.8
 50
0.0
 71
     0
 42
0.2
  3
txt
  4

  0
ENDTAB
  0
TABLE
  2
VIEW
 70
     0
  0
ENDTAB
  0
TABLE
  2
UCS
 70
     0
  0
ENDTAB
  0
TABLE
  2
APPID
 70
    11
  0
APPID
  2
ACAD
 70
     0
  0
APPID
  2
ACAD_MLEADERVER
 70
     0
  0
APPID
  2
ACAD_EXEMPT_FROM_CAD_STANDARDS
 70
     0
  0
APPID
  2
ACAD_DSTYLE_DIMJAG
 70
     0
  0
APPID
  2
ACAD_DSTYLE_DIMTALN
 70
     0
  0
APPID
  2
ACAD_NAV_VCDISPLAY
 70
     0
  0
APPID
  2
ACAECLAYERSTANDARD
 70
     0
  0
APPID
  2
ACCMTRANSPARENCY
 70
     0
  0
APPID
  2
DCO15
 70
     0
  0
APPID
  2
ACDBATTR
 70
     0
  0
APPID
  2
ACADANNOTATIVE
 70
     0
  0
ENDTAB
  0
TABLE
  2
DIMSTYLE
 70
     1
  0
DIMSTYLE
  2
STANDARD
 70
     0
  3

  4

  5

  6

  7

 40
1.0
 41
0.1875
 42
0.0625
 43
0.38
 44
0.125
 45
0.0
 46
0.0
 47
0.01
 48
0.01
140
0.15625
141
0.09
142
0.0
143
25.3999999999999986
144
1.0
145
0.0
146
1.0
147
0.09
 71
     1
 72
     0
 73
     1
 74
     1
 75
     0
 76
     0
 77
     0
 78
     4
170
     0
171
     2
172
     0
173
     0
174
     0
175
     0
176
     0
177
     0
178
     0
  0
ENDTAB
  0
ENDSEC
  0
SECTION
  2
BLOCKS
  0
BLOCK
  8
0
  2
$MODEL_SPACE
 70
     0
 10
0.0
 20
0.0
 30
0.0
  3
$MODEL_SPACE
  1

  0
ENDBLK
  5
21
  8
0
  0
BLOCK
 67
     1
  8
0
  2
$PAPER_SPACE
 70
     0
 10
0.0
 20
0.0
 30
0.0
  3
$PAPER_SPACE
  1

  0
ENDBLK
  5
1D
 67
     1
  8
0
  0
ENDSEC
  0
SECTION
  2
ENTITIES
  0
ATTDEF
  5
829
  8
DEFPOINTS
 10
705.0920094639360514
 20
112.1092061324740996
 30
0.0
 40
0.001
  1
K-18471IN-4
  3

  2
MODELNUMBER
 70
     0
1001
ACDBATTR
1070
     0
1070
     1
  0
ATTDEF
  5
82A
  8
DEFPOINTS
 10
705.0920094639360514
 20
112.107539465807406
 30
0.0
 40
0.001
  1
SYMBOL
  3

  2
TRADENAME
 70
     0
1001
ACDBATTR
1070
     0
1070
     1
  0
ATTDEF
  5
82B
  8
DEFPOINTS
 10
705.0920094639360514
 20
112.1058727991407977
 30
0.0
 40
0.001
  1
VALVE TRIM
  3

  2
PRODUCT
 70
     0
1001
ACDBATTR
1070
     0
1070
     1
  0
LINE
  5
BDE2
  8
0
 10
707.3213150682294099
 20
112.1116919361451068
 30
0.0
 11
702.8714403272210802
 21
112.1116919361451068
 31
0.0
  0
LINE
  5
BDE3
  8
0
 10
702.8714403272210802
 20
112.1116919361451068
 30
0.0
 11
702.9049487260791693
 21
111.7289739771416066
 31
0.0
  0
ARC
  5
BDE4
  8
0
 10
705.1055482128684844
 20
129.3870290769440032
 30
0.0
 40
17.8102278585746205
 50
262.9582879482497901
 51
266.8658268407721721
  0
ARC
  5
BDE5
  8
0
 10
702.9245736506603635
 20
111.7306922132081013
 30
0.0
 40
0.0197
 50
185.00370177619169
 51
262.9582879482301223
  0
ARC
  5
BDE6
  8
0
 10
704.9496455708216445
 20
87.0479928596074615
 30
0.0
 40
24.58612686036669
 50
89.6580518132549571
 51
92.0486697182681439
  0
ARC
  5
BDE7
  8
0
 10
704.1426190008490948
 20
111.8771310453437025
 30
0.0
 40
0.2685278868011598
 50
254.4717666326089898
 51
267.6877905185058921
  0
LINE
  5
BDE8
  8
0
 10
704.231422203149009
 20
110.3001189193042961
 30
0.0
 11
705.9613331923013675
 21
110.3001189193042961
 31
0.0
  0
LINE
  5
BDE9
  8
0
 10
704.143585319625231
 20
110.4181476140042975
 30
0.0
 11
706.0491700758252591
 21
110.4181476140042975
 31
0.0
  0
LINE
  5
BDEA
  8
0
 10
704.1527341895395011
 20
110.3774454149472035
 30
0.0
 11
704.1514977617682689
 21
110.4181476140042975
 31
0.0
  0
ARC
  5
BDEB
  8
0
 10
704.231422203149009
 20
110.3788189193042939
 30
0.0
 40
0.0787
 50
180.9999999785339924
 51
270.0
  0
ARC
  5
BDEC
  8
0
 10
705.1674899934173482
 20
110.2779462170002063
 30
0.0
 40
0.8661417302032832
 50
183.4272612162137079
 51
200.4215314777545984
  0
ARC
  5
BDED
  8
0
 10
704.2238552026652769
 20
110.2212887092605058
 30
0.0
 40
0.0791925597001807
 50
3.531760150135145
 51
84.5169134574547343
  0
ARC
  5
BDEE
  8
0
 10
705.0921585101667688
 20
111.4729181557144955
 30
0.0
 40
1.701225997014058
 50
258.9639532404131046
 51
270.1420986325829858
  0
ARC
  5
BDEF
  8
0
 10
705.0013479034897728
 20
111.0073022372076963
 30
0.0
 40
1.2268371798483031
 50
244.1523345449058979
 51
258.9639532404131046
  0
ARC
  5
BDF0
  8
0
 10
704.6908510602685283
 20
110.3663699612757938
 30
0.0
 40
0.5146556917557447
 50
219.2974483117542093
 51
244.1523345449058979
  0
ARC
  5
BDF1
  8
0
 10
704.4537146757978689
 20
110.172293714944999
 30
0.0
 40
0.2082258397020149
 50
193.7297933234812035
 51
219.2974483117542093
  0
LINE
  5
BDF2
  8
0
 10
704.205556893246353
 20
110.1228727046321012
 30
0.0
 11
704.3153434669552553
 21
110.1228727046321012
 31
0.0
  0
LINE
  5
BDF3
  8
0
 10
705.8774119284951212
 20
110.1228727046321012
 30
0.0
 11
705.9871985022040235
 21
110.1228727046321012
 31
0.0
  0
ARC
  5
BDF4
  8
0
 10
704.4853517168949111
 20
110.1649597733650978
 30
0.0
 40
0.2829425112898784
 50
188.5543652091712943
 51
224.0248326696957974
  0
ARC
  5
BDF5
  8
0
 10
704.7682369181508193
 20
110.484543231357506
 30
0.0
 40
0.7092261634373017
 50
226.7076049063016967
 51
252.6632296478315141
  0
ARC
  5
BDF6
  8
0
 10
705.0411777893558565
 20
111.2914624346019963
 30
0.0
 40
1.5609490905357859
 50
251.9258193826071874
 51
264.635422042689413
  0
ARC
  5
BDF7
  8
0
 10
705.0953212592412456
 20
111.7435453350998955
 30
0.0
 40
2.0161474729817148
 50
264.3046346202849008
 51
270.0300223421241981
  0
ARC
  5
BDF8
  8
0
 10
697.3857910964766234
 20
109.1475748398890033
 30
0.0
 40
6.8891517219294887
 50
4.5717235052172791
 51
8.1387110793676172
  0
ARC
  5
BDF9
  8
0
 10
786.8070235160093944
 20
117.3800789912935016
 30
0.0
 40
82.9107794635734052
 50
185.3172627714945975
 51
185.9018116567941092
  0
ARC
  5
BDFA
  8
0
 10
709.9270897307062569
 20
109.2605449851575941
 30
0.0
 40
5.6060804541473068
 50
184.1498263923234049
 51
188.5056364809584863
  0
ARC
  5
BDFB
  8
0
 10
704.4727887240635482
 20
108.4453116870268019
 30
0.0
 40
0.0911922646067602
 50
188.795209384648814
 51
231.9541051728498076
  0
ARC
  5
BDFC
  8
0
 10
704.3166397993903729
 20
108.2587520301550938
 30
0.0
 40
0.1521702662500914
 50
28.4740640086336185
 51
48.9425316513996194
  0
ARC
  5
BDFD
  8
0
 10
705.9053248647792316
 20
108.9377091592109963
 30
0.0
 40
1.5762392410594379
 50
202.6262615637672013
 51
206.9161123720539024
  0
ARC
  5
BDFE
  8
0
 10
704.0590279099482132
 20
111.2792509972478996
 30
0.0
 40
3.119597067584388
 50
278.9130063438228149
 51
283.5116035988431804
  0
ARC
  5
BDFF
  8
0
 10
705.1335621907503537
 20
106.6648355715640974
 30
0.0
 40
1.618503277121319
 50
95.6520550816467647
 51
102.3316730651261963
  0
ARC
  5
BE00
  8
0
 10
705.0928393111141759
 20
107.0609462757258967
 30
0.0
 40
1.2203085932682469
 50
89.8338658727007271
 51
95.5810111698223182
  0
ARC
  5
BE01
  8
0
 10
704.4182861029310061
 20
108.4367285279011952
 30
0.0
 40
0.0360185399374252
 50
155.3948719325194929
 51
188.362591454099686
  0
ARC
  5
BE02
  8
0
 10
704.4862911768714184
 20
108.3435843784531016
 30
0.0
 40
0.14780270858884
 50
100.9314864868188977
 51
132.9745016813990901
  0
ARC
  5
BE03
  8
0
 10
704.7277105512426942
 20
107.1633362876307984
 30
0.0
 40
1.3524809908889559
 50
89.6819154631805162
 51
101.4916394347090005
  0
ARC
  5
BE04
  8
0
 10
704.9171878073009339
 20
93.8196244182652777
 30
0.0
 40
14.6972985492154304
 50
89.7041214647687184
 51
90.7094033206739851
  0
ARC
  5
BE05
  8
0
 10
704.9471567687202196
 20
118.0172855313850988
 30
0.0
 40
9.5006695478781218
 50
270.2769816453048861
 51
270.8999451001515126
  0
LINE
  5
BE06
  8
0
 10
702.9240419057706504
 20
111.7170655657358935
 30
0.0
 11
707.2687134896797261
 21
111.7170655657358935
 31
0.0
  0
ARC
  5
BE07
  8
0
 10
702.9240419057706504
 20
111.7367655657358938
 30
0.0
 40
0.0197
 50
185.0037017761966069
 51
270.0
  0
LINE
  5
BE08
  8
0
 10
707.3213150682294099
 20
112.1116919361451068
 30
0.0
 11
707.2878066693712071
 21
111.7289739771416066
 31
0.0
  0
LINE
  5
BE09
  8
0
 10
704.1317853196252372
 20
110.4299476140043055
 30
0.0
 11
704.1317853196252372
 21
111.6205128484803026
 31
0.0
  0
ARC
  5
BE0A
  8
0
 10
704.143585319625231
 20
110.4299476140043055
 30
0.0
 40
0.0118
 50
180.000000000008896
 51
270.0
  0
ARC
  5
BE0B
  8
0
 10
705.0872071825818921
 20
129.3870290769440032
 30
0.0
 40
17.8102278585746205
 50
273.1341731592278279
 51
277.0417120517502099
  0
ARC
  5
BE0C
  8
0
 10
707.268181744790013
 20
111.7306922132081013
 30
0.0
 40
0.0197
 50
277.0417120517698777
 51
354.9962982238081963
  0
ARC
  5
BE0D
  8
0
 10
705.243109824628732
 20
87.0479928596074615
 30
0.0
 40
24.58612686036669
 50
87.9513302817318419
 51
90.3419481867450429
  0
ARC
  5
BE0E
  8
0
 10
706.0501363946012816
 20
111.8771310453437025
 30
0.0
 40
0.2685278868011598
 50
272.3122094814939942
 51
285.5282333673910102
  0
LINE
  5
BE0F
  8
0
 10
706.040021205910648
 20
110.3774454149472035
 30
0.0
 11
706.0412576336822212
 21
110.4181476140042975
 31
0.0
  0
ARC
  5
BE10
  8
0
 10
705.9613331923013675
 20
110.3788189193042939
 30
0.0
 40
0.0787
 50
270.0
 51
359.000000021465894
  0
ARC
  5
BE11
  8
0
 10
705.0252654020330283
 20
110.2779462170002063
 30
0.0
 40
0.8661417302032832
 50
339.5784685222453732
 51
356.5727387837862921
  0
ARC
  5
BE12
  8
0
 10
705.9689001927850995
 20
110.2212887092605058
 30
0.0
 40
0.0791925597001807
 50
95.4830865425452373
 51
176.4682398498648013
  0
ARC
  5
BE13
  8
0
 10
705.1005968852837213
 20
111.4729181557144955
 30
0.0
 40
1.701225997014058
 50
269.8579013674169005
 51
281.0360467595868954
  0
ARC
  5
BE14
  8
0
 10
705.1914074919603763
 20
111.0073022372076963
 30
0.0
 40
1.2268371798483031
 50
281.0360467595868954
 51
295.8476654550941021
  0
ARC
  5
BE15
  8
0
 10
705.5019043351818482
 20
110.3663699612757938
 30
0.0
 40
0.5146556917557447
 50
295.8476654550941021
 51
320.7025516882457055
  0
ARC
  5
BE16
  8
0
 10
705.7390407196525075
 20
110.172293714944999
 30
0.0
 40
0.2082258397020149
 50
320.7025516882457055
 51
346.270206676518626
  0
ARC
  5
BE17
  8
0
 10
705.7074036785555791
 20
110.1649597733650978
 30
0.0
 40
0.2829425112898784
 50
315.9751673303039752
 51
351.4456347908284783
  0
ARC
  5
BE18
  8
0
 10
705.4245184772995572
 20
110.484543231357506
 30
0.0
 40
0.7092261634373017
 50
287.3367703521685144
 51
313.292395093697678
  0
ARC
  5
BE19
  8
0
 10
705.1515776060946337
 20
111.2914624346019963
 30
0.0
 40
1.5609490905357859
 50
275.364577957310587
 51
288.0741806173928126
  0
ARC
  5
BE1A
  8
0
 10
705.0974341362091309
 20
111.7435453350998955
 30
0.0
 40
2.0161474729817148
 50
269.9699776578758019
 51
275.6953653797149855
  0
ARC
  5
BE1B
  8
0
 10
712.8069642989737531
 20
109.1475748398890033
 30
0.0
 40
6.8891517219294887
 50
171.8612889206324041
 51
175.4282764947826934
  0
ARC
  5
BE1C
  8
0
 10
623.3857318794409821
 20
117.3800789912935016
 30
0.0
 40
82.9107794635734052
 50
354.0981883432057771
 51
354.6827372285052888
  0
ARC
  5
BE1D
  8
0
 10
700.2656656647441196
 20
109.2605449851575941
 30
0.0
 40
5.6060804541473068
 50
351.4943635190406894
 51
355.8501736076764814
  0
ARC
  5
BE1E
  8
0
 10
705.7199666713867146
 20
108.4453116870268019
 30
0.0
 40
0.0911922646067602
 50
308.0458948271502209
 51
351.2047906153509871
  0
ARC
  5
BE1F
  8
0
 10
705.8761155960600036
 20
108.2587520301550938
 30
0.0
 40
0.1521702662500914
 50
131.0574683486003948
 51
151.5259359913663104
  0
ARC
  5
BE20
  8
0
 10
704.2874305306711449
 20
108.9377091592109963
 30
0.0
 40
1.5762392410594379
 50
333.0838876279468082
 51
337.3737384362327134
  0
ARC
  5
BE21
  8
0
 10
705.6318414482833532
 20
108.2551751296100946
 30
0.0
 40
0.0684947610635602
 50
313.0932310172144071
 51
333.0838876279468082
  0
ARC
  5
BE22
  8
0
 10
705.6479473919551992
 20
108.2609734311936052
 30
0.0
 40
0.0636964922046564
 50
272.201113149812727
 51
298.8028764656828002
  0
ARC
  5
BE23
  8
0
 10
706.1337274855018222
 20
111.2792509972470043
 30
0.0
 40
3.119597067583419
 50
256.4883964011567059
 51
261.0869936561837221
  0
ARC
  5
BE24
  8
0
 10
705.0591932047000228
 20
106.6648355715640974
 30
0.0
 40
1.618503277121319
 50
77.6683269348737895
 51
84.3479449183532353
  0
ARC
  5
BE25
  8
0
 10
705.0999160843359732
 20
107.0609462757258967
 30
0.0
 40
1.2203085932682469
 50
84.4189888301776961
 51
90.1661341272992587
  0
ARC
  5
BE26
  8
0
 10
705.774469292519484
 20
108.4367285279011952
 30
0.0
 40
0.0360185399374252
 50
351.6374085459002004
 51
24.6051280674805213
  0
ARC
  5
BE27
  8
0
 10
705.7064642185790717
 20
108.3435843784531016
 30
0.0
 40
0.14780270858884
 50
47.0254983186008815
 51
79.0685135131810597
  0
ARC
  5
BE28
  8
0
 10
705.4650448442075685
 20
107.1633362876307984
 30
0.0
 40
1.3524809908889559
 50
78.5083605652910137
 51
90.3180845368194838
  0
ARC
  5
BE29
  8
0
 10
705.2755675881494426
 20
93.8196244182652777
 30
0.0
 40
14.6972985492154304
 50
89.2905966793260006
 51
90.2958785352312816
  0
ARC
  5
BE2A
  8
0
 10
705.2455986267301569
 20
118.0172855313850988
 30
0.0
 40
9.5006695478781218
 50
269.1000548998486011
 51
269.7230183546951139
  0
ARC
  5
BE2B
  8
0
 10
707.2687134896797261
 20
111.7367655657358938
 30
0.0
 40
0.0197
 50
270.0
 51
354.9962982238034215
  0
LINE
  5
BE2C
  8
0
 10
706.0609700758252529
 20
110.4299476140043055
 30
0.0
 11
706.0609700758252529
 21
111.6205128484803026
 31
0.0
  0
ARC
  5
BE2D
  8
0
 10
706.0491700758252591
 20
110.4299476140043055
 30
0.0
 40
0.0118
 50
270.0
 51
359.9999999999910187
  0
ARC
  5
BE2E
  8
0
 10
704.5609139471670233
 20
108.2551751296100946
 30
0.0
 40
0.0684947610635602
 50
206.9161123720531066
 51
226.9067689827855077
  0
ARC
  5
BE2F
  8
0
 10
704.5448080034949498
 20
108.2609734311936052
 30
0.0
 40
0.0636964922046564
 50
241.1971235343171998
 51
267.798886850187273
  0
ENDSEC
  0
EOF
