  0
SECTION
  2
HEADER
  9
$ACADVER
  1
AC1009
  9
$INSBASE
 10
700.0585847171349769
 20
108.3209097575738014
 30
0.0
  9
$EXTMIN
 10
696.1440722328942456
 20
105.052751655037298
 30
-0.000000000000013
  9
$EXTMAX
 10
700.1142937189097211
 20
111.5947728879092011
 30
0.0000000000000023
  9
$LIMMIN
 10
0.0
 20
0.0
  9
$LIMMAX
 10
11.6929133858000007
 20
8.2677165353999982
  9
$ORTHOMODE
 70
     0
  9
$REGENMODE
 70
     1
  9
$FILLMODE
 70
     1
  9
$QTEXTMODE
 70
     0
  9
$MIRRTEXT
 70
     0
  9
$DRAGMODE
 70
     2
  9
$LTSCALE
 40
0.6431102362
  9
$OSMODE
 70
  4095
  9
$ATTMODE
 70
     1
  9
$TEXTSIZE
 40
0.2
  9
$TRACEWID
 40
0.05
  9
$TEXTSTYLE
  7
STANDARD
  9
$CLAYER
  8
0
  9
$CELTYPE
  6
BYLAYER
  9
$CECOLOR
 62
   256
  9
$DIMSCALE
 40
1.0
  9
$DIMASZ
 40
0.1875
  9
$DIMEXO
 40
0.0625
  9
$DIMDLI
 40
0.4443307087
  9
$DIMRND
 40
0.0
  9
$DIMDLE
 40
0.0
  9
$DIMEXE
 40
0.125
  9
$DIMTP
 40
0.01
  9
$DIMTM
 40
0.01
  9
$DIMTXT
 40
1.0
  9
$DIMCEN
 40
0.1052362205
  9
$DIMTSZ
 40
0.0
  9
$DIMTOL
 70
     1
  9
$DIMLIM
 70
     0
  9
$DIMTIH
 70
     0
  9
$DIMTOH
 70
     1
  9
$DIMSE1
 70
     0
  9
$DIMSE2
 70
     0
  9
$DIMTAD
 70
     0
  9
$DIMZIN
 70
     0
  9
$DIMBLK
  1

  9
$DIMASO
 70
     1
  9
$DIMSHO
 70
     1
  9
$DIMPOST
  1
\X
  9
$DIMAPOST
  1

  9
$DIMALT
 70
     1
  9
$DIMALTD
 70
     2
  9
$DIMALTF
 40
25.3999999999999986
  9
$DIMLFAC
 40
1.0
  9
$DIMTOFL
 70
     0
  9
$DIMTVP
 40
0.0
  9
$DIMTIX
 70
     0
  9
$DIMSOXD
 70
     0
  9
$DIMSAH
 70
     0
  9
$DIMBLK1
  1

  9
$DIMBLK2
  1

  9
$DIMSTYLE
  2
STANDARD
  9
$DIMCLRD
 70
     0
  9
$DIMCLRE
 70
     0
  9
$DIMCLRT
 70
     0
  9
$DIMTFAC
 40
1.0
  9
$DIMGAP
 40
0.09
  9
$LUNITS
 70
     2
  9
$LUPREC
 70
     4
  9
$SKETCHINC
 40
0.1
  9
$FILLETRAD
 40
0.0
  9
$AUNITS
 70
     0
  9
$AUPREC
 70
     0
  9
$MENU
  1
.
  9
$ELEVATION
 40
0.0
  9
$PELEVATION
 40
0.0
  9
$THICKNESS
 40
0.0
  9
$LIMCHECK
 70
     0
  9
$BLIPMODE
 70
     0
  9
$CHAMFERA
 40
0.0
  9
$CHAMFERB
 40
0.0
  9
$SKPOLY
 70
     0
  9
$TDCREATE
 40
2458172.5207638889551163
  9
$TDUPDATE
 40
2459104.3982175928540528
  9
$TDINDWG
 40
0.3898039583
  9
$TDUSRTIMER
 40
0.3898039583
  9
$USRTIMER
 70
     1
  9
$ANGBASE
 50
0.0
  9
$ANGDIR
 70
     0
  9
$PDMODE
 70
     0
  9
$PDSIZE
 40
0.3125
  9
$PLINEWID
 40
0.0
  9
$COORDS
 70
     1
  9
$SPLFRAME
 70
     0
  9
$SPLINETYPE
 70
     6
  9
$SPLINESEGS
 70
     8
  9
$ATTDIA
 70
     1
  9
$ATTREQ
 70
     1
  9
$HANDLING
 70
     1
  9
$HANDSEED
  5
BE4E
  9
$SURFTAB1
 70
     6
  9
$SURFTAB2
 70
     6
  9
$SURFTYPE
 70
     6
  9
$SURFU
 70
     6
  9
$SURFV
 70
     6
  9
$UCSNAME
  2

  9
$UCSORG
 10
0.0
 20
0.0
 30
0.0
  9
$UCSXDIR
 10
1.0
 20
0.0
 30
0.0
  9
$UCSYDIR
 10
0.0
 20
1.0
 30
0.0
  9
$PUCSNAME
  2

  9
$PUCSORG
 10
0.0
 20
0.0
 30
0.0
  9
$PUCSXDIR
 10
1.0
 20
0.0
 30
0.0
  9
$PUCSYDIR
 10
0.0
 20
1.0
 30
0.0
  9
$USERI1
 70
     0
  9
$USERI2
 70
     0
  9
$USERI3
 70
     0
  9
$USERI4
 70
     0
  9
$USERI5
 70
     0
  9
$USERR1
 40
0.0
  9
$USERR2
 40
0.0
  9
$USERR3
 40
0.0
  9
$USERR4
 40
0.0
  9
$USERR5
 40
0.0
  9
$WORLDVIEW
 70
     1
  9
$SHADEDGE
 70
     3
  9
$SHADEDIF
 70
    70
  9
$TILEMODE
 70
     1
  9
$MAXACTVP
 70
    64
  9
$PLIMCHECK
 70
     0
  9
$PEXTMIN
 10
1.0000000000000000E+20
 20
1.0000000000000000E+20
 30
1.0000000000000000E+20
  9
$PEXTMAX
 10
-1.0000000000000000E+20
 20
-1.0000000000000000E+20
 30
-1.0000000000000000E+20
  9
$PLIMMIN
 10
0.0
 20
0.0
  9
$PLIMMAX
 10
12.0
 20
9.0
  9
$UNITMODE
 70
     0
  9
$VISRETAIN
 70
     1
  9
$PLINEGEN
 70
     0
  9
$PSLTSCALE
 70
     1
  0
ENDSEC
  0
SECTION
  2
TABLES
  0
TABLE
  2
VPORT
 70
     1
  0
VPORT
  2
*ACTIVE
 70
     0
 10
0.0
 20
0.0
 11
1.0
 21
1.0
 12
231.3869812680719917
 22
19.1906151515434793
 13
0.0
 23
0.0
 14
1.0
 24
1.0
 15
0.0
 25
0.0
 16
0.0
 26
0.0
 36
24.1179433675886514
 17
466.74220170783002
 27
89.133147119929788
 37
0.0
 40
6.5829942259795891
 41
2.005224660397074
 42
50.0
 43
0.0
 44
0.0
 50
0.0
 51
0.0
 71
     0
 72
   100
 73
     1
 74
     1
 75
     0
 76
     0
 77
     0
 78
     0
  0
ENDTAB
  0
TABLE
  2
LTYPE
 70
     2
  0
LTYPE
  2
CONTINUOUS
 70
     0
  3
Solid line
 72
    65
 73
     0
 40
0.0
  0
LTYPE
  2
PHANTOM2
 70
     0
  3
___ _ _ ___ _ _ ___ _ _ ___ _ _
 72
    65
 73
     6
 40
1.25
 49
0.625
 49
-0.125
 49
0.125
 49
-0.125
 49
0.125
 49
-0.125
  0
ENDTAB
  0
TABLE
  2
LAYER
 70
     2
  0
LAYER
  2
0
 70
     0
 62
   255
  6
CONTINUOUS
  0
LAYER
  2
DEFPOINTS
 70
     0
 62
     7
  6
CONTINUOUS
  0
ENDTAB
  0
TABLE
  2
STYLE
 70
     1
  0
STYLE
  2
STANDARD
 70
     0
 40
0.0
 41
0.8
 50
0.0
 71
     0
 42
0.2
  3
txt
  4

  0
ENDTAB
  0
TABLE
  2
VIEW
 70
     0
  0
ENDTAB
  0
TABLE
  2
UCS
 70
     0
  0
ENDTAB
  0
TABLE
  2
APPID
 70
    11
  0
APPID
  2
ACAD
 70
     0
  0
APPID
  2
ACAD_MLEADERVER
 70
     0
  0
APPID
  2
ACAD_EXEMPT_FROM_CAD_STANDARDS
 70
     0
  0
APPID
  2
ACAD_DSTYLE_DIMJAG
 70
     0
  0
APPID
  2
ACAD_DSTYLE_DIMTALN
 70
     0
  0
APPID
  2
ACAD_NAV_VCDISPLAY
 70
     0
  0
APPID
  2
ACAECLAYERSTANDARD
 70
     0
  0
APPID
  2
ACCMTRANSPARENCY
 70
     0
  0
APPID
  2
DCO15
 70
     0
  0
APPID
  2
ACDBATTR
 70
     0
  0
APPID
  2
ACADANNOTATIVE
 70
     0
  0
ENDTAB
  0
TABLE
  2
DIMSTYLE
 70
     1
  0
DIMSTYLE
  2
STANDARD
 70
     0
  3

  4

  5

  6

  7

 40
1.0
 41
0.1875
 42
0.0625
 43
0.38
 44
0.125
 45
0.0
 46
0.0
 47
0.01
 48
0.01
140
0.15625
141
0.09
142
0.0
143
25.3999999999999986
144
1.0
145
0.0
146
1.0
147
0.09
 71
     1
 72
     0
 73
     1
 74
     1
 75
     0
 76
     0
 77
     0
 78
     4
170
     0
171
     2
172
     0
173
     0
174
     0
175
     0
176
     0
177
     0
178
     0
  0
ENDTAB
  0
ENDSEC
  0
SECTION
  2
BLOCKS
  0
BLOCK
  8
0
  2
$MODEL_SPACE
 70
     0
 10
0.0
 20
0.0
 30
0.0
  3
$MODEL_SPACE
  1

  0
ENDBLK
  5
21
  8
0
  0
BLOCK
 67
     1
  8
0
  2
$PAPER_SPACE
 70
     0
 10
0.0
 20
0.0
 30
0.0
  3
$PAPER_SPACE
  1

  0
ENDBLK
  5
1D
 67
     1
  8
0
  0
ENDSEC
  0
SECTION
  2
ENTITIES
  0
ATTDEF
  5
829
  8
DEFPOINTS
 10
700.0604164666901852
 20
108.3210571512210976
 30
0.0
 40
0.001
  1
K-18471IN-4
  3

  2
MODELNUMBER
 70
     0
1001
ACDBATTR
1070
     0
1070
     1
  0
ATTDEF
  5
82A
  8
DEFPOINTS
 10
700.0604164666901852
 20
108.319390484554404
 30
0.0
 40
0.001
  1
SYMBOL
  3

  2
TRADENAME
 70
     0
1001
ACDBATTR
1070
     0
1070
     1
  0
ATTDEF
  5
82B
  8
DEFPOINTS
 10
700.0604164666901852
 20
108.3177238178876962
 30
0.0
 40
0.001
  1
VALVE TRIM
  3

  2
PRODUCT
 70
     0
1001
ACDBATTR
1070
     0
1070
     1
  0
LINE
  5
BCF7
  8
0
 10
700.0585847171349769
 20
105.0531675552875015
 30
0.0
 11
700.0585847171349769
 21
111.5886519598600017
 31
0.0
  0
LINE
  5
BCF8
  8
0
 10
699.6787920684054143
 20
111.5555021298847009
 30
0.0
 11
700.0585847171349769
 21
111.5886519598600017
 31
0.0
  0
LINE
  5
BCF9
  8
0
 10
699.6774789740801452
 20
105.0865878727895932
 30
0.0
 11
700.0585847171349769
 21
105.0531675552875015
 31
0.0
  0
LINE
  5
BCFA
  8
0
 10
699.6632146653483915
 20
111.5360870668829989
 30
0.0
 11
699.6632146653483915
 21
105.1058868026478024
 31
0.0
  0
ARC
  5
BCFB
  8
0
 10
734.9887636655203096
 20
108.1064670931934018
 30
0.0
 40
35.4565003493380004
 50
182.9149622188541002
 51
184.8567578246135099
  0
ARC
  5
BCFC
  8
0
 10
646.761474056698944
 20
104.7231392635882941
 30
0.0
 40
52.8403003709540826
 50
1.7137322716595611
 51
2.8395908620787669
  0
ARC
  5
BCFD
  8
0
 10
730.1103239346008422
 20
108.2153229598441015
 30
0.0
 40
30.5859334069144211
 50
179.7545078839860935
 51
181.6383609148840037
  0
ARC
  5
BCFE
  8
0
 10
658.7267971864076799
 20
110.4917409177471939
 30
0.0
 40
40.8542425740872019
 50
356.9898567350152803
 51
359.8529690271575987
  0
ARC
  5
BCFF
  8
0
 10
738.4880777838229733
 20
108.2609244378765965
 30
0.0
 40
38.9652134007261211
 50
175.1762660769990134
 51
176.8723370706746039
  0
ARC
  5
BD00
  8
0
 10
699.6829146653484486
 20
111.5360870668829989
 30
0.0
 40
0.0197
 50
94.9883637731470145
 51
180.0000000000048885
  0
ARC
  5
BD01
  8
0
 10
699.6805050508445447
 20
111.5358767460371041
 30
0.0
 40
0.0197
 50
94.9883637731404491
 51
175.1762660770023103
  0
ARC
  5
BD02
  8
0
 10
699.6829146653484486
 20
105.1058868026478024
 30
0.0
 40
0.0197
 50
179.9999999999959073
 51
264.9883797941093917
  0
ARC
  5
BD03
  8
0
 10
699.6791999223471521
 20
105.1062125597185997
 30
0.0
 40
0.0197
 50
184.8567578246143057
 51
264.9883797940898944
  0
LINE
  5
BD04
  8
0
 10
698.7787645649281103
 20
106.3033713046447986
 30
0.0
 11
699.5781400816296127
 21
106.3033713046447986
 31
0.0
  0
LINE
  5
BD05
  8
0
 10
698.7590795256281808
 20
107.2876232731448027
 30
0.0
 11
698.7590795256281808
 21
106.3230563440448009
 31
0.0
  0
LINE
  5
BD06
  8
0
 10
698.7787645649281103
 20
106.3033713046447986
 30
0.0
 11
698.7787645649281103
 21
107.3073083125448051
 31
0.0
  0
LINE
  5
BD07
  8
0
 10
698.7787645649281103
 20
106.3033713046447986
 30
0.0
 11
698.7590795256281808
 21
106.3230563440448009
 31
0.0
  0
LINE
  5
BD08
  8
0
 10
698.7787645649281103
 20
107.3073083125448051
 30
0.0
 11
699.538546859375856
 21
107.3073083125448051
 31
0.0
  0
LINE
  5
BD09
  8
0
 10
698.7590795256281808
 20
107.2876232731448027
 30
0.0
 11
698.7787645649281103
 21
107.3073083125448051
 31
0.0
  0
LINE
  5
BD0A
  8
0
 10
698.3989162443076566
 20
107.1987588222332022
 30
0.0
 11
698.7590795256281808
 21
107.1915555566448006
 31
0.0
  0
LINE
  5
BD0B
  8
0
 10
698.4041189743570612
 20
106.4120248495353991
 30
0.0
 11
698.7590795256281808
 21
106.419124060544803
 31
0.0
  0
LINE
  5
BD0C
  8
0
 10
698.3848275571281192
 20
106.352945729361906
 30
0.0
 11
698.3848275571281192
 21
107.2136696840556027
 31
0.0
  0
LINE
  5
BD0D
  8
0
 10
698.2724567278029326
 20
106.3348603037908049
 30
0.0
 11
698.3647837447323354
 21
106.333248729767206
 31
0.0
  0
LINE
  5
BD0E
  8
0
 10
698.272456188201545
 20
107.2317539049373067
 30
0.0
 11
698.3647834898126803
 21
107.2333666791990936
 31
0.0
  0
LINE
  5
BD0F
  8
0
 10
698.2314844931280504
 20
107.1900602654711037
 30
0.0
 11
698.2314844931280504
 21
106.3765539526792026
 31
0.0
  0
ARC
  5
BD10
  8
0
 10
698.2731844931281557
 20
107.1900602654711037
 30
0.0
 40
0.0417
 50
91.0007414929973351
 51
180.0
  0
ARC
  5
BD11
  8
0
 10
698.2731844931281557
 20
106.3765539526792026
 30
0.0
 40
0.0417
 50
180.0000000000023874
 51
269.0000000319661808
  0
ARC
  5
BD12
  8
0
 10
698.3651275571281758
 20
106.352945729361906
 30
0.0
 40
0.0197
 50
269.0000000319727178
 51
0.0000000000024427
  0
ARC
  5
BD13
  8
0
 10
698.3651275571281758
 20
107.2136696840556027
 30
0.0
 40
0.0197
 50
0.0000000000105849
 51
91.0007414929908265
  0
ARC
  5
BD14
  8
0
 10
698.39928556551979
 20
107.2186534604884969
 30
0.0
 40
0.0198980659727317
 50
223.3975790960570009
 51
268.9364915204516251
  0
ARC
  5
BD15
  8
0
 10
698.4045125964280487
 20
106.3923437459447996
 30
0.0
 40
0.0196850394000074
 50
91.1457628382085687
 51
180.0
  0
LINE
  5
BD16
  8
0
 10
698.2724567278029326
 20
106.4628019648071984
 30
0.0
 11
698.3647837447323354
 21
106.4611903907835995
 31
0.0
  0
ARC
  5
BD17
  8
0
 10
698.2731844931281557
 20
106.504495613695596
 30
0.0
 40
0.0417
 50
180.0000000000023874
 51
269.0000000319661808
  0
ARC
  5
BD18
  8
0
 10
698.3651275571281758
 20
106.480887390378399
 30
0.0
 40
0.0197
 50
269.0000000319727178
 51
0.0000000000024427
  0
LINE
  5
BD19
  8
0
 10
698.2724567278029326
 20
106.7234186560928038
 30
0.0
 11
698.3647837447323354
 21
106.7218070820691054
 31
0.0
  0
ARC
  5
BD1A
  8
0
 10
698.2731844931281557
 20
106.7651123049812014
 30
0.0
 40
0.0417
 50
180.0000000000023874
 51
269.0000000319661808
  0
ARC
  5
BD1B
  8
0
 10
698.3651275571281758
 20
106.7415040816639049
 30
0.0
 40
0.0197
 50
269.0000000319727178
 51
0.0000000000024427
  0
LINE
  5
BD1C
  8
0
 10
698.3771787382280536
 20
110.3289618557948017
 30
0.0
 11
699.5807154719203709
 21
110.3289618557948017
 31
0.0
  0
LINE
  5
BD1D
  8
0
 10
698.3653787382280598
 20
110.3171618557947937
 30
0.0
 11
698.3653787382280598
 21
108.4116279975948061
 31
0.0
  0
LINE
  5
BD1E
  8
0
 10
698.3246344540183372
 20
110.3085656222910984
 30
0.0
 11
698.3653787382280598
 21
110.3092494136517985
 31
0.0
  0
ARC
  5
BD1F
  8
0
 10
698.2251773416001015
 20
109.2938105515345057
 30
0.0
 40
0.866141731806471
 50
93.4272371042998913
 51
122.2480451528618062
  0
LINE
  5
BD20
  8
0
 10
697.7630165334280719
 20
110.0263464803232978
 30
0.0
 11
697.7630165334280719
 21
109.9955050659892066
 31
0.0
  0
LINE
  5
BD21
  8
0
 10
698.0701031476280605
 20
109.3368358709722941
 30
0.0
 11
697.6746310037281091
 21
110.1850829342733959
 31
0.0
  0
LINE
  5
BD22
  8
0
 10
698.0701031476280605
 20
109.3368358709722941
 30
0.0
 11
698.0701031476280605
 21
108.4693192155621944
 31
0.0
  0
ARC
  5
BD23
  8
0
 10
700.2490362677374378
 20
93.5293711145084217
 30
0.0
 40
16.8534951474885304
 50
98.786443419114832
 51
102.9747888403142042
  0
ARC
  5
BD24
  8
0
 10
693.8187703723017421
 20
109.9684162425000977
 30
0.0
 40
2.614624546099368
 50
346.7347235706884021
 51
358.9315112926652773
  0
ARC
  5
BD25
  8
0
 10
737.3122450760788524
 20
101.7966419613563005
 30
0.0
 40
41.6427836371158335
 50
169.523748035964104
 51
169.8866479507317138
  0
ARC
  5
BD26
  8
0
 10
689.8622147602153518
 20
110.270720205796394
 30
0.0
 40
6.5580053776699989
 50
347.3831697964894829
 51
349.7960656673670883
  0
ARC
  5
BD27
  8
0
 10
699.9268927875040163
 20
107.9266636801409049
 30
0.0
 40
3.7766987506344138
 50
166.0324261856908095
 51
176.1102024552617138
  0
ARC
  5
BD28
  8
0
 10
703.2311145741505243
 20
107.7269900038915011
 30
0.0
 40
7.0868981102322408
 50
176.311811325303097
 51
181.6420610602141892
  0
ARC
  5
BD29
  8
0
 10
705.5770317777812579
 20
107.9197287988054939
 30
0.0
 40
9.4382085538491154
 50
182.4035598330821983
 51
191.592876529892095
  0
ARC
  5
BD2A
  8
0
 10
708.4478187025641773
 20
108.2557075224111998
 30
0.0
 40
12.3204408911590892
 50
190.4405187337902987
 51
194.5596705212863924
  0
ARC
  5
BD2B
  8
0
 10
696.7211847630859438
 20
105.218477741735299
 30
0.0
 40
0.2070325048724685
 50
196.8416312701338882
 51
209.2298845216963912
  0
ARC
  5
BD2C
  8
0
 10
696.5793369195565674
 20
105.1383146272575004
 30
0.0
 40
0.044107046180484
 50
208.3343971623417872
 51
255.2673650816431064
  0
ARC
  5
BD2D
  8
0
 10
695.5606587776735523
 20
101.5021355302652069
 30
0.0
 40
3.732074465199466
 50
72.9126404347870789
 51
74.3389024903794962
  0
ARC
  5
BD2E
  8
0
 10
696.6698617994335336
 20
106.4477973793738954
 30
0.0
 40
1.3783868086211359
 50
269.4758451624954887
 51
276.2914842419605748
  0
ARC
  5
BD2F
  8
0
 10
696.8199534053411526
 20
105.1428393190788029
 30
0.0
 40
0.0651341658664403
 50
270.8454606696419091
 51
293.9699598101071842
  0
ARC
  5
BD30
  8
0
 10
696.8279551263898384
 20
105.1108806738021997
 30
0.0
 40
0.033169441067708
 50
303.815623271374875
 51
28.2839665612531803
  0
ARC
  5
BD31
  8
0
 10
735.6624404628229286
 20
113.6131379962997983
 30
0.0
 40
39.7224220129536718
 50
191.0629221117004022
 51
192.3361086580790982
  0
ARC
  5
BD32
  8
0
 10
705.9906217867529676
 20
107.8116967407323017
 30
0.0
 40
9.4887728090059493
 50
186.6834282016982911
 51
191.0629221117004022
  0
ARC
  5
BD33
  8
0
 10
704.1081761189750523
 20
107.591112157352697
 30
0.0
 40
7.5934471772052614
 50
183.7270082077465077
 51
186.6834282016982911
  0
ARC
  5
BD34
  8
0
 10
699.5678036373678879
 20
107.2953501734126007
 30
0.0
 40
3.0434518560121329
 50
176.537597189192013
 51
183.7270082077465077
  0
ARC
  5
BD35
  8
0
 10
697.5730630188689929
 20
107.4160399538339021
 30
0.0
 40
1.045063465786743
 50
135.0041912969506939
 51
176.537597189192013
  0
ARC
  5
BD36
  8
0
 10
697.7047669782856474
 20
107.1672876955097991
 30
0.0
 40
1.3166856824425679
 50
110.5149803573005016
 51
131.3993974568491865
  0
ARC
  5
BD37
  8
0
 10
697.4676620133578808
 20
108.0886814330576016
 30
0.0
 40
0.3841044949671658
 50
82.330805788673004
 51
125.7348556840743043
  0
ARC
  5
BD38
  8
0
 10
697.7643512695276513
 20
106.8015135352987954
 30
0.0
 40
1.6857978756959029
 50
96.2738179235960843
 51
98.3712370973044301
  0
ARC
  5
BD39
  8
0
 10
697.7987683917569939
 20
106.8383431678776958
 30
0.0
 40
1.653392094411962
 50
80.5545836987817268
 51
97.598937393804988
  0
ARC
  5
BD3A
  8
0
 10
698.3260086593963933
 20
110.2298374574711062
 30
0.0
 40
0.0787401574231618
 50
90.9999999548479082
 51
177.3922468949612039
  0
ARC
  5
BD3B
  8
0
 10
698.1686914461123479
 20
110.2370025220781002
 30
0.0
 40
0.0787401389514201
 50
273.427237104299877
 51
357.3922468949604081
  0
LINE
  5
BD3C
  8
0
 10
698.2473500435281721
 20
110.233419990194804
 30
0.0
 11
698.2473500435281721
 21
108.4953698631947958
 31
0.0
  0
ARC
  5
BD3D
  8
0
 10
698.3771787382280536
 20
110.3171618557947937
 30
0.0
 40
0.0118
 50
90.0
 51
179.9999999999828901
  0
LINE
  5
BD3E
  8
0
 10
698.3771787382280536
 20
108.399827997594798
 30
0.0
 11
699.5274471400158518
 21
108.399827997594798
 31
0.0
  0
LINE
  5
BD3F
  8
0
 10
698.3246344540183372
 20
108.4202242310985014
 30
0.0
 11
698.3653787382280598
 21
108.4195130368947986
 31
0.0
  0
ARC
  5
BD40
  8
0
 10
698.2251773416001015
 20
109.434979301855094
 30
0.0
 40
0.866141731806471
 50
259.6861404891209872
 51
266.572762895700123
  0
ARC
  5
BD41
  8
0
 10
698.3260086593963933
 20
108.4989523959184936
 30
0.0
 40
0.0787401574231618
 50
182.6077531050387108
 51
269.0000000451520918
  0
ARC
  5
BD42
  8
0
 10
698.1686914461123479
 20
108.4917873313114995
 30
0.0
 40
0.0787401389514201
 50
2.607753105039595
 51
86.5727628957000945
  0
ARC
  5
BD43
  8
0
 10
698.3771787382280536
 20
108.4116279975948061
 30
0.0
 40
0.0118
 50
180.0000000000171099
 51
270.0
  0
ARC
  5
BD44
  8
0
 10
696.4604655314591355
 20
109.9223653185311065
 30
0.0
 40
0.0276578866421575
 50
115.9162459481178047
 51
185.6135729535525059
  0
ARC
  5
BD45
  8
0
 10
696.4753097074551533
 20
109.8918169919734993
 30
0.0
 40
0.0616218354183669
 50
99.5832243722367849
 51
115.9162459481181031
  0
ENDSEC
  0
EOF
