  0
SECTION
  2
HEADER
  9
$ACADVER
  1
AC1009
  9
$INSBASE
 10
312.8715222166567855
 20
1.3884915278570951
 30
0.0
  9
$EXTMIN
 10
308.1306990613808807
 20
1.324103730831097
 30
-0.0000000349181948
  9
$EXTMAX
 10
317.6056037722988776
 20
26.3114924737555498
 30
0.0000000814935746
  9
$LIMMIN
 10
0.0
 20
0.0
  9
$LIMMAX
 10
22.0
 20
17.0
  9
$ORTHOMODE
 70
     0
  9
$REGENMODE
 70
     1
  9
$FILLMODE
 70
     1
  9
$QTEXTMODE
 70
     0
  9
$MIRRTEXT
 70
     0
  9
$DRAGMODE
 70
     2
  9
$LTSCALE
 40
1.2099999999999991
  9
$OSMODE
 70
     7
  9
$ATTMODE
 70
     1
  9
$TEXTSIZE
 40
0.2
  9
$TRACEWID
 40
0.05
  9
$TEXTSTYLE
  7
STANDARD
  9
$CLAYER
  8
0
  9
$CELTYPE
  6
BYLAYER
  9
$CECOLOR
 62
   256
  9
$DIMSCALE
 40
1.0
  9
$DIMASZ
 40
0.1875
  9
$DIMEXO
 40
0.0625
  9
$DIMDLI
 40
0.38
  9
$DIMRND
 40
0.0
  9
$DIMDLE
 40
0.0
  9
$DIMEXE
 40
0.125
  9
$DIMTP
 40
1.5
  9
$DIMTM
 40
1.5
  9
$DIMTXT
 40
1.5
  9
$DIMCEN
 40
0.09
  9
$DIMTSZ
 40
0.0
  9
$DIMTOL
 70
     0
  9
$DIMLIM
 70
     0
  9
$DIMTIH
 70
     1
  9
$DIMTOH
 70
     1
  9
$DIMSE1
 70
     0
  9
$DIMSE2
 70
     0
  9
$DIMTAD
 70
     0
  9
$DIMZIN
 70
     4
  9
$DIMBLK
  1

  9
$DIMASO
 70
     1
  9
$DIMSHO
 70
     1
  9
$DIMPOST
  1

  9
$DIMAPOST
  1

  9
$DIMALT
 70
     0
  9
$DIMALTD
 70
     2
  9
$DIMALTF
 40
25.3999999999999986
  9
$DIMLFAC
 40
1.0
  9
$DIMTOFL
 70
     0
  9
$DIMTVP
 40
0.0
  9
$DIMTIX
 70
     0
  9
$DIMSOXD
 70
     0
  9
$DIMSAH
 70
     0
  9
$DIMBLK1
  1

  9
$DIMBLK2
  1

  9
$DIMSTYLE
  2
STANDARD
  9
$DIMCLRD
 70
     0
  9
$DIMCLRE
 70
     0
  9
$DIMCLRT
 70
     0
  9
$DIMTFAC
 40
1.0
  9
$DIMGAP
 40
0.09
  9
$LUNITS
 70
     2
  9
$LUPREC
 70
     4
  9
$SKETCHINC
 40
0.1
  9
$FILLETRAD
 40
0.0
  9
$AUNITS
 70
     0
  9
$AUPREC
 70
     0
  9
$MENU
  1
.
  9
$ELEVATION
 40
0.0
  9
$PELEVATION
 40
0.0
  9
$THICKNESS
 40
0.0
  9
$LIMCHECK
 70
     0
  9
$BLIPMODE
 70
     0
  9
$CHAMFERA
 40
0.0
  9
$CHAMFERB
 40
0.0
  9
$SKPOLY
 70
     0
  9
$TDCREATE
 40
2457827.4934837957844138
  9
$TDUPDATE
 40
2459520.7809374998323619
  9
$TDINDWG
 40
0.3789603009
  9
$TDUSRTIMER
 40
0.3789603009
  9
$USRTIMER
 70
     1
  9
$ANGBASE
 50
0.0
  9
$ANGDIR
 70
     0
  9
$PDMODE
 70
     0
  9
$PDSIZE
 40
0.3125
  9
$PLINEWID
 40
0.0
  9
$COORDS
 70
     1
  9
$SPLFRAME
 70
     0
  9
$SPLINETYPE
 70
     6
  9
$SPLINESEGS
 70
     8
  9
$ATTDIA
 70
     1
  9
$ATTREQ
 70
     1
  9
$HANDLING
 70
     1
  9
$HANDSEED
  5
58D7
  9
$SURFTAB1
 70
     6
  9
$SURFTAB2
 70
     6
  9
$SURFTYPE
 70
     6
  9
$SURFU
 70
     6
  9
$SURFV
 70
     6
  9
$UCSNAME
  2

  9
$UCSORG
 10
0.0
 20
0.0
 30
0.0
  9
$UCSXDIR
 10
1.0
 20
0.0
 30
0.0
  9
$UCSYDIR
 10
0.0
 20
1.0
 30
0.0
  9
$PUCSNAME
  2

  9
$PUCSORG
 10
0.0
 20
0.0
 30
0.0
  9
$PUCSXDIR
 10
1.0
 20
0.0
 30
0.0
  9
$PUCSYDIR
 10
0.0
 20
1.0
 30
0.0
  9
$USERI1
 70
     0
  9
$USERI2
 70
     0
  9
$USERI3
 70
     0
  9
$USERI4
 70
     0
  9
$USERI5
 70
     0
  9
$USERR1
 40
0.0
  9
$USERR2
 40
0.0
  9
$USERR3
 40
0.0
  9
$USERR4
 40
0.0
  9
$USERR5
 40
0.0
  9
$WORLDVIEW
 70
     1
  9
$SHADEDGE
 70
     3
  9
$SHADEDIF
 70
    70
  9
$TILEMODE
 70
     1
  9
$MAXACTVP
 70
    48
  9
$PLIMCHECK
 70
     0
  9
$PEXTMIN
 10
1.0000000000000000E+20
 20
1.0000000000000000E+20
 30
1.0000000000000000E+20
  9
$PEXTMAX
 10
-1.0000000000000000E+20
 20
-1.0000000000000000E+20
 30
-1.0000000000000000E+20
  9
$PLIMMIN
 10
0.0
 20
0.0
  9
$PLIMMAX
 10
12.0
 20
9.0
  9
$UNITMODE
 70
     0
  9
$VISRETAIN
 70
     1
  9
$PLINEGEN
 70
     0
  9
$PSLTSCALE
 70
     1
  0
ENDSEC
  0
SECTION
  2
TABLES
  0
TABLE
  2
VPORT
 70
     1
  0
VPORT
  2
*ACTIVE
 70
     0
 10
0.0
 20
0.0
 11
1.0
 21
1.0
 12
101.8892238045352059
 22
6.6153489167327653
 13
0.0
 23
0.0
 14
1.0
 24
1.0
 15
0.0
 25
0.0
 16
-0.0000000000000284
 26
0.0
 36
157.2215818301446859
 17
210.9789276123046875
 27
7.2024491855605604
 37
0.0
 40
24.93509544238551
 41
2.218457943925233
 42
50.0
 43
0.0
 44
0.0
 50
0.0
 51
0.0
 71
     0
 72
   100
 73
     1
 74
     1
 75
     0
 76
     0
 77
     0
 78
     0
  0
ENDTAB
  0
TABLE
  2
LTYPE
 70
     2
  0
LTYPE
  2
CONTINUOUS
 70
     0
  3
Solid line
 72
    65
 73
     0
 40
0.0
  0
LTYPE
  2
PHANTOM2
 70
     0
  3
___ _ _ ___ _ _ ___ _ _ ___ _ _
 72
    65
 73
     6
 40
1.25
 49
0.625
 49
-0.125
 49
0.125
 49
-0.125
 49
0.125
 49
-0.125
  0
ENDTAB
  0
TABLE
  2
LAYER
 70
     2
  0
LAYER
  2
0
 70
     0
 62
     7
  6
CONTINUOUS
  0
LAYER
  2
DEFPOINTS
 70
     0
 62
     7
  6
CONTINUOUS
  0
ENDTAB
  0
TABLE
  2
STYLE
 70
     1
  0
STYLE
  2
STANDARD
 70
     0
 40
0.0
 41
0.8
 50
0.0
 71
     0
 42
0.2
  3
txt
  4

  0
ENDTAB
  0
TABLE
  2
VIEW
 70
     0
  0
ENDTAB
  0
TABLE
  2
UCS
 70
     0
  0
ENDTAB
  0
TABLE
  2
APPID
 70
     9
  0
APPID
  2
ACAD
 70
     0
  0
APPID
  2
ACAD_MLEADERVER
 70
     0
  0
APPID
  2
ACAD_EXEMPT_FROM_CAD_STANDARDS
 70
     0
  0
APPID
  2
ACAD_NAV_VCDISPLAY
 70
     0
  0
APPID
  2
ACADANNOMONITORALERTICONDI
 70
     0
  0
APPID
  2
ACAD_DSTYLE_DIMJAG
 70
     0
  0
APPID
  2
ACAD_DSTYLE_DIMTALN
 70
     0
  0
APPID
  2
ACDBATTR
 70
     0
  0
APPID
  2
DCO15
 70
     0
  0
ENDTAB
  0
TABLE
  2
DIMSTYLE
 70
     1
  0
DIMSTYLE
  2
STANDARD
 70
     0
  3

  4

  5

  6

  7

 40
1.0
 41
0.1875
 42
0.0625
 43
0.38
 44
0.125
 45
0.0
 46
0.0
 47
1.5
 48
1.5
140
1.5
141
0.09
142
0.0
143
25.3999999999999986
144
1.0
145
0.0
146
1.0
147
0.09
 71
     0
 72
     0
 73
     1
 74
     1
 75
     0
 76
     0
 77
     0
 78
     4
170
     0
171
     2
172
     0
173
     0
174
     0
175
     0
176
     0
177
     0
178
     0
  0
ENDTAB
  0
ENDSEC
  0
SECTION
  2
BLOCKS
  0
BLOCK
  8
0
  2
$MODEL_SPACE
 70
     0
 10
0.0
 20
0.0
 30
0.0
  3
$MODEL_SPACE
  1

  0
ENDBLK
  5
21
  8
0
  0
BLOCK
 67
     1
  8
0
  2
$PAPER_SPACE
 70
     0
 10
0.0
 20
0.0
 30
0.0
  3
$PAPER_SPACE
  1

  0
ENDBLK
  5
1D
 67
     1
  8
0
  0
ENDSEC
  0
SECTION
  2
ENTITIES
  0
ATTDEF
  5
4EF9
  8
DEFPOINTS
 10
312.8715530741960151
 20
1.3918943835968449
 30
0.0
 40
0.001
  1
K-18492T
  3

  2
MODELNUMBER
 70
     0
1001
ACDBATTR
1070
     0
1070
     1
  0
ATTDEF
  5
4EFA
  8
DEFPOINTS
 10
312.8715530741960151
 20
1.390227716930166
 30
0.0
 40
0.001
  1
SYMBOL
  3

  2
TRADENAME
 70
     0
1001
ACDBATTR
1070
     0
1070
     1
  0
ATTDEF
  5
4EFB
  8
DEFPOINTS
 10
312.8715530741960151
 20
1.388561050263486
 30
0.0
 40
0.001
  1
RISER TUBE
  3

  2
PRODUCT
 70
     0
1001
ACDBATTR
1070
     0
1070
     1
  0
LINE
  5
56E5
  8
0
 10
308.2927820591568207
 20
1.324381291657095
 30
0.0
 11
311.5447505631568106
 21
1.324381291657095
 31
0.0
  0
LINE
  5
56E6
  8
0
 10
308.1947663111769771
 20
1.3884915278570951
 30
0.0
 11
311.6427663111365973
 21
1.3884915278570951
 31
0.0
  0
LINE
  5
56E7
  8
0
 10
308.1832880829567785
 20
1.487156199657095
 30
0.0
 11
311.6542445393567959
 21
1.487156199657095
 31
0.0
  0
LINE
  5
56E8
  8
0
 10
308.2927820591568207
 20
1.3884915278570951
 30
0.0
 11
308.2927820591568207
 21
1.324381291657095
 31
0.0
  0
ARC
  5
56E9
  8
0
 10
308.1947663111769771
 20
1.4384915278797821
 30
0.0
 40
0.0500000000226864
 50
103.2714371911273048
 51
269.9999999768500061
  0
ARC
  5
56EA
  8
0
 10
307.9192888424461785
 20
2.6064436303138221
 30
0.0
 40
1.149999978876638
 50
283.2714370076050727
 51
316.9554308321659732
  0
ARC
  5
56EB
  8
0
 10
307.9192887803725966
 20
2.6064436882887629
 30
0.0
 40
1.150000063813263
 50
331.374093912607691
 51
340.4729696637983238
  0
ARC
  5
56EC
  8
0
 10
309.2387722380619266
 20
2.1384874037877499
 30
0.0
 40
0.2500069645034961
 50
99.2580382833920538
 51
160.4725337778334904
  0
LINE
  5
56ED
  8
0
 10
309.1985508590568088
 20
2.3852377289570952
 30
0.0
 11
310.6389817632568224
 21
2.3852377289570952
 31
0.0
  0
LINE
  5
56EE
  8
0
 10
309.2317584371568273
 20
24.0459718428570888
 30
0.0
 11
309.2317584371568273
 21
2.385237728957093
 31
0.0
  0
LINE
  5
56EF
  8
0
 10
309.2317584371568273
 20
24.0459718428570994
 30
0.0
 11
310.6057741851568039
 21
24.0459718428570994
 31
0.0
  0
LINE
  5
56F0
  8
0
 10
309.2809710355567745
 20
24.0459718428570994
 30
0.0
 11
309.2809710355567745
 21
24.2821923152570989
 31
0.0
  0
LINE
  5
56F1
  8
0
 10
309.2809710355567745
 20
24.2821923152570989
 30
0.0
 11
310.5565615867566862
 21
24.2821923152570989
 31
0.0
  0
LINE
  5
56F2
  8
0
 10
309.2809710355567745
 20
24.2821923152570989
 30
0.0
 11
309.3584716406567736
 21
24.4396726302570997
 31
0.0
  0
LINE
  5
56F3
  8
0
 10
309.3584716406567736
 20
24.4396726302570997
 30
0.0
 11
310.4790609816566871
 21
24.4396726302570997
 31
0.0
  0
LINE
  5
56F4
  8
0
 10
309.3597111930567962
 20
24.4396726302570997
 30
0.0
 11
309.3597111930567962
 21
24.4593576696570985
 31
0.0
  0
LINE
  5
56F5
  8
0
 10
309.3597111930567962
 20
24.6168379845570904
 30
0.0
 11
309.3597111930567962
 21
24.6955781420570908
 31
0.0
  0
LINE
  5
56F6
  8
0
 10
309.3597111930567962
 20
25.1010899530571017
 30
0.0
 11
309.3597111930567962
 21
25.3114727962570996
 31
0.0
  0
LINE
  5
56F7
  8
0
 10
309.3597111930567962
 20
24.6955781420570908
 30
0.0
 11
310.4778214292567782
 21
24.6955781420570908
 31
0.0
  0
LINE
  5
56F8
  8
0
 10
309.5191600119567852
 20
24.9416411341570985
 30
0.0
 11
309.5191600119567852
 21
24.8550269609571011
 31
0.0
  0
LINE
  5
56F9
  8
0
 10
309.5191600119567852
 20
24.8550269609571011
 30
0.0
 11
310.3183726103567892
 21
24.8550269609571011
 31
0.0
  0
LINE
  5
56FA
  8
0
 10
309.5191600119567852
 20
24.9416411341570985
 30
0.0
 11
310.3183726103567892
 21
24.9416411341570985
 31
0.0
  0
LINE
  5
56FB
  8
0
 10
309.5191600119567852
 20
24.8550269609571011
 30
0.0
 11
309.3597111930567962
 21
24.6955781420570908
 31
0.0
  0
LINE
  5
56FC
  8
0
 10
309.5191600119567852
 20
24.9416411341570985
 30
0.0
 11
309.3597111930567962
 21
25.1010899530571017
 31
0.0
  0
ARC
  5
56FD
  8
0
 10
308.806146913596308
 20
24.5380978271071015
 30
0.0
 40
0.5591363195946339
 50
351.9044339856332044
 51
8.0955660143668791
  0
LINE
  5
56FE
  8
0
 10
309.3597111930567962
 20
25.3114727962570996
 30
0.0
 11
309.3971127678566972
 21
25.3762542241571012
 31
0.0
  0
LINE
  5
56FF
  8
0
 10
309.3971127678566972
 20
25.3762542241571012
 30
0.0
 11
310.4404198544568203
 21
25.3762542241571012
 31
0.0
  0
LINE
  5
5700
  8
0
 10
309.3597111930567962
 20
25.3114727962570996
 30
0.0
 11
310.4778214292567782
 21
25.3114727962570996
 31
0.0
  0
LINE
  5
5701
  8
0
 10
309.3971127678566972
 20
25.3762542241571012
 30
0.0
 11
309.3971127678566972
 21
25.7385702680570994
 31
0.0
  0
LINE
  5
5702
  8
0
 10
309.3971127678566972
 20
25.8927434963570988
 30
0.0
 11
309.3971127678566972
 21
25.9885702680570994
 31
0.0
  0
LINE
  5
5703
  8
0
 10
309.3971127678566972
 20
26.1427434963571095
 30
0.0
 11
309.3971127678566972
 21
26.2900661735571006
 31
0.0
  0
LINE
  5
5704
  8
0
 10
309.4170912366000152
 20
25.7585702680570989
 30
0.0
 11
310.420441385713616
 21
25.7585702680570989
 31
0.0
  0
LINE
  5
5705
  8
0
 10
309.4362663111568281
 20
25.7641568821570992
 30
0.0
 11
310.4012663111568031
 21
25.7641568821570992
 31
0.0
  0
LINE
  5
5706
  8
0
 10
309.4362663111568281
 20
25.8671568821571007
 30
0.0
 11
310.4012663111568031
 21
25.8671568821571007
 31
0.0
  0
LINE
  5
5707
  8
0
 10
309.4171127678567927
 20
25.8727434963570992
 30
0.0
 11
310.4204198544567248
 21
25.8727434963570992
 31
0.0
  0
ARC
  5
5708
  8
0
 10
309.4171127876783771
 20
25.7385702598467212
 30
0.0
 40
0.0200000198215906
 50
90.0617392425954648
 51
179.9999764790325969
  0
ARC
  5
5709
  8
0
 10
309.4561678859566882
 20
25.7703812916571096
 30
0.0
 40
0.0118110236000125
 50
270.0000321487544284
 51
328.197019533164223
  0
ARC
  5
570A
  8
0
 10
309.4362663111568281
 20
25.8156568821571
 30
0.0
 40
0.0514999999999972
 50
89.9999999999934914
 51
270.0000000000064801
  0
ARC
  5
570B
  8
0
 10
309.4561678859566882
 20
25.8609324727570993
 30
0.0
 40
0.0118110236
 50
31.8029798960081216
 51
89.9999950667917545
  0
ARC
  5
570C
  8
0
 10
309.4171127678567927
 20
25.8927434963570988
 30
0.0
 40
0.0200000000000281
 50
180.0000000000202931
 51
270.0000839382207118
  0
LINE
  5
570D
  8
0
 10
309.4167977735568229
 20
26.3097513703571018
 30
0.0
 11
310.4207348487566946
 21
26.3097513703571018
 31
0.0
  0
LINE
  5
570E
  8
0
 10
309.4167977735568229
 20
26.3097513703571018
 30
0.0
 11
309.3971127678566972
 21
26.2900661735571006
 31
0.0
  0
LINE
  5
570F
  8
0
 10
309.3971127678566972
 20
26.2900661735571006
 30
0.0
 11
310.4404198544568203
 21
26.2900661735571006
 31
0.0
  0
ARC
  5
5710
  8
0
 10
309.4171127876783771
 20
25.9885702598467212
 30
0.0
 40
0.0200000198215906
 50
90.0617392425954648
 51
179.9999764790325969
  0
ARC
  5
5711
  8
0
 10
309.4561678859566882
 20
26.0203812916571096
 30
0.0
 40
0.0118110236000125
 50
270.0000321487544284
 51
328.197019533164223
  0
ARC
  5
5712
  8
0
 10
309.4362663111568281
 20
26.0656568821571
 30
0.0
 40
0.0514999999999972
 50
89.9999999999934914
 51
270.0000000000064801
  0
ARC
  5
5713
  8
0
 10
309.4561678859566882
 20
26.1109324727570993
 30
0.0
 40
0.0118110236
 50
31.8029798960081216
 51
89.9999950667917545
  0
ARC
  5
5714
  8
0
 10
309.4171127678567927
 20
26.1427434963571095
 30
0.0
 40
0.0200000000000281
 50
180.0000000000202931
 51
270.0000839382207118
  0
LINE
  5
5715
  8
0
 10
309.4171127678567927
 20
26.1227434963570992
 30
0.0
 11
310.4204198544567248
 21
26.1227434963570992
 31
0.0
  0
LINE
  5
5716
  8
0
 10
309.4362663111568281
 20
26.0141568821570992
 30
0.0
 11
310.4012663111568031
 21
26.0141568821570992
 31
0.0
  0
LINE
  5
5717
  8
0
 10
309.4170912366000152
 20
26.0085702680570989
 30
0.0
 11
310.420441385713616
 21
26.0085702680570989
 31
0.0
  0
LINE
  5
5718
  8
0
 10
309.4362663111568281
 20
26.1171568821570901
 30
0.0
 11
310.4012663111568031
 21
26.1171568821570901
 31
0.0
  0
LINE
  5
5719
  8
0
 10
309.3597111930567962
 20
25.1010899530571017
 30
0.0
 11
310.4778214292567782
 21
25.1010899530571017
 31
0.0
  0
LINE
  5
571A
  8
0
 10
311.5447505631568106
 20
1.3884915278570951
 30
0.0
 11
311.5447505631568106
 21
1.324381291657095
 31
0.0
  0
ARC
  5
571B
  8
0
 10
311.6427663111365973
 20
1.4384915278797821
 30
0.0
 40
0.0500000000226864
 50
270.0000000231498802
 51
76.7285628088694551
  0
ARC
  5
571C
  8
0
 10
311.9182437798672822
 20
2.6064436303138221
 30
0.0
 40
1.149999978876638
 50
223.0445691678339131
 51
256.7285629923948136
  0
ARC
  5
571D
  8
0
 10
311.9182438419409209
 20
2.6064436882887629
 30
0.0
 40
1.150000063813263
 50
199.5270303362015909
 51
223.0445691678339131
  0
ARC
  5
571E
  8
0
 10
310.5987603842517046
 20
2.1384874037877499
 30
0.0
 40
0.2500069645034961
 50
19.5274662221663604
 51
80.7419617166079462
  0
LINE
  5
571F
  8
0
 10
310.5565615867566862
 20
24.0459718428570994
 30
0.0
 11
310.5565615867566862
 21
24.2821923152570989
 31
0.0
  0
LINE
  5
5720
  8
0
 10
310.5565615867566862
 20
24.2821923152570989
 30
0.0
 11
310.4790609816566871
 21
24.4396726302570997
 31
0.0
  0
LINE
  5
5721
  8
0
 10
310.4778214292567782
 20
24.4396726302570997
 30
0.0
 11
310.4778214292567782
 21
24.4593576696570985
 31
0.0
  0
LINE
  5
5722
  8
0
 10
310.4778214292567782
 20
24.6168379845570904
 30
0.0
 11
310.4778214292567782
 21
24.6955781420570908
 31
0.0
  0
LINE
  5
5723
  8
0
 10
310.4778214292567782
 20
25.1010899530571017
 30
0.0
 11
310.4778214292567782
 21
25.3114727962570996
 31
0.0
  0
LINE
  5
5724
  8
0
 10
310.3183726103567892
 20
24.9416411341570985
 30
0.0
 11
310.3183726103567892
 21
24.8550269609571011
 31
0.0
  0
LINE
  5
5725
  8
0
 10
310.3183726103567892
 20
24.8550269609571011
 30
0.0
 11
310.4778214292567782
 21
24.6955781420570908
 31
0.0
  0
LINE
  5
5726
  8
0
 10
310.3183726103567892
 20
24.9416411341570985
 30
0.0
 11
310.4778214292567782
 21
25.1010899530571017
 31
0.0
  0
ARC
  5
5727
  8
0
 10
311.0313857087172096
 20
24.5380978271071015
 30
0.0
 40
0.5591363195946339
 50
171.9044339856330907
 51
188.0955660143667956
  0
LINE
  5
5728
  8
0
 10
310.4778214292567782
 20
25.3114727962570996
 30
0.0
 11
310.4404198544568203
 21
25.3762542241571012
 31
0.0
  0
LINE
  5
5729
  8
0
 10
310.4404198544568203
 20
25.3762542241571012
 30
0.0
 11
310.4404198544568203
 21
25.7385702680570994
 31
0.0
  0
LINE
  5
572A
  8
0
 10
310.4404198544568203
 20
25.8927434963570988
 30
0.0
 11
310.4404198544568203
 21
25.9885702680570994
 31
0.0
  0
LINE
  5
572B
  8
0
 10
310.4404198544568203
 20
26.1427434963571095
 30
0.0
 11
310.4404198544568203
 21
26.2900661735571006
 31
0.0
  0
ARC
  5
572C
  8
0
 10
310.4204198346351973
 20
25.7385702598467212
 30
0.0
 40
0.0200000198215906
 50
0.0000235209673399
 51
89.938260757404521
  0
ARC
  5
572D
  8
0
 10
310.3813647363567725
 20
25.7703812916571096
 30
0.0
 40
0.0118110236000125
 50
211.8029804668358054
 51
269.9999678512455716
  0
ARC
  5
572E
  8
0
 10
310.4012663111568031
 20
25.8156568821571
 30
0.0
 40
0.0514999999999972
 50
269.9999999999935199
 51
90.0000000000065086
  0
ARC
  5
572F
  8
0
 10
310.3813647363567725
 20
25.8609324727570993
 30
0.0
 40
0.0118110236
 50
90.0000049332082455
 51
148.1970201039918891
  0
ARC
  5
5730
  8
0
 10
310.4204198544567816
 20
25.8927434963570811
 30
0.0
 40
0.0199999999999889
 50
269.9999999998893259
 51
0.0000000000305333
  0
LINE
  5
5731
  8
0
 10
310.4207348487566946
 20
26.3097513703571018
 30
0.0
 11
310.4404198544568203
 21
26.2900661735571006
 31
0.0
  0
ARC
  5
5732
  8
0
 10
310.4204198346351973
 20
25.9885702598467212
 30
0.0
 40
0.0200000198215906
 50
0.0000235209673399
 51
89.938260757404521
  0
ARC
  5
5733
  8
0
 10
310.3813647363567725
 20
26.0203812916571096
 30
0.0
 40
0.0118110236000125
 50
211.8029804668358054
 51
269.9999678512455716
  0
ARC
  5
5734
  8
0
 10
310.4012663111568031
 20
26.0656568821571
 30
0.0
 40
0.0514999999999972
 50
269.9999999999935199
 51
90.0000000000065086
  0
ARC
  5
5735
  8
0
 10
310.3813647363567725
 20
26.1109324727570993
 30
0.0
 40
0.0118110236
 50
90.0000049332082455
 51
148.1970201039918891
  0
ARC
  5
5736
  8
0
 10
310.4204198544567816
 20
26.1427434963570917
 30
0.0
 40
0.0199999999999925
 50
269.9999999998925091
 51
0.0000000000203555
  0
LINE
  5
5737
  8
0
 10
310.6057741851568039
 20
24.0459718428570888
 30
0.0
 11
310.6057741851568039
 21
2.385237728957093
 31
0.0
  0
ARC
  5
5738
  8
0
 10
308.2581384409788825
 20
2.361740667873053
 30
0.0
 40
0.7372031488912058
 50
312.875308951159127
 51
335.4542157936159015
  0
LINE
  5
5739
  8
0
 10
317.4502623741568073
 20
1.324381291657095
 30
0.0
 11
314.1982938701568173
 21
1.324381291657095
 31
0.0
  0
LINE
  5
573A
  8
0
 10
317.548278122136594
 20
1.3884915278570951
 30
0.0
 11
314.1002781221769737
 21
1.3884915278570951
 31
0.0
  0
LINE
  5
573B
  8
0
 10
317.5597563503567926
 20
1.487156199657095
 30
0.0
 11
314.0887998939567751
 21
1.487156199657095
 31
0.0
  0
LINE
  5
573C
  8
0
 10
317.4502623741568073
 20
1.3884915278570951
 30
0.0
 11
317.4502623741568073
 21
1.324381291657095
 31
0.0
  0
ARC
  5
573D
  8
0
 10
317.548278122136594
 20
1.4384915278797821
 30
0.0
 40
0.0500000000226864
 50
270.0000000231498802
 51
76.7285628088694551
  0
ARC
  5
573E
  8
0
 10
317.8237555908672789
 20
2.6064436303138221
 30
0.0
 40
1.149999978876638
 50
223.0445691678339131
 51
256.7285629923948136
  0
ARC
  5
573F
  8
0
 10
317.8237556529409176
 20
2.6064436882887629
 30
0.0
 40
1.150000063813263
 50
199.5270303362015909
 51
208.6259060873940996
  0
ARC
  5
5740
  8
0
 10
316.5042721952517013
 20
2.1384874037877499
 30
0.0
 40
0.2500069645034961
 50
19.5274662221664492
 51
80.7419617166079462
  0
LINE
  5
5741
  8
0
 10
316.5444935742568191
 20
2.3852377289570952
 30
0.0
 11
315.1040626700566918
 21
2.3852377289570952
 31
0.0
  0
LINE
  5
5742
  8
0
 10
316.5112859961566869
 20
24.0459718428570888
 30
0.0
 11
316.5112859961566869
 21
2.385237728957093
 31
0.0
  0
LINE
  5
5743
  8
0
 10
316.5112859961566869
 20
24.0459718428570994
 30
0.0
 11
315.137270248156824
 21
24.0459718428570994
 31
0.0
  0
LINE
  5
5744
  8
0
 10
316.4620733977567966
 20
24.0459718428570994
 30
0.0
 11
316.4620733977567966
 21
24.2821923152570989
 31
0.0
  0
LINE
  5
5745
  8
0
 10
316.4620733977567966
 20
24.2821923152570989
 30
0.0
 11
315.186482846556828
 21
24.2821923152570989
 31
0.0
  0
LINE
  5
5746
  8
0
 10
316.4620733977567966
 20
24.2821923152570989
 30
0.0
 11
316.3845727926566838
 21
24.4396726302570997
 31
0.0
  0
LINE
  5
5747
  8
0
 10
316.3845727926566838
 20
24.4396726302570997
 30
0.0
 11
315.2639834516568271
 21
24.4396726302570997
 31
0.0
  0
LINE
  5
5748
  8
0
 10
316.3833332402567748
 20
24.4396726302570997
 30
0.0
 11
316.3833332402567748
 21
24.4593576696570985
 31
0.0
  0
LINE
  5
5749
  8
0
 10
316.3833332402567748
 20
24.6168379845570904
 30
0.0
 11
316.3833332402567748
 21
24.6955781420570908
 31
0.0
  0
LINE
  5
574A
  8
0
 10
316.3833332402567748
 20
25.1010899530571017
 30
0.0
 11
316.3833332402567748
 21
25.3114727962570996
 31
0.0
  0
LINE
  5
574B
  8
0
 10
316.3833332402567748
 20
24.6955781420570908
 30
0.0
 11
315.2652230040567929
 21
24.6955781420570908
 31
0.0
  0
LINE
  5
574C
  8
0
 10
316.2238844213567859
 20
24.9416411341570985
 30
0.0
 11
316.2238844213567859
 21
24.8550269609571011
 31
0.0
  0
LINE
  5
574D
  8
0
 10
316.2238844213567859
 20
24.8550269609571011
 30
0.0
 11
315.4246718229567819
 21
24.8550269609571011
 31
0.0
  0
LINE
  5
574E
  8
0
 10
316.2238844213567859
 20
24.9416411341570985
 30
0.0
 11
315.4246718229567819
 21
24.9416411341570985
 31
0.0
  0
LINE
  5
574F
  8
0
 10
316.2238844213567859
 20
24.8550269609571011
 30
0.0
 11
316.3833332402567748
 21
24.6955781420570908
 31
0.0
  0
LINE
  5
5750
  8
0
 10
316.2238844213567859
 20
24.9416411341570985
 30
0.0
 11
316.3833332402567748
 21
25.1010899530571017
 31
0.0
  0
ARC
  5
5751
  8
0
 10
316.9368975197173199
 20
24.5380978271071015
 30
0.0
 40
0.5591363195946339
 50
171.9044339856330907
 51
188.0955660143667956
  0
LINE
  5
5752
  8
0
 10
316.3833332402567748
 20
25.3114727962570996
 30
0.0
 11
316.3459316654567033
 21
25.3762542241571012
 31
0.0
  0
LINE
  5
5753
  8
0
 10
316.3459316654567033
 20
25.3762542241571012
 30
0.0
 11
315.3026245788566939
 21
25.3762542241571012
 31
0.0
  0
LINE
  5
5754
  8
0
 10
316.3833332402567748
 20
25.3114727962570996
 30
0.0
 11
315.2652230040567929
 21
25.3114727962570996
 31
0.0
  0
LINE
  5
5755
  8
0
 10
316.3459316654567033
 20
25.3762542241571012
 30
0.0
 11
316.3459316654567033
 21
25.7385702680570994
 31
0.0
  0
LINE
  5
5756
  8
0
 10
316.3459316654567033
 20
25.8927434963570988
 30
0.0
 11
316.3459316654567033
 21
25.9885702680570994
 31
0.0
  0
LINE
  5
5757
  8
0
 10
316.3459316654567033
 20
26.1427434963571095
 30
0.0
 11
316.3459316654567033
 21
26.2900661735571006
 31
0.0
  0
LINE
  5
5758
  8
0
 10
316.3259531967136127
 20
25.7585702680570989
 30
0.0
 11
315.3226030476000119
 21
25.7585702680570989
 31
0.0
  0
LINE
  5
5759
  8
0
 10
316.3067781221567998
 20
25.7641568821570992
 30
0.0
 11
315.3417781221568248
 21
25.7641568821570992
 31
0.0
  0
LINE
  5
575A
  8
0
 10
316.3067781221567998
 20
25.8671568821571007
 30
0.0
 11
315.3417781221568248
 21
25.8671568821571007
 31
0.0
  0
LINE
  5
575B
  8
0
 10
316.3259316654567215
 20
25.8727434963570992
 30
0.0
 11
315.3226245788567894
 21
25.8727434963570992
 31
0.0
  0
ARC
  5
575C
  8
0
 10
316.3259316456351939
 20
25.7385702598467212
 30
0.0
 40
0.0200000198215906
 50
0.0000235209673399
 51
89.938260757404521
  0
ARC
  5
575D
  8
0
 10
316.286876547356826
 20
25.7703812916571096
 30
0.0
 40
0.0118110236000125
 50
211.8029804668358054
 51
269.9999678512455716
  0
ARC
  5
575E
  8
0
 10
316.3067781221567998
 20
25.8156568821571
 30
0.0
 40
0.0514999999999972
 50
269.9999999999935199
 51
90.0000000000065086
  0
ARC
  5
575F
  8
0
 10
316.286876547356826
 20
25.8609324727570993
 30
0.0
 40
0.0118110236
 50
90.0000049332082455
 51
148.1970201039920028
  0
ARC
  5
5760
  8
0
 10
316.3259316654567215
 20
25.8927434963570988
 30
0.0
 40
0.0200000000000281
 50
269.9999160617792882
 51
359.9999999999797069
  0
LINE
  5
5761
  8
0
 10
316.326246659756805
 20
26.3097513703571018
 30
0.0
 11
315.3223095845568196
 21
26.3097513703571018
 31
0.0
  0
LINE
  5
5762
  8
0
 10
316.326246659756805
 20
26.3097513703571018
 30
0.0
 11
316.3459316654567033
 21
26.2900661735571006
 31
0.0
  0
LINE
  5
5763
  8
0
 10
316.3459316654567033
 20
26.2900661735571006
 30
0.0
 11
315.3026245788566939
 21
26.2900661735571006
 31
0.0
  0
ARC
  5
5764
  8
0
 10
316.3259316456351939
 20
25.9885702598467212
 30
0.0
 40
0.0200000198215906
 50
0.0000235209673399
 51
89.938260757404521
  0
ARC
  5
5765
  8
0
 10
316.286876547356826
 20
26.0203812916571096
 30
0.0
 40
0.0118110236000125
 50
211.8029804668358054
 51
269.9999678512455716
  0
ARC
  5
5766
  8
0
 10
316.3067781221567998
 20
26.0656568821571
 30
0.0
 40
0.0514999999999972
 50
269.9999999999935199
 51
90.0000000000065086
  0
ARC
  5
5767
  8
0
 10
316.286876547356826
 20
26.1109324727570993
 30
0.0
 40
0.0118110236
 50
90.0000049332082455
 51
148.1970201039920028
  0
ARC
  5
5768
  8
0
 10
316.3259316654567215
 20
26.1427434963571095
 30
0.0
 40
0.0200000000000281
 50
269.9999160617792882
 51
359.9999999999797069
  0
LINE
  5
5769
  8
0
 10
316.3259316654567215
 20
26.1227434963570992
 30
0.0
 11
315.3226245788567894
 21
26.1227434963570992
 31
0.0
  0
LINE
  5
576A
  8
0
 10
316.3067781221567998
 20
26.0141568821570992
 30
0.0
 11
315.3417781221568248
 21
26.0141568821570992
 31
0.0
  0
LINE
  5
576B
  8
0
 10
316.3259531967136127
 20
26.0085702680570989
 30
0.0
 11
315.3226030476000119
 21
26.0085702680570989
 31
0.0
  0
LINE
  5
576C
  8
0
 10
316.3067781221567998
 20
26.1171568821570901
 30
0.0
 11
315.3417781221568248
 21
26.1171568821570901
 31
0.0
  0
LINE
  5
576D
  8
0
 10
316.3833332402567748
 20
25.1010899530571017
 30
0.0
 11
315.2652230040567929
 21
25.1010899530571017
 31
0.0
  0
LINE
  5
576E
  8
0
 10
314.1982938701568173
 20
1.3884915278570951
 30
0.0
 11
314.1982938701568173
 21
1.324381291657095
 31
0.0
  0
ARC
  5
576F
  8
0
 10
314.1002781221769737
 20
1.4384915278797821
 30
0.0
 40
0.0500000000226864
 50
103.2714371911305022
 51
269.9999999768500061
  0
ARC
  5
5770
  8
0
 10
313.8248006534461751
 20
2.6064436303138221
 30
0.0
 40
1.149999978876638
 50
283.2714370076050727
 51
316.9554308321659732
  0
ARC
  5
5771
  8
0
 10
313.8248005913725933
 20
2.6064436882887629
 30
0.0
 40
1.150000063813263
 50
316.9554308321659732
 51
340.4729696637983807
  0
ARC
  5
5772
  8
0
 10
315.1442840490619233
 20
2.1384874037877499
 30
0.0
 40
0.2500069645034961
 50
99.2580382833920538
 51
160.4725337778336041
  0
LINE
  5
5773
  8
0
 10
315.186482846556828
 20
24.0459718428570994
 30
0.0
 11
315.186482846556828
 21
24.2821923152570989
 31
0.0
  0
LINE
  5
5774
  8
0
 10
315.186482846556828
 20
24.2821923152570989
 30
0.0
 11
315.2639834516568271
 21
24.4396726302570997
 31
0.0
  0
LINE
  5
5775
  8
0
 10
315.2652230040567929
 20
24.4396726302570997
 30
0.0
 11
315.2652230040567929
 21
24.4593576696570985
 31
0.0
  0
LINE
  5
5776
  8
0
 10
315.2652230040567929
 20
24.6168379845570904
 30
0.0
 11
315.2652230040567929
 21
24.6955781420570908
 31
0.0
  0
LINE
  5
5777
  8
0
 10
315.2652230040567929
 20
25.1010899530571017
 30
0.0
 11
315.2652230040567929
 21
25.3114727962570996
 31
0.0
  0
LINE
  5
5778
  8
0
 10
315.4246718229567819
 20
24.9416411341570985
 30
0.0
 11
315.4246718229567819
 21
24.8550269609571011
 31
0.0
  0
LINE
  5
5779
  8
0
 10
315.4246718229567819
 20
24.8550269609571011
 30
0.0
 11
315.2652230040567929
 21
24.6955781420570908
 31
0.0
  0
LINE
  5
577A
  8
0
 10
315.4246718229567819
 20
24.9416411341570985
 30
0.0
 11
315.2652230040567929
 21
25.1010899530571017
 31
0.0
  0
ARC
  5
577B
  8
0
 10
314.7116587245963046
 20
24.5380978271071015
 30
0.0
 40
0.5591363195946339
 50
351.9044339856332044
 51
8.0955660143668791
  0
LINE
  5
577C
  8
0
 10
315.2652230040567929
 20
25.3114727962570996
 30
0.0
 11
315.3026245788566939
 21
25.3762542241571012
 31
0.0
  0
LINE
  5
577D
  8
0
 10
315.3026245788566939
 20
25.3762542241571012
 30
0.0
 11
315.3026245788566939
 21
25.7385702680570994
 31
0.0
  0
LINE
  5
577E
  8
0
 10
315.3026245788566939
 20
25.8927434963570988
 30
0.0
 11
315.3026245788566939
 21
25.9885702680570994
 31
0.0
  0
LINE
  5
577F
  8
0
 10
315.3026245788566939
 20
26.1427434963571095
 30
0.0
 11
315.3026245788566939
 21
26.2900661735571006
 31
0.0
  0
ARC
  5
5780
  8
0
 10
315.3226245986783738
 20
25.7385702598467212
 30
0.0
 40
0.0200000198215906
 50
90.0617392425954648
 51
179.9999764790325969
  0
ARC
  5
5781
  8
0
 10
315.3616796969567986
 20
25.7703812916571096
 30
0.0
 40
0.0118110236000125
 50
270.0000321487544284
 51
328.197019533164223
  0
ARC
  5
5782
  8
0
 10
315.3417781221568248
 20
25.8156568821571
 30
0.0
 40
0.0514999999999972
 50
89.9999999999934914
 51
270.0000000000064801
  0
ARC
  5
5783
  8
0
 10
315.3616796969567986
 20
25.8609324727570993
 30
0.0
 40
0.0118110236
 50
31.8029798960081997
 51
89.9999950667917545
  0
ARC
  5
5784
  8
0
 10
315.3226245788567894
 20
25.8927434963570811
 30
0.0
 40
0.0199999999999889
 50
179.9999999999693898
 51
270.0000000001106741
  0
LINE
  5
5785
  8
0
 10
315.3223095845568196
 20
26.3097513703571018
 30
0.0
 11
315.3026245788566939
 21
26.2900661735571006
 31
0.0
  0
ARC
  5
5786
  8
0
 10
315.3226245986783738
 20
25.9885702598467212
 30
0.0
 40
0.0200000198215906
 50
90.0617392425954648
 51
179.9999764790325969
  0
ARC
  5
5787
  8
0
 10
315.3616796969567986
 20
26.0203812916571096
 30
0.0
 40
0.0118110236000125
 50
270.0000321487544284
 51
328.197019533164223
  0
ARC
  5
5788
  8
0
 10
315.3417781221568248
 20
26.0656568821571
 30
0.0
 40
0.0514999999999972
 50
89.9999999999934914
 51
270.0000000000064801
  0
ARC
  5
5789
  8
0
 10
315.3616796969567986
 20
26.1109324727570993
 30
0.0
 40
0.0118110236
 50
31.8029798960081997
 51
89.9999950667917545
  0
ARC
  5
578A
  8
0
 10
315.3226245788567894
 20
26.1427434963570917
 30
0.0
 40
0.0199999999999925
 50
179.9999999999795932
 51
270.0000000001074909
  0
LINE
  5
578B
  8
0
 10
315.137270248156824
 20
24.0459718428570888
 30
0.0
 11
315.137270248156824
 21
2.385237728957093
 31
0.0
  0
ARC
  5
578C
  8
0
 10
317.4849059923346886
 20
2.361740667873053
 30
0.0
 40
0.7372031488912058
 50
204.5457842063842122
 51
227.1246910488409014
  0
ENDSEC
  0
EOF
