  0
SECTION
  2
HEADER
  9
$ACADVER
  1
AC1009
  9
$INSBASE
 10
439.0781302256871754
 20
-43.0592508809461876
 30
0.0
  9
$EXTMIN
 10
409.0772206926753825
 20
-64.0567557278943127
 30
0.0
  9
$EXTMAX
 10
469.0790397586990252
 20
-43.0542814943748411
 30
0.0
  9
$LIMMIN
 10
0.0
 20
0.0
  9
$LIMMAX
 10
11.6929133858000007
 20
8.2677165353999982
  9
$ORTHOMODE
 70
     0
  9
$REGENMODE
 70
     1
  9
$FILLMODE
 70
     1
  9
$QTEXTMODE
 70
     0
  9
$MIRRTEXT
 70
     0
  9
$DRAGMODE
 70
     2
  9
$LTSCALE
 40
0.6431102362
  9
$OSMODE
 70
  4095
  9
$ATTMODE
 70
     1
  9
$TEXTSIZE
 40
0.2
  9
$TRACEWID
 40
0.05
  9
$TEXTSTYLE
  7
STANDARD
  9
$CLAYER
  8
0
  9
$CELTYPE
  6
BYLAYER
  9
$CECOLOR
 62
   256
  9
$DIMSCALE
 40
1.0
  9
$DIMASZ
 40
0.1875
  9
$DIMEXO
 40
0.0625
  9
$DIMDLI
 40
0.4443307087
  9
$DIMRND
 40
0.0
  9
$DIMDLE
 40
0.0
  9
$DIMEXE
 40
0.125
  9
$DIMTP
 40
0.01
  9
$DIMTM
 40
0.01
  9
$DIMTXT
 40
2.0
  9
$DIMCEN
 40
0.1052362205
  9
$DIMTSZ
 40
0.0
  9
$DIMTOL
 70
     1
  9
$DIMLIM
 70
     0
  9
$DIMTIH
 70
     1
  9
$DIMTOH
 70
     1
  9
$DIMSE1
 70
     0
  9
$DIMSE2
 70
     0
  9
$DIMTAD
 70
     0
  9
$DIMZIN
 70
     0
  9
$DIMBLK
  1

  9
$DIMASO
 70
     1
  9
$DIMSHO
 70
     1
  9
$DIMPOST
  1
\X
  9
$DIMAPOST
  1

  9
$DIMALT
 70
     1
  9
$DIMALTD
 70
     2
  9
$DIMALTF
 40
25.3999999999999986
  9
$DIMLFAC
 40
1.0
  9
$DIMTOFL
 70
     0
  9
$DIMTVP
 40
0.0
  9
$DIMTIX
 70
     0
  9
$DIMSOXD
 70
     0
  9
$DIMSAH
 70
     0
  9
$DIMBLK1
  1

  9
$DIMBLK2
  1

  9
$DIMSTYLE
  2
STANDARD
  9
$DIMCLRD
 70
     0
  9
$DIMCLRE
 70
     0
  9
$DIMCLRT
 70
     0
  9
$DIMTFAC
 40
1.0
  9
$DIMGAP
 40
0.09
  9
$LUNITS
 70
     2
  9
$LUPREC
 70
     4
  9
$SKETCHINC
 40
0.1
  9
$FILLETRAD
 40
0.0
  9
$AUNITS
 70
     0
  9
$AUPREC
 70
     0
  9
$MENU
  1
.
  9
$ELEVATION
 40
0.0
  9
$PELEVATION
 40
0.0
  9
$THICKNESS
 40
0.0
  9
$LIMCHECK
 70
     0
  9
$BLIPMODE
 70
     0
  9
$CHAMFERA
 40
0.0
  9
$CHAMFERB
 40
0.0
  9
$SKPOLY
 70
     0
  9
$TDCREATE
 40
2458071.7330208332277834
  9
$TDUPDATE
 40
2459837.586898148059845
  9
$TDINDWG
 40
0.1375530671
  9
$TDUSRTIMER
 40
0.1375530671
  9
$USRTIMER
 70
     1
  9
$ANGBASE
 50
0.0
  9
$ANGDIR
 70
     0
  9
$PDMODE
 70
     0
  9
$PDSIZE
 40
0.3125
  9
$PLINEWID
 40
0.0
  9
$COORDS
 70
     1
  9
$SPLFRAME
 70
     0
  9
$SPLINETYPE
 70
     6
  9
$SPLINESEGS
 70
     8
  9
$ATTDIA
 70
     1
  9
$ATTREQ
 70
     1
  9
$HANDLING
 70
     1
  9
$HANDSEED
  5
20D6
  9
$SURFTAB1
 70
     6
  9
$SURFTAB2
 70
     6
  9
$SURFTYPE
 70
     6
  9
$SURFU
 70
     6
  9
$SURFV
 70
     6
  9
$UCSNAME
  2

  9
$UCSORG
 10
0.0
 20
0.0
 30
0.0
  9
$UCSXDIR
 10
1.0
 20
0.0
 30
0.0
  9
$UCSYDIR
 10
0.0
 20
1.0
 30
0.0
  9
$PUCSNAME
  2

  9
$PUCSORG
 10
0.0
 20
0.0
 30
0.0
  9
$PUCSXDIR
 10
1.0
 20
0.0
 30
0.0
  9
$PUCSYDIR
 10
0.0
 20
1.0
 30
0.0
  9
$USERI1
 70
     0
  9
$USERI2
 70
     0
  9
$USERI3
 70
     0
  9
$USERI4
 70
     0
  9
$USERI5
 70
     0
  9
$USERR1
 40
0.0
  9
$USERR2
 40
0.0
  9
$USERR3
 40
0.0
  9
$USERR4
 40
0.0
  9
$USERR5
 40
0.0
  9
$WORLDVIEW
 70
     1
  9
$SHADEDGE
 70
     3
  9
$SHADEDIF
 70
    70
  9
$TILEMODE
 70
     1
  9
$MAXACTVP
 70
    64
  9
$PLIMCHECK
 70
     0
  9
$PEXTMIN
 10
1.0000000000000000E+20
 20
1.0000000000000000E+20
 30
1.0000000000000000E+20
  9
$PEXTMAX
 10
-1.0000000000000000E+20
 20
-1.0000000000000000E+20
 30
-1.0000000000000000E+20
  9
$PLIMMIN
 10
0.0
 20
0.0
  9
$PLIMMAX
 10
12.0
 20
9.0
  9
$UNITMODE
 70
     0
  9
$VISRETAIN
 70
     1
  9
$PLINEGEN
 70
     0
  9
$PSLTSCALE
 70
     1
  0
ENDSEC
  0
SECTION
  2
TABLES
  0
TABLE
  2
VPORT
 70
     1
  0
VPORT
  2
*ACTIVE
 70
     0
 10
0.0
 20
0.0
 11
1.0
 21
1.0
 12
9.2440145744015751
 22
-13.1938246261397403
 13
0.0
 23
0.0
 14
1.0
 24
1.0
 15
0.0
 25
0.0
 16
-0.0000000000000568
 26
0.0
 36
239.325261139280201
 17
439.0834808349608807
 27
-30.5723858364004712
 37
0.0
 40
140.0065222697847105
 41
2.0416666666666661
 42
50.0
 43
0.0
 44
0.0
 50
0.0
 51
0.0
 71
     0
 72
   100
 73
     1
 74
     1
 75
     0
 76
     0
 77
     0
 78
     0
  0
ENDTAB
  0
TABLE
  2
LTYPE
 70
     2
  0
LTYPE
  2
CONTINUOUS
 70
     0
  3
Solid line
 72
    65
 73
     0
 40
0.0
  0
LTYPE
  2
PHANTOM2
 70
     0
  3
___ _ _ ___ _ _ ___ _ _ ___ _ _
 72
    65
 73
     6
 40
1.25
 49
0.625
 49
-0.125
 49
0.125
 49
-0.125
 49
0.125
 49
-0.125
  0
ENDTAB
  0
TABLE
  2
LAYER
 70
     2
  0
LAYER
  2
0
 70
     0
 62
   255
  6
CONTINUOUS
  0
LAYER
  2
DEFPOINTS
 70
     0
 62
     7
  6
CONTINUOUS
  0
ENDTAB
  0
TABLE
  2
STYLE
 70
     1
  0
STYLE
  2
STANDARD
 70
     0
 40
0.0
 41
0.8
 50
0.0
 71
     0
 42
0.2
  3
txt
  4

  0
ENDTAB
  0
TABLE
  2
VIEW
 70
     0
  0
ENDTAB
  0
TABLE
  2
UCS
 70
     0
  0
ENDTAB
  0
TABLE
  2
APPID
 70
    10
  0
APPID
  2
ACAD
 70
     0
  0
APPID
  2
ACAD_MLEADERVER
 70
     0
  0
APPID
  2
ACAD_EXEMPT_FROM_CAD_STANDARDS
 70
     0
  0
APPID
  2
ACAD_NAV_VCDISPLAY
 70
     0
  0
APPID
  2
ACAD_DSTYLE_DIMJAG
 70
     0
  0
APPID
  2
ACAD_DSTYLE_DIMTALN
 70
     0
  0
APPID
  2
ACAECLAYERSTANDARD
 70
     0
  0
APPID
  2
ACCMTRANSPARENCY
 70
     0
  0
APPID
  2
ACDBATTR
 70
     0
  0
APPID
  2
ACADANNOTATIVE
 70
     0
  0
ENDTAB
  0
TABLE
  2
DIMSTYLE
 70
     1
  0
DIMSTYLE
  2
STANDARD
 70
     0
  3

  4

  5

  6

  7

 40
1.0
 41
0.1875
 42
0.0625
 43
0.38
 44
0.125
 45
0.0
 46
0.0
 47
0.01
 48
0.01
140
0.15625
141
0.09
142
0.0
143
25.3999999999999986
144
1.0
145
0.0
146
1.0
147
0.09
 71
     1
 72
     0
 73
     1
 74
     1
 75
     0
 76
     0
 77
     0
 78
     4
170
     0
171
     2
172
     0
173
     0
174
     0
175
     0
176
     0
177
     0
178
     0
  0
ENDTAB
  0
ENDSEC
  0
SECTION
  2
BLOCKS
  0
BLOCK
  8
0
  2
$MODEL_SPACE
 70
     0
 10
0.0
 20
0.0
 30
0.0
  3
$MODEL_SPACE
  1

  0
ENDBLK
  5
21
  8
0
  0
BLOCK
 67
     1
  8
0
  2
$PAPER_SPACE
 70
     0
 10
0.0
 20
0.0
 30
0.0
  3
$PAPER_SPACE
  1

  0
ENDBLK
  5
1D
 67
     1
  8
0
  0
BLOCK
  8
0
  2
_FILLED
 70
     0
 10
0.0
 20
0.0
 30
0.0
  3
_FILLED
  1

  0
SOLID
  5
1F3A
  8
0
  6
BYBLOCK
 62
     0
 10
0.0
 20
0.0
 30
0.0
 11
-1.0
 21
0.1666666667
 31
0.0
 12
-1.0
 22
-0.1666666667
 32
0.0
 13
-1.0
 23
-0.1666666667
 33
0.0
  0
ENDBLK
  5
1F3B
  8
0
  6
BYBLOCK
 62
     0
  0
ENDSEC
  0
SECTION
  2
ENTITIES
  0
ATTDEF
  5
BA3
  8
DEFPOINTS
 10
439.0783929714862097
 20
-43.0552814943748388
 30
0.0
 40
0.001
  1
K-1849-VB
  3

  2
MODELNUMBER
 70
     0
1001
ACDBATTR
1070
     0
1070
     1
  0
ATTDEF
  5
BA4
  8
DEFPOINTS
 10
439.0783929714862097
 20
-43.0569481610414968
 30
0.0
 40
0.001
  1
UNDERSCORE
  3

  2
TRADENAME
 70
     0
1001
ACDBATTR
1070
     0
1070
     1
  0
ATTDEF
  5
BA5
  8
DEFPOINTS
 10
439.0783929714862097
 20
-43.0586148277081691
 30
0.0
 40
0.001
  1
BATH
  3

  2
PRODUCT
 70
     0
1001
ACDBATTR
1070
     0
1070
     1
  0
LINE
  5
1B3A
  8
0
 10
409.0772206926753825
 20
-44.0561840719210807
 30
0.0
 11
409.1396076292991211
 21
-43.3440571042943077
 31
0.0
  0
ARC
  5
1B3B
  8
0
 10
409.4613953379512168
 20
-43.3833196585346528
 30
0.0
 40
0.3241741470338719
 50
91.4608901242118151
 51
173.0435072036734141
  0
LINE
  5
1B3C
  8
0
 10
409.4531306542036191
 20
-43.0592508809461876
 30
0.0
 11
468.7031297971707886
 21
-43.0592508809461876
 31
0.0
  0
ARC
  5
1B3D
  8
0
 10
468.6898632545377836
 20
-43.3888689685521527
 30
0.0
 40
0.3298849569629423
 50
7.8072702494695791
 51
87.6951906284880209
  0
LINE
  5
1B3E
  8
0
 10
469.0166903796990141
 20
-43.344056971394302
 30
0.0
 11
469.0790397586990252
 21
-44.0561840719210807
 31
0.0
  0
LINE
  5
1B3F
  8
0
 10
469.0790397586990252
 20
-44.0561840719210807
 30
0.0
 11
409.0772206926753825
 21
-44.0561840719210807
 31
0.0
  0
LINE
  5
1B40
  8
0
 10
465.9016316998478828
 20
-44.0561840719210807
 30
0.0
 11
463.1435842206037137
 21
-57.0329935307943003
 31
0.0
  0
ARC
  5
1B41
  8
0
 10
459.8021584903327152
 20
-60.1700714306417268
 30
0.0
 40
2.6162660300429081
 50
279.6048007482212938
 51
347.0760292700171021
  0
LINE
  5
1B42
  8
0
 10
460.23868603979912
 20
-62.7496628010943098
 30
0.0
 11
458.9831551848989761
 21
-62.7935069045943024
 31
0.0
  0
LINE
  5
1B43
  8
0
 10
456.4781551848989807
 20
-64.0567557278943127
 30
0.0
 11
456.4781551848989807
 21
-62.9943101097942986
 31
0.0
  0
LINE
  5
1B44
  8
0
 10
456.4781551848989807
 20
-62.9943101097942986
 30
0.0
 11
457.9781551848989807
 21
-62.9891171495942999
 31
0.0
  0
LINE
  5
1B45
  8
0
 10
457.9781551848989807
 20
-62.9891171495942999
 30
0.0
 11
457.9781551848989807
 21
-64.0567557278943127
 31
0.0
  0
LINE
  5
1B46
  8
0
 10
457.9781551848989807
 20
-64.0567557278943127
 30
0.0
 11
456.4781551848989807
 21
-64.0567557278943127
 31
0.0
  0
LINE
  5
1B47
  8
0
 10
457.9781551848989807
 20
-63.1545678304710165
 30
0.0
 11
458.9831551848989761
 21
-63.1326249215902777
 31
0.0
  0
LINE
  5
1B48
  8
0
 10
458.9831551848989761
 20
-63.1326249215902777
 30
0.0
 11
458.9831551848989761
 21
-62.5715353135943104
 31
0.0
  0
LINE
  5
1B49
  8
0
 10
458.9831551848989761
 20
-62.5715353135943104
 30
0.0
 11
453.9831553465353977
 21
-62.5715858155915683
 31
0.0
  0
LINE
  5
1B4A
  8
0
 10
453.9831553465353977
 20
-62.5715858155915683
 30
0.0
 11
453.9831551848989761
 21
-63.1328718484942968
 31
0.0
  0
LINE
  5
1B4B
  8
0
 10
453.9831551848989761
 20
-63.1328718484942968
 30
0.0
 11
456.4781551848989807
 21
-63.1693551800862707
 31
0.0
  0
ARC
  5
1B4C
  8
0
 10
457.8981551848989966
 20
-62.8667557278941871
 30
0.0
 40
0.3700000000001268
 50
282.4868898141647833
 51
309.7694873608780881
  0
ARC
  5
1B4D
  8
0
 10
455.0581551848990216
 20
-62.8667557278944287
 30
0.0
 40
0.3699999999998811
 50
228.7708717821863047
 51
270.0000000000064801
  0
LINE
  5
1B4E
  8
0
 10
455.0581551848990216
 20
-63.2367557278942982
 30
0.0
 11
456.4781551848989807
 21
-63.2367557278941277
 31
0.0
  0
LINE
  5
1B4F
  8
0
 10
453.9781551848989807
 20
-63.1689099129943017
 30
0.0
 11
447.9781551848989807
 21
-62.9593854192942999
 31
0.0
  0
LINE
  5
1B50
  8
0
 10
447.9781551848989807
 20
-62.9593854192942999
 30
0.0
 11
447.978161918454191
 21
-62.421665527874822
 31
0.0
  0
LINE
  5
1B51
  8
0
 10
447.978161918454191
 20
-62.421665527874822
 30
0.0
 11
453.9781539039594804
 21
-62.5212458731149781
 31
0.0
  0
LINE
  5
1B52
  8
0
 10
453.9781539039594804
 20
-62.5212458731149781
 30
0.0
 11
453.9781551848989807
 21
-63.1689099129943017
 31
0.0
  0
LINE
  5
1B53
  8
0
 10
447.9731551848989852
 20
-62.422280200594308
 30
0.0
 11
447.9731551848989852
 21
-62.959210815494302
 31
0.0
  0
LINE
  5
1B54
  8
0
 10
447.9731551848989852
 20
-62.959210815494302
 30
0.0
 11
441.9731551848989852
 21
-62.7493272274942981
 31
0.0
  0
LINE
  5
1B55
  8
0
 10
441.9731551848989852
 20
-62.7493272274942981
 30
0.0
 11
441.9731551848989852
 21
-62.2653098932943223
 31
0.0
  0
LINE
  5
1B56
  8
0
 10
441.9731551848989852
 20
-62.2653098932943223
 30
0.0
 11
447.9731551848989852
 21
-62.4222802005943223
 31
0.0
  0
LINE
  5
1B57
  8
0
 10
441.9681551848989898
 20
-62.2654928077943097
 30
0.0
 11
441.9681551848989898
 21
-62.7495116158943134
 31
0.0
  0
LINE
  5
1B58
  8
0
 10
441.9681551848989898
 20
-62.7495116158943134
 30
0.0
 11
435.9681551848989898
 21
-62.5399870077943092
 31
0.0
  0
LINE
  5
1B59
  8
0
 10
435.9681551848989898
 20
-62.5399870077943092
 30
0.0
 11
435.9681555442144827
 21
-62.0838958826776519
 31
0.0
  0
LINE
  5
1B5A
  8
0
 10
435.9681555442144827
 20
-62.0838958826776519
 30
0.0
 11
441.9681551848989898
 21
-62.2654928077943097
 31
0.0
  0
LINE
  5
1B5B
  8
0
 10
435.9631551848989943
 20
-62.08385207849431
 30
0.0
 11
435.9631551848989943
 21
-62.5398124038943095
 31
0.0
  0
LINE
  5
1B5C
  8
0
 10
435.9631551848989943
 20
-62.5398124038943095
 30
0.0
 11
429.9631551848989943
 21
-62.3300820407943093
 31
0.0
  0
LINE
  5
1B5D
  8
0
 10
429.9631551848989943
 20
-62.3300820407943093
 30
0.0
 11
429.9631551848989943
 21
-61.8912735463943591
 31
0.0
  0
LINE
  5
1B5E
  8
0
 10
429.9631551848989943
 20
-61.8912735463943591
 30
0.0
 11
435.9631551848989943
 21
-62.08385207849431
 31
0.0
  0
LINE
  5
1B5F
  8
0
 10
426.4781551848989807
 20
-62.208588811902743
 30
0.0
 11
429.9581551848989989
 21
-62.3301216262943214
 31
0.0
  0
LINE
  5
1B60
  8
0
 10
429.9581551848989989
 20
-62.3301216262943214
 30
0.0
 11
429.9581551848989989
 21
-61.8911101936943027
 31
0.0
  0
LINE
  5
1B61
  8
0
 10
429.9581551848989989
 20
-61.8911101936943027
 30
0.0
 11
423.9581551848989989
 21
-61.6927786564943119
 31
0.0
  0
LINE
  5
1B62
  8
0
 10
423.9581551848989989
 20
-61.6927786564943119
 30
0.0
 11
423.9581551848989989
 21
-62.120421217794302
 31
0.0
  0
LINE
  5
1B63
  8
0
 10
423.9581551848989989
 20
-62.120421217794302
 30
0.0
 11
424.9781551848989807
 21
-62.1562110561752235
 31
0.0
  0
LINE
  5
1B64
  8
0
 10
426.4781551848989807
 20
-64.0567557278943127
 30
0.0
 11
424.9781551848989807
 21
-64.0567557278943127
 31
0.0
  0
LINE
  5
1B65
  8
0
 10
424.9781551848989807
 20
-64.0567557278943127
 30
0.0
 11
424.9781551848989807
 21
-62.1254582985943102
 31
0.0
  0
LINE
  5
1B66
  8
0
 10
424.9781551848989807
 20
-62.1254582985943102
 30
0.0
 11
426.4781551848989807
 21
-62.1763468527943104
 31
0.0
  0
LINE
  5
1B67
  8
0
 10
426.4781551848989807
 20
-62.1763468527943104
 30
0.0
 11
426.4781551848989807
 21
-64.0567557278943127
 31
0.0
  0
LINE
  5
1B68
  8
0
 10
458.9831551848989761
 20
-62.9493442549553706
 30
0.0
 11
453.9831552373469776
 21
-62.9507452764878224
 31
0.0
  0
LINE
  5
1B69
  8
0
 10
453.9781546481394798
 20
-62.8975154908491874
 30
0.0
 11
447.9781572054532148
 21
-62.7980305102575613
 31
0.0
  0
LINE
  5
1B6A
  8
0
 10
453.9781549747909253
 20
-63.0626757703621692
 30
0.0
 11
447.978155768155716
 21
-62.9128084280523723
 31
0.0
  0
LINE
  5
1B6B
  8
0
 10
447.9731551848989852
 20
-62.7979156030164916
 30
0.0
 11
441.9731551848989852
 21
-62.6411395406769174
 31
0.0
  0
LINE
  5
1B6C
  8
0
 10
447.9731551848989852
 20
-62.9119094246675701
 30
0.0
 11
441.9731551848989852
 21
-62.7204014405246397
 31
0.0
  0
LINE
  5
1B6D
  8
0
 10
441.9681551848989898
 20
-62.6407791682091712
 30
0.0
 11
435.9681552484236136
 21
-62.4593531958854982
 31
0.0
  0
LINE
  5
1B6E
  8
0
 10
435.968155201450827
 20
-62.5189772392721892
 30
0.0
 11
441.9681551848989898
 21
-62.7202607100602023
 31
0.0
  0
LINE
  5
1B6F
  8
0
 10
435.9631551848989943
 20
-62.4591207143135705
 30
0.0
 11
429.9631551848989943
 21
-62.2666358648255525
 31
0.0
  0
LINE
  5
1B70
  8
0
 10
429.9631551848989943
 20
-62.3139721280088494
 30
0.0
 11
435.9631551848989943
 21
-62.5187764230567993
 31
0.0
  0
LINE
  5
1B71
  8
0
 10
429.9581551848989989
 20
-62.2663910463962083
 30
0.0
 11
423.9581551848989989
 21
-62.0682038271759424
 31
0.0
  0
LINE
  5
1B72
  8
0
 10
429.9581551848989989
 20
-62.313764926794299
 30
0.0
 11
426.4781551848989807
 21
-62.1941095516943108
 31
0.0
  0
LINE
  5
1B73
  8
0
 10
423.9581551848989989
 20
-62.1071910661943107
 30
0.0
 11
424.9781551848989807
 21
-62.1423817291942981
 31
0.0
  0
LINE
  5
1B74
  8
0
 10
453.9831552902497265
 20
-62.7670391261872425
 30
0.0
 11
453.9781543897718166
 21
-62.7668805637763469
 31
0.0
  0
LINE
  5
1B75
  8
0
 10
447.9781599777971905
 20
-62.5766401093888192
 30
0.0
 11
447.9731551848989852
 21
-62.5764814235618587
 31
0.0
  0
LINE
  5
1B76
  8
0
 10
441.9731551848989852
 20
-62.3862407919960802
 30
0.0
 11
441.9681551848989898
 21
-62.3860822581364403
 31
0.0
  0
LINE
  5
1B77
  8
0
 10
435.9681554560219752
 20
-62.1958416351670991
 30
0.0
 11
435.9631551848989943
 21
-62.1956830927110289
 31
0.0
  0
LINE
  5
1B78
  8
0
 10
429.9631551848989943
 20
-62.0054424611452504
 30
0.0
 11
429.9581551848989989
 21
-62.0052839272856104
 31
0.0
  0
ARC
  5
1B79
  8
0
 10
424.4901103371337854
 20
-59.6250111441777619
 30
0.0
 40
2.1132027213887561
 50
204.0675895356530987
 51
258.6053930674148091
  0
ARC
  5
1B7A
  8
0
 10
416.3371115038989956
 20
-57.5567557278943127
 30
0.0
 40
5.8199999999999958
 50
5.163233418729515
 51
39.9999982272005568
  0
LINE
  5
1B7B
  8
0
 10
420.7954902786032108
 20
-53.8157319774662213
 30
0.0
 11
412.606257745190419
 21
-44.0561840719210807
 31
0.0
  0
ARC
  5
1BB0
  8
0
 10
424.3747297523744919
 20
-59.6286066171427578
 30
0.0
 40
2.0068638541278809
 50
184.2410983450369031
 51
205.3173444265106866
  0
ARC
  5
1BB1
  8
0
 10
313.757924937918915
 20
-67.8889890954398254
 30
0.0
 40
108.9179371889792947
 50
4.2712182273741401
 51
5.7202444674261423
  0
ARC
  5
1BB2
  8
0
 10
45.7023682059021326
 20
29.7798908232452284
 30
0.0
 40
426.3726606124042746
 50
347.7406006796078941
 51
348.2519752249248199
  0
ENDSEC
  0
EOF
