  0
SECTION
  2
HEADER
  9
$ACADVER
  1
AC1009
  9
$INSBASE
 10
4640.0848277543200311
 20
277.7233706967977014
 30
0.0
  9
$EXTMIN
 10
4628.7509591054686098
 20
259.8018587553440284
 30
-0.0015258207003583
  9
$EXTMAX
 10
4651.6662604865769026
 20
277.7286927056330796
 30
0.0000000349246037
  9
$LIMMIN
 10
0.0
 20
0.0
  9
$LIMMAX
 10
11.6929133858000007
 20
8.2677165353999982
  9
$ORTHOMODE
 70
     0
  9
$REGENMODE
 70
     1
  9
$FILLMODE
 70
     1
  9
$QTEXTMODE
 70
     0
  9
$MIRRTEXT
 70
     0
  9
$DRAGMODE
 70
     2
  9
$LTSCALE
 40
0.6431102362
  9
$OSMODE
 70
   575
  9
$ATTMODE
 70
     1
  9
$TEXTSIZE
 40
0.2
  9
$TRACEWID
 40
0.05
  9
$TEXTSTYLE
  7
STANDARD
  9
$CLAYER
  8
0
  9
$CELTYPE
  6
BYLAYER
  9
$CECOLOR
 62
   256
  9
$DIMSCALE
 40
1.0
  9
$DIMASZ
 40
0.1875
  9
$DIMEXO
 40
0.0625
  9
$DIMDLI
 40
0.4443307087
  9
$DIMRND
 40
0.0
  9
$DIMDLE
 40
0.0
  9
$DIMEXE
 40
0.125
  9
$DIMTP
 40
0.01
  9
$DIMTM
 40
0.01
  9
$DIMTXT
 40
2.0
  9
$DIMCEN
 40
0.1052362205
  9
$DIMTSZ
 40
0.0
  9
$DIMTOL
 70
     1
  9
$DIMLIM
 70
     0
  9
$DIMTIH
 70
     1
  9
$DIMTOH
 70
     1
  9
$DIMSE1
 70
     0
  9
$DIMSE2
 70
     0
  9
$DIMTAD
 70
     0
  9
$DIMZIN
 70
     0
  9
$DIMBLK
  1

  9
$DIMASO
 70
     1
  9
$DIMSHO
 70
     1
  9
$DIMPOST
  1
\X
  9
$DIMAPOST
  1

  9
$DIMALT
 70
     1
  9
$DIMALTD
 70
     2
  9
$DIMALTF
 40
25.3999999999999986
  9
$DIMLFAC
 40
1.0
  9
$DIMTOFL
 70
     0
  9
$DIMTVP
 40
0.0
  9
$DIMTIX
 70
     0
  9
$DIMSOXD
 70
     0
  9
$DIMSAH
 70
     0
  9
$DIMBLK1
  1

  9
$DIMBLK2
  1

  9
$DIMSTYLE
  2
STANDARD
  9
$DIMCLRD
 70
     0
  9
$DIMCLRE
 70
     0
  9
$DIMCLRT
 70
     0
  9
$DIMTFAC
 40
1.0
  9
$DIMGAP
 40
0.09
  9
$LUNITS
 70
     2
  9
$LUPREC
 70
     4
  9
$SKETCHINC
 40
0.1
  9
$FILLETRAD
 40
0.0
  9
$AUNITS
 70
     0
  9
$AUPREC
 70
     0
  9
$MENU
  1
.
  9
$ELEVATION
 40
0.0
  9
$PELEVATION
 40
0.0
  9
$THICKNESS
 40
0.0
  9
$LIMCHECK
 70
     0
  9
$BLIPMODE
 70
     0
  9
$CHAMFERA
 40
0.0
  9
$CHAMFERB
 40
0.0
  9
$SKPOLY
 70
     0
  9
$TDCREATE
 40
2458060.468368056230247
  9
$TDUPDATE
 40
2459542.0892013888806105
  9
$TDINDWG
 40
0.5351228009
  9
$TDUSRTIMER
 40
0.5351228009
  9
$USRTIMER
 70
     1
  9
$ANGBASE
 50
0.0
  9
$ANGDIR
 70
     0
  9
$PDMODE
 70
     0
  9
$PDSIZE
 40
0.3125
  9
$PLINEWID
 40
0.0
  9
$COORDS
 70
     1
  9
$SPLFRAME
 70
     0
  9
$SPLINETYPE
 70
     6
  9
$SPLINESEGS
 70
     8
  9
$ATTDIA
 70
     1
  9
$ATTREQ
 70
     1
  9
$HANDLING
 70
     1
  9
$HANDSEED
  5
21D8A
  9
$SURFTAB1
 70
     6
  9
$SURFTAB2
 70
     6
  9
$SURFTYPE
 70
     6
  9
$SURFU
 70
     6
  9
$SURFV
 70
     6
  9
$UCSNAME
  2

  9
$UCSORG
 10
0.0
 20
0.0
 30
0.0
  9
$UCSXDIR
 10
1.0
 20
0.0
 30
0.0
  9
$UCSYDIR
 10
0.0
 20
1.0
 30
0.0
  9
$PUCSNAME
  2

  9
$PUCSORG
 10
0.0
 20
0.0
 30
0.0
  9
$PUCSXDIR
 10
1.0
 20
0.0
 30
0.0
  9
$PUCSYDIR
 10
0.0
 20
1.0
 30
0.0
  9
$USERI1
 70
     0
  9
$USERI2
 70
     0
  9
$USERI3
 70
     0
  9
$USERI4
 70
     0
  9
$USERI5
 70
     0
  9
$USERR1
 40
0.0
  9
$USERR2
 40
0.0
  9
$USERR3
 40
0.0
  9
$USERR4
 40
0.0
  9
$USERR5
 40
0.0
  9
$WORLDVIEW
 70
     1
  9
$SHADEDGE
 70
     3
  9
$SHADEDIF
 70
    70
  9
$TILEMODE
 70
     1
  9
$MAXACTVP
 70
    64
  9
$PLIMCHECK
 70
     0
  9
$PEXTMIN
 10
1.0000000000000000E+20
 20
1.0000000000000000E+20
 30
1.0000000000000000E+20
  9
$PEXTMAX
 10
-1.0000000000000000E+20
 20
-1.0000000000000000E+20
 30
-1.0000000000000000E+20
  9
$PLIMMIN
 10
0.0
 20
0.0
  9
$PLIMMAX
 10
12.0
 20
9.0
  9
$UNITMODE
 70
     0
  9
$VISRETAIN
 70
     1
  9
$PLINEGEN
 70
     0
  9
$PSLTSCALE
 70
     1
  0
ENDSEC
  0
SECTION
  2
TABLES
  0
TABLE
  2
VPORT
 70
     1
  0
VPORT
  2
*ACTIVE
 70
     0
 10
0.0
 20
0.0
 11
1.0
 21
1.0
 12
728.8432532600565992
 22
136.1856705931371891
 13
0.0
 23
0.0
 14
1.0
 24
1.0
 15
0.0
 25
0.0
 16
0.0
 26
0.0
 36
60.4960186965801583
 17
3911.3653564453120453
 27
132.5796051025390057
 37
0.0
 40
19.9292995020601111
 41
2.7531083481349912
 42
50.0
 43
0.0
 44
0.0
 50
0.0
 51
0.0
 71
     0
 72
   100
 73
     1
 74
     1
 75
     0
 76
     0
 77
     0
 78
     0
  0
ENDTAB
  0
TABLE
  2
LTYPE
 70
     2
  0
LTYPE
  2
CONTINUOUS
 70
     0
  3
Solid line
 72
    65
 73
     0
 40
0.0
  0
LTYPE
  2
PHANTOM2
 70
     0
  3
___ _ _ ___ _ _ ___ _ _ ___ _ _
 72
    65
 73
     6
 40
1.25
 49
0.625
 49
-0.125
 49
0.125
 49
-0.125
 49
0.125
 49
-0.125
  0
ENDTAB
  0
TABLE
  2
LAYER
 70
     2
  0
LAYER
  2
0
 70
     0
 62
   255
  6
CONTINUOUS
  0
LAYER
  2
DEFPOINTS
 70
     0
 62
     7
  6
CONTINUOUS
  0
ENDTAB
  0
TABLE
  2
STYLE
 70
     1
  0
STYLE
  2
STANDARD
 70
     0
 40
0.0
 41
0.8
 50
0.0
 71
     0
 42
0.2
  3
txt
  4

  0
ENDTAB
  0
TABLE
  2
VIEW
 70
     0
  0
ENDTAB
  0
TABLE
  2
UCS
 70
     0
  0
ENDTAB
  0
TABLE
  2
APPID
 70
    11
  0
APPID
  2
ACAD
 70
     0
  0
APPID
  2
ACAD_MLEADERVER
 70
     0
  0
APPID
  2
ACAD_EXEMPT_FROM_CAD_STANDARDS
 70
     0
  0
APPID
  2
ACAD_NAV_VCDISPLAY
 70
     0
  0
APPID
  2
ACAECLAYERSTANDARD
 70
     0
  0
APPID
  2
ACCMTRANSPARENCY
 70
     0
  0
APPID
  2
ACAD_DSTYLE_DIMJAG
 70
     0
  0
APPID
  2
ACAD_DSTYLE_DIMTALN
 70
     0
  0
APPID
  2
ACDBATTR
 70
     0
  0
APPID
  2
ACADANNOTATIVE
 70
     0
  0
APPID
  2
DCO15
 70
     0
  0
ENDTAB
  0
TABLE
  2
DIMSTYLE
 70
     1
  0
DIMSTYLE
  2
STANDARD
 70
     0
  3

  4

  5

  6

  7

 40
1.0
 41
0.1875
 42
0.0625
 43
0.38
 44
0.125
 45
0.0
 46
0.0
 47
0.01
 48
0.01
140
0.15625
141
0.09
142
0.0
143
25.3999999999999986
144
1.0
145
0.0
146
1.0
147
0.09
 71
     1
 72
     0
 73
     1
 74
     1
 75
     0
 76
     0
 77
     0
 78
     4
170
     0
171
     2
172
     0
173
     0
174
     0
175
     0
176
     0
177
     0
178
     0
  0
ENDTAB
  0
ENDSEC
  0
SECTION
  2
BLOCKS
  0
BLOCK
  8
0
  2
$MODEL_SPACE
 70
     0
 10
0.0
 20
0.0
 30
0.0
  3
$MODEL_SPACE
  1

  0
ENDBLK
  5
21
  8
0
  0
BLOCK
 67
     1
  8
0
  2
$PAPER_SPACE
 70
     0
 10
0.0
 20
0.0
 30
0.0
  3
$PAPER_SPACE
  1

  0
ENDBLK
  5
1D
 67
     1
  8
0
  0
ENDSEC
  0
SECTION
  2
ENTITIES
  0
ATTDEF
  5
20106
  8
DEFPOINTS
 10
4640.0848648240253169
 20
277.7221351631379207
 30
0.0
 40
0.001
  1
K-18564W
  3

  2
MODELNUMBER
 70
     0
1001
ACDBATTR
1070
     0
1070
     1
  0
ATTDEF
  5
20107
  8
DEFPOINTS
 10
4640.0847390143680968
 20
277.720468322758677
 30
0.0
 40
0.001
  1
REACH
  3

  2
TRADENAME
 70
     0
1001
ACDBATTR
1070
     0
1070
     1
  0
ATTDEF
  5
20108
  8
DEFPOINTS
 10
4640.0848648240253169
 20
277.7188018298044767
 30
0.0
 40
0.001
  1
BATHROOM SINK
  3

  2
PRODUCT
 70
     0
1001
ACDBATTR
1070
     0
1070
     1
  0
POLYLINE
  5
21BB8
  8
0
 66
     1
 10
0.0
 20
0.0
 30
0.0
  0
VERTEX
  5
21D82
  8
0
 10
4631.5923786550210934
 20
261.5090156150977236
 30
0.0
  0
VERTEX
  5
21D83
  8
0
 10
4631.6108244304214168
 20
261.4951764145977222
 30
0.0
  0
VERTEX
  5
21D84
  8
0
 10
4631.6512208850208481
 20
261.4652224846976765
 30
0.0
  0
SEQEND
  5
21D85
  8
0
  0
LINE
  5
21BB9
  8
0
 10
4629.2739375768205718
 20
277.7233706967977014
 30
0.0
 11
4650.895724664555928
 21
277.7233706967977014
 31
0.0
  0
CIRCLE
  5
21BBA
  8
0
 10
4640.0848271222221229
 20
269.0619533739975964
 30
0.0
 40
0.8963579334
  0
CIRCLE
  5
21BBB
  8
0
 10
4640.0848271222221229
 20
275.1738093585976799
 30
0.0
 40
0.7627158798
  0
ARC
  5
21BBC
  8
0
 10
4638.3662046319341243
 20
283.0411437743316014
 30
0.0
 40
22.3945249240413311
 50
259.3070617488136804
 51
262.6304762653575153
  0
ARC
  5
21BBD
  8
0
 10
4629.2739308440850436
 20
277.5265204140408173
 30
0.0
 40
0.1968502828720231
 50
89.9980403518067931
 51
175.0591449065138931
  0
ARC
  5
21BBE
  8
0
 10
4694.4112794038792345
 20
271.8621730163650909
 30
0.0
 40
65.5800209427174963
 50
175.0301456724315017
 51
179.5312417064083093
  0
ARC
  5
21BBF
  8
0
 10
4700.0195442985677801
 20
271.6652846346729007
 30
0.0
 40
71.1898690841351964
 50
179.4097130252895909
 51
184.4630517720131024
  0
ARC
  5
21BC0
  8
0
 10
4635.6987672293080323
 20
266.7139214596966212
 30
0.0
 40
6.6791890731481978
 50
185.0536675550395103
 51
195.4653510209107026
  0
ARC
  5
21BC1
  8
0
 10
4635.5999831139997696
 20
266.7074547528628727
 30
0.0
 40
6.5822880768842502
 50
195.6403889086774086
 51
210.4753341750895004
  0
ARC
  5
21BC2
  8
0
 10
4635.5208902885206044
 20
266.7056532431097935
 30
0.0
 40
6.5133225959339738
 50
210.8145430482142899
 51
241.2155529203371032
  0
ARC
  5
21BC3
  8
0
 10
4635.5342373705152568
 20
266.7312313836998783
 30
0.0
 40
6.542167095338165
 50
241.2209687859659084
 51
260.6370401162295138
  0
ARC
  5
21BC4
  8
0
 10
4640.2190720993548894
 20
295.7074058867020767
 30
0.0
 40
35.8945917658184328
 50
260.7833479109634141
 51
266.1436954388585718
  0
ARC
  5
21BC5
  8
0
 10
4640.0517108371441282
 20
292.1993468504609837
 30
0.0
 40
32.3832930906910619
 50
266.0217018942371965
 51
270.0585997473814928
  0
ARC
  5
21BC6
  8
0
 10
4640.0848277543200311
 20
295.2025283233173809
 30
0.0
 40
34.6761963505753528
 50
262.3917023837909142
 51
277.6082976162090858
  0
ARC
  5
21BC7
  8
0
 10
4635.478074108443252
 20
266.6786670334582823
 30
0.0
 40
5.7836822651257682
 50
244.8407812308680036
 51
257.3451614615041194
  0
ARC
  5
21BC8
  8
0
 10
4633.6612789570126552
 20
262.8299685155794805
 30
0.0
 40
1.5277488544062221
 50
177.2703444845211891
 51
245.1490052850332972
  0
ARC
  5
21BC9
  8
0
 10
680.1827741845530682
 20
274.8861055628511849
 30
0.0
 40
3951.9706577343781646
 50
359.8262643549413724
 51
359.944378363579176
  0
ARC
  5
21BCA
  8
0
 10
4633.7284960556844453
 20
271.0847127158359058
 30
0.0
 40
1.577316997935881
 50
128.064420726242389
 51
181.275228888519905
  0
ARC
  5
21BCB
  8
0
 10
4633.7095335201393027
 20
271.0344108334181783
 30
0.0
 40
1.6058866106553711
 50
89.8103762301319364
 51
126.4250143975971952
  0
ARC
  5
21BCC
  8
0
 10
4640.0848277543209406
 20
-765.7135256328326705
 30
0.0
 40
1038.3733530251349748
 50
89.648512524709588
 51
90.3514874752903978
  0
ARC
  5
21BCD
  8
0
 10
4640.0772420080538723
 20
269.7109057719292196
 30
0.0
 40
2.809034983159957
 50
89.8452865496901865
 51
95.0963300162314056
  0
ARC
  5
21BCE
  8
0
 10
4639.9331859193844139
 20
271.2226697359363925
 30
0.0
 40
1.2904835797848919
 50
94.6880426173054559
 51
102.187085123410597
  0
ARC
  5
21BCF
  8
0
 10
4639.7472011992604166
 20
272.0916107253473228
 30
0.0
 40
0.4018666322237606
 50
102.4214854463993021
 51
111.2473989507954997
  0
ARC
  5
21BD0
  8
0
 10
4639.6409229106111525
 20
272.3624930060614133
 30
0.0
 40
0.1108865111210156
 50
110.788884906119506
 51
128.2299201850848078
  0
ARC
  5
21BD1
  8
0
 10
4639.5907817088009324
 20
272.42711340251401
 30
0.0
 40
0.0291028895203912
 50
129.4126169484501929
 51
159.0940710978615868
  0
ARC
  5
21BD2
  8
0
 10
4639.5792670220416767
 20
272.4326511466143756
 30
0.0
 40
0.0164047473663832
 50
162.8140392047259013
 51
203.0838097237765965
  0
ARC
  5
21BD3
  8
0
 10
4639.5982563083180139
 20
272.4432361823081123
 30
0.0
 40
0.0380927877721899
 50
206.533693178953996
 51
238.3744720808086015
  0
ARC
  5
21BD4
  8
0
 10
4639.8011853203533974
 20
272.8650971477728717
 30
0.0
 40
0.5060350822141908
 50
243.8648310598707099
 51
264.0796046693911876
  0
ARC
  5
21BD5
  8
0
 10
4640.0757680333681492
 20
274.6916076893785998
 30
0.0
 40
2.3526514795496731
 50
262.0159184076997008
 51
270.2206229203870862
  0
CIRCLE
  5
21BD6
  8
0
 10
4640.0877044396693236
 20
269.0511742431581865
 30
0.0
 40
1.3459691841462931
  0
POLYLINE
  5
21BD7
  8
0
 66
     1
 10
0.0
 20
0.0
 30
0.0
  0
VERTEX
  5
21D86
  8
0
 10
4648.5772768536207877
 20
261.5090156150977236
 30
0.0
  0
VERTEX
  5
21D87
  8
0
 10
4648.5588310782213739
 20
261.4951764145977222
 30
0.0
  0
VERTEX
  5
21D88
  8
0
 10
4648.5184346236201236
 20
261.4652224846976765
 30
0.0
  0
SEQEND
  5
21D89
  8
0
  0
ARC
  5
21BD8
  8
0
 10
4641.8034508767068473
 20
283.0411437743316014
 30
0.0
 40
22.3945249240413311
 50
277.3695237346425984
 51
280.6929382511863196
  0
ARC
  5
21BD9
  8
0
 10
4650.8957246647660213
 20
277.5265204141446134
 30
0.0
 40
0.1968502826532045
 50
4.9408550686936126
 51
90.0000000613337079
  0
ARC
  5
21BDA
  8
0
 10
4585.7583761047626467
 20
271.8621730163650909
 30
0.0
 40
65.5800209427174963
 50
0.4687582935917228
 51
4.9698543275685179
  0
ARC
  5
21BDB
  8
0
 10
4580.1501112100741011
 20
271.6652846346729007
 30
0.0
 40
71.1898690841351964
 50
355.5369482279867839
 51
0.5902869747104158
  0
ARC
  5
21BDC
  8
0
 10
4644.4708882793338489
 20
266.7139214596966212
 30
0.0
 40
6.6791890731481978
 50
344.5346489790892974
 51
354.9463324449604897
  0
ARC
  5
21BDD
  8
0
 10
4644.5696723946412021
 20
266.7074547528628727
 30
0.0
 40
6.5822880768842502
 50
329.5246658249105849
 51
344.3596110913226198
  0
ARC
  5
21BDE
  8
0
 10
4644.6487652201212768
 20
266.7056532431097935
 30
0.0
 40
6.5133225959339738
 50
298.7844470796629253
 51
329.1854569517857954
  0
ARC
  5
21BDF
  8
0
 10
4644.6354181381257149
 20
266.7312313836998783
 30
0.0
 40
6.542167095338165
 50
279.3629598837704862
 51
298.7790312140342053
  0
ARC
  5
21BE0
  8
0
 10
4639.9505834092860823
 20
295.7074058867020767
 30
0.0
 40
35.8945917658184328
 50
273.8563045611414282
 51
279.2166520890365859
  0
ARC
  5
21BE1
  8
0
 10
4640.1179449589399155
 20
292.1993413085174893
 30
0.0
 40
32.3832875421590671
 50
269.9414116462608035
 51
273.9782982787164087
  0
ARC
  5
21BE2
  8
0
 10
4644.6915814001977196
 20
266.6786670334582823
 30
0.0
 40
5.7836822651257682
 50
282.6548385384958806
 51
295.1592187691319964
  0
ARC
  5
21BE3
  8
0
 10
4646.5083765516283165
 20
262.8299685155794805
 30
0.0
 40
1.5277488544062221
 50
294.8509947149665891
 51
2.7296555154788189
  0
ARC
  5
21BE4
  8
0
 10
8599.9868813240882446
 20
274.8861055628511849
 30
0.0
 40
3951.9706577343781646
 50
180.0556216364207103
 51
180.1737356450585992
  0
ARC
  5
21BE5
  8
0
 10
4646.4411594529583454
 20
271.0847127158359058
 30
0.0
 40
1.577316997935881
 50
358.7247711114799813
 51
51.9355792737575399
  0
ARC
  5
21BE6
  8
0
 10
4646.4601219885025785
 20
271.0344108334181783
 30
0.0
 40
1.6058866106553711
 50
53.5749856024027622
 51
90.1896237698680778
  0
ARC
  5
21BE7
  8
0
 10
4640.0924135005880089
 20
269.7109057719292196
 30
0.0
 40
2.809034983159957
 50
84.9036699837685944
 51
90.1547134503098135
  0
ARC
  5
21BE8
  8
0
 10
4640.2364695892583768
 20
271.2226697359363925
 30
0.0
 40
1.2904835797848919
 50
77.812914876589403
 51
85.3119573826945441
  0
ARC
  5
21BE9
  8
0
 10
4640.422454309382374
 20
272.0916107253473228
 30
0.0
 40
0.4018666322237606
 50
68.7526010492045145
 51
77.5785145536006269
  0
ARC
  5
21BEA
  8
0
 10
4640.5287325980298192
 20
272.3624930060614133
 30
0.0
 40
0.1108865111210156
 50
51.7700798149151709
 51
69.2111150938804656
  0
ARC
  5
21BEB
  8
0
 10
4640.5788737998400393
 20
272.42711340251401
 30
0.0
 40
0.0291028895203912
 50
20.9059289021384096
 51
50.5873830515497076
  0
ARC
  5
21BEC
  8
0
 10
4640.590388486599295
 20
272.4326511466143756
 30
0.0
 40
0.0164047473663832
 50
336.9161902762232899
 51
17.1859607952740596
  0
ARC
  5
21BED
  8
0
 10
4640.5713992003238673
 20
272.4432361823081123
 30
0.0
 40
0.0380927877721899
 50
301.6255279191914269
 51
333.4663068210459755
  0
ARC
  5
21BEE
  8
0
 10
4640.3684701882893933
 20
272.8650971477728717
 30
0.0
 40
0.5060350822141908
 50
275.9203953306088124
 51
296.1351689401292901
  0
ARC
  5
21BEF
  8
0
 10
4640.0938874752728225
 20
274.6916076893785998
 30
0.0
 40
2.3526514795496731
 50
269.7793770796129138
 51
277.9840815923002992
  0
POINT
  5
21C73
  8
DEFPOINTS
 10
4640.0848271222221229
 20
275.1738093585976799
 30
0.0
  0
ENDSEC
  0
EOF
