  0
SECTION
  2
HEADER
  9
$ACADVER
  1
AC1009
  9
$INSBASE
 10
4555.4881225609360627
 20
263.9307855426445144
 30
0.0
  9
$EXTMIN
 10
4544.0042029443393403
 20
263.918073592109522
 30
-0.0015258207003583
  9
$EXTMAX
 10
4566.8356082369464275
 20
298.3809071489623079
 30
0.0000000349246037
  9
$LIMMIN
 10
0.0
 20
0.0
  9
$LIMMAX
 10
11.6929133858000007
 20
8.2677165353999982
  9
$ORTHOMODE
 70
     0
  9
$REGENMODE
 70
     1
  9
$FILLMODE
 70
     1
  9
$QTEXTMODE
 70
     0
  9
$MIRRTEXT
 70
     0
  9
$DRAGMODE
 70
     2
  9
$LTSCALE
 40
0.6431102362
  9
$OSMODE
 70
   575
  9
$ATTMODE
 70
     1
  9
$TEXTSIZE
 40
0.2
  9
$TRACEWID
 40
0.05
  9
$TEXTSTYLE
  7
STANDARD
  9
$CLAYER
  8
0
  9
$CELTYPE
  6
BYLAYER
  9
$CECOLOR
 62
   256
  9
$DIMSCALE
 40
1.0
  9
$DIMASZ
 40
0.1875
  9
$DIMEXO
 40
0.0625
  9
$DIMDLI
 40
0.4443307087
  9
$DIMRND
 40
0.0
  9
$DIMDLE
 40
0.0
  9
$DIMEXE
 40
0.125
  9
$DIMTP
 40
0.01
  9
$DIMTM
 40
0.01
  9
$DIMTXT
 40
2.0
  9
$DIMCEN
 40
0.1052362205
  9
$DIMTSZ
 40
0.0
  9
$DIMTOL
 70
     1
  9
$DIMLIM
 70
     0
  9
$DIMTIH
 70
     1
  9
$DIMTOH
 70
     1
  9
$DIMSE1
 70
     0
  9
$DIMSE2
 70
     0
  9
$DIMTAD
 70
     0
  9
$DIMZIN
 70
     0
  9
$DIMBLK
  1

  9
$DIMASO
 70
     1
  9
$DIMSHO
 70
     1
  9
$DIMPOST
  1
\X
  9
$DIMAPOST
  1

  9
$DIMALT
 70
     1
  9
$DIMALTD
 70
     2
  9
$DIMALTF
 40
25.3999999999999986
  9
$DIMLFAC
 40
1.0
  9
$DIMTOFL
 70
     0
  9
$DIMTVP
 40
0.0
  9
$DIMTIX
 70
     0
  9
$DIMSOXD
 70
     0
  9
$DIMSAH
 70
     0
  9
$DIMBLK1
  1

  9
$DIMBLK2
  1

  9
$DIMSTYLE
  2
STANDARD
  9
$DIMCLRD
 70
     0
  9
$DIMCLRE
 70
     0
  9
$DIMCLRT
 70
     0
  9
$DIMTFAC
 40
1.0
  9
$DIMGAP
 40
0.09
  9
$LUNITS
 70
     2
  9
$LUPREC
 70
     4
  9
$SKETCHINC
 40
0.1
  9
$FILLETRAD
 40
0.0
  9
$AUNITS
 70
     0
  9
$AUPREC
 70
     0
  9
$MENU
  1
.
  9
$ELEVATION
 40
0.0
  9
$PELEVATION
 40
0.0
  9
$THICKNESS
 40
0.0
  9
$LIMCHECK
 70
     0
  9
$BLIPMODE
 70
     0
  9
$CHAMFERA
 40
0.0
  9
$CHAMFERB
 40
0.0
  9
$SKPOLY
 70
     0
  9
$TDCREATE
 40
2458060.468368056230247
  9
$TDUPDATE
 40
2459542.1155324070714414
  9
$TDINDWG
 40
0.5321366898
  9
$TDUSRTIMER
 40
0.5321366898
  9
$USRTIMER
 70
     1
  9
$ANGBASE
 50
0.0
  9
$ANGDIR
 70
     0
  9
$PDMODE
 70
     0
  9
$PDSIZE
 40
0.3125
  9
$PLINEWID
 40
0.0
  9
$COORDS
 70
     1
  9
$SPLFRAME
 70
     0
  9
$SPLINETYPE
 70
     6
  9
$SPLINESEGS
 70
     8
  9
$ATTDIA
 70
     1
  9
$ATTREQ
 70
     1
  9
$HANDLING
 70
     1
  9
$HANDSEED
  5
21C03
  9
$SURFTAB1
 70
     6
  9
$SURFTAB2
 70
     6
  9
$SURFTYPE
 70
     6
  9
$SURFU
 70
     6
  9
$SURFV
 70
     6
  9
$UCSNAME
  2

  9
$UCSORG
 10
0.0
 20
0.0
 30
0.0
  9
$UCSXDIR
 10
1.0
 20
0.0
 30
0.0
  9
$UCSYDIR
 10
0.0
 20
1.0
 30
0.0
  9
$PUCSNAME
  2

  9
$PUCSORG
 10
0.0
 20
0.0
 30
0.0
  9
$PUCSXDIR
 10
1.0
 20
0.0
 30
0.0
  9
$PUCSYDIR
 10
0.0
 20
1.0
 30
0.0
  9
$USERI1
 70
     0
  9
$USERI2
 70
     0
  9
$USERI3
 70
     0
  9
$USERI4
 70
     0
  9
$USERI5
 70
     0
  9
$USERR1
 40
0.0
  9
$USERR2
 40
0.0
  9
$USERR3
 40
0.0
  9
$USERR4
 40
0.0
  9
$USERR5
 40
0.0
  9
$WORLDVIEW
 70
     1
  9
$SHADEDGE
 70
     3
  9
$SHADEDIF
 70
    70
  9
$TILEMODE
 70
     1
  9
$MAXACTVP
 70
    64
  9
$PLIMCHECK
 70
     0
  9
$PEXTMIN
 10
1.0000000000000000E+20
 20
1.0000000000000000E+20
 30
1.0000000000000000E+20
  9
$PEXTMAX
 10
-1.0000000000000000E+20
 20
-1.0000000000000000E+20
 30
-1.0000000000000000E+20
  9
$PLIMMIN
 10
0.0
 20
0.0
  9
$PLIMMAX
 10
12.0
 20
9.0
  9
$UNITMODE
 70
     0
  9
$VISRETAIN
 70
     1
  9
$PLINEGEN
 70
     0
  9
$PSLTSCALE
 70
     1
  0
ENDSEC
  0
SECTION
  2
TABLES
  0
TABLE
  2
VPORT
 70
     1
  0
VPORT
  2
*ACTIVE
 70
     0
 10
0.0
 20
0.0
 11
1.0
 21
1.0
 12
644.0545486368184811
 22
148.5698849585357948
 13
0.0
 23
0.0
 14
1.0
 24
1.0
 15
0.0
 25
0.0
 16
0.0
 26
0.0
 36
60.4960186965801583
 17
3911.3653564453120453
 27
132.5796051025390057
 37
0.0
 40
41.7953511721906992
 41
2.7531083481349912
 42
50.0
 43
0.0
 44
0.0
 50
0.0
 51
0.0
 71
     0
 72
   100
 73
     1
 74
     1
 75
     0
 76
     0
 77
     0
 78
     0
  0
ENDTAB
  0
TABLE
  2
LTYPE
 70
     2
  0
LTYPE
  2
CONTINUOUS
 70
     0
  3
Solid line
 72
    65
 73
     0
 40
0.0
  0
LTYPE
  2
PHANTOM2
 70
     0
  3
___ _ _ ___ _ _ ___ _ _ ___ _ _
 72
    65
 73
     6
 40
1.25
 49
0.625
 49
-0.125
 49
0.125
 49
-0.125
 49
0.125
 49
-0.125
  0
ENDTAB
  0
TABLE
  2
LAYER
 70
     2
  0
LAYER
  2
0
 70
     0
 62
   255
  6
CONTINUOUS
  0
LAYER
  2
DEFPOINTS
 70
     0
 62
     7
  6
CONTINUOUS
  0
ENDTAB
  0
TABLE
  2
STYLE
 70
     1
  0
STYLE
  2
STANDARD
 70
     0
 40
0.0
 41
0.8
 50
0.0
 71
     0
 42
0.2
  3
txt
  4

  0
ENDTAB
  0
TABLE
  2
VIEW
 70
     0
  0
ENDTAB
  0
TABLE
  2
UCS
 70
     0
  0
ENDTAB
  0
TABLE
  2
APPID
 70
    11
  0
APPID
  2
ACAD
 70
     0
  0
APPID
  2
ACAD_MLEADERVER
 70
     0
  0
APPID
  2
ACAD_EXEMPT_FROM_CAD_STANDARDS
 70
     0
  0
APPID
  2
ACAD_NAV_VCDISPLAY
 70
     0
  0
APPID
  2
ACAECLAYERSTANDARD
 70
     0
  0
APPID
  2
ACCMTRANSPARENCY
 70
     0
  0
APPID
  2
ACAD_DSTYLE_DIMJAG
 70
     0
  0
APPID
  2
ACAD_DSTYLE_DIMTALN
 70
     0
  0
APPID
  2
ACDBATTR
 70
     0
  0
APPID
  2
ACADANNOTATIVE
 70
     0
  0
APPID
  2
DCO15
 70
     0
  0
ENDTAB
  0
TABLE
  2
DIMSTYLE
 70
     1
  0
DIMSTYLE
  2
STANDARD
 70
     0
  3

  4

  5

  6

  7

 40
1.0
 41
0.1875
 42
0.0625
 43
0.38
 44
0.125
 45
0.0
 46
0.0
 47
0.01
 48
0.01
140
0.15625
141
0.09
142
0.0
143
25.3999999999999986
144
1.0
145
0.0
146
1.0
147
0.09
 71
     1
 72
     0
 73
     1
 74
     1
 75
     0
 76
     0
 77
     0
 78
     4
170
     0
171
     2
172
     0
173
     0
174
     0
175
     0
176
     0
177
     0
178
     0
  0
ENDTAB
  0
ENDSEC
  0
SECTION
  2
BLOCKS
  0
BLOCK
  8
0
  2
$MODEL_SPACE
 70
     0
 10
0.0
 20
0.0
 30
0.0
  3
$MODEL_SPACE
  1

  0
ENDBLK
  5
21
  8
0
  0
BLOCK
 67
     1
  8
0
  2
$PAPER_SPACE
 70
     0
 10
0.0
 20
0.0
 30
0.0
  3
$PAPER_SPACE
  1

  0
ENDBLK
  5
1D
 67
     1
  8
0
  0
ENDSEC
  0
SECTION
  2
ENTITIES
  0
ATTDEF
  5
20106
  8
DEFPOINTS
 10
4555.4881656803663645
 20
263.9296625538606236
 30
0.0
 40
0.001
  1
K-18564X-8
  3

  2
MODELNUMBER
 70
     0
1001
ACDBATTR
1070
     0
1070
     1
  0
ATTDEF
  5
20107
  8
DEFPOINTS
 10
4555.488039870708235
 20
263.9279957134814936
 30
0.0
 40
0.001
  1
REACH
  3

  2
TRADENAME
 70
     0
1001
ACDBATTR
1070
     0
1070
     1
  0
ATTDEF
  5
20108
  8
DEFPOINTS
 10
4555.4881656803663645
 20
263.9263292205272933
 30
0.0
 40
0.001
  1
BATHROOM SINK
  3

  2
PRODUCT
 70
     0
1001
ACDBATTR
1070
     0
1070
     1
  0
LINE
  5
21B0D
  8
0
 10
4554.1748880590357658
 20
291.0615402271445191
 30
0.0
 11
4554.0598120817367089
 21
292.3766103030445151
 31
0.0
  0
LINE
  5
21B0E
  8
0
 10
4554.2550011975372399
 20
290.9881300608445258
 30
0.0
 11
4556.7212426215355663
 21
290.9881300608445258
 31
0.0
  0
LINE
  5
21B0F
  8
0
 10
4556.8013557987369495
 20
291.0615402271445191
 30
0.0
 11
4556.9164317759359619
 21
292.3766103030445151
 31
0.0
  0
LINE
  5
21B10
  8
0
 10
4566.4989105907252451
 20
298.380785542644503
 30
0.0
 11
4544.4716406082416142
 21
298.380785542644503
 31
0.0
  0
ARC
  5
21B11
  8
0
 10
4547.4793395518372563
 20
292.6220274959445078
 30
0.0
 40
0.2403521932
 50
267.167534485383726
 51
295.2360902460973762
  0
ARC
  5
21B12
  8
0
 10
4553.8617993723146355
 20
292.3587984368418233
 30
0.0
 40
0.1988122120757604
 50
5.1401015924303
 51
13.4147918721111594
  0
ARC
  5
21B13
  8
0
 10
4554.2550011975372399
 20
291.06854921854449
 30
0.0
 40
0.0804191577
 50
185.0000000000972022
 51
270.0
  0
ARC
  5
21B14
  8
0
 10
4556.7212426601372499
 20
291.06854921854449
 30
0.0
 40
0.0804191577000188
 50
269.9999724988899175
 51
354.9999999998917133
  0
ARC
  5
21B15
  8
0
 10
4555.4881225610251931
 20
-20952.8766992178389046
 30
0.0
 40
21245.2827851954498328
 50
89.9786777067016033
 51
90.0213222932983825
  0
ARC
  5
21B16
  8
0
 10
4548.1239809920098196
 20
306.5867347213475114
 30
0.0
 40
14.2199292385047897
 50
266.4399799477387774
 51
267.3537757128909789
  0
ARC
  5
21B17
  8
0
 10
4547.2596155822648143
 20
292.7652800673810134
 30
0.0
 40
0.371500713276069
 50
254.5126732048265978
 51
267.1288806617683917
  0
ARC
  5
21B18
  8
0
 10
4548.1493251172087184
 20
295.6537210410779153
 30
0.0
 40
3.393728758955064
 50
207.7147352771004876
 51
253.0586147027995878
  0
ARC
  5
21B19
  8
0
 10
4554.4706950619356576
 20
298.2996962728739163
 30
0.0
 40
10.2378848761714707
 50
189.2740605292125053
 51
204.3691552927095074
  0
ARC
  5
21B1A
  8
0
 10
4554.2497628248092951
 20
298.2866145436830152
 30
0.0
 40
10.0177579861548605
 50
180.7953541387051075
 51
189.4038574603688119
  0
ARC
  5
21B1B
  8
0
 10
4544.4744875696960662
 20
298.1391380726819875
 30
0.0
 40
0.2416642400703942
 50
90.6749970492737987
 51
178.0035622819657988
  0
ARC
  5
21B1C
  8
0
 10
4563.4969055700357785
 20
292.6220274959445078
 30
0.0
 40
0.2403521932
 50
244.763909755120892
 51
272.832465514616274
  0
ARC
  5
21B1D
  8
0
 10
4562.8522641298632152
 20
306.5867347213475114
 30
0.0
 40
14.2199292385047897
 50
272.6462242871090211
 51
273.5600200522612226
  0
ARC
  5
21B1E
  8
0
 10
4563.7166295396082205
 20
292.7652800673810134
 30
0.0
 40
0.371500713276069
 50
272.8711193382316083
 51
285.4873267951734874
  0
ARC
  5
21B1F
  8
0
 10
4562.8269200046643164
 20
295.6537210410779153
 30
0.0
 40
3.393728758955064
 50
286.9413852972003838
 51
332.2852647228993987
  0
ARC
  5
21B20
  8
0
 10
4555.4493832504658712
 20
298.6190065014723132
 30
0.0
 40
11.3326321263480008
 50
336.3635937071729245
 51
349.9931904709031869
  0
ARC
  5
21B21
  8
0
 10
4556.7264822970646492
 20
298.2866145436830152
 30
0.0
 40
10.0177579861548605
 50
350.5961425396296249
 51
359.2046458612949209
  0
ARC
  5
21B22
  8
0
 10
4566.5017575521778781
 20
298.1391380726819875
 30
0.0
 40
0.2416642400703942
 50
1.9964377180341819
 51
90.6749970492216733
  0
LINE
  5
21B23
  8
0
 10
4556.9164317759359619
 20
292.3766103030445151
 30
0.0
 11
4556.9211660913542801
 21
292.4060376465556033
 31
0.0
  0
ENDSEC
  0
EOF
