  0
SECTION
  2
HEADER
  9
$ACADVER
  1
AC1009
  9
$INSBASE
 10
169.9788752998211123
 20
-86.349647025376143
 30
0.0
  9
$EXTMIN
 10
150.3033334382461987
 20
-86.349647025376143
 30
0.0
  9
$EXTMAX
 10
169.9897496457045918
 20
-78.849441658793495
 30
0.0
  9
$LIMMIN
 10
0.0
 20
0.0
  9
$LIMMAX
 10
11.6929133858000007
 20
8.2677165353999982
  9
$ORTHOMODE
 70
     1
  9
$REGENMODE
 70
     1
  9
$FILLMODE
 70
     1
  9
$QTEXTMODE
 70
     0
  9
$MIRRTEXT
 70
     0
  9
$DRAGMODE
 70
     2
  9
$LTSCALE
 40
0.6431102362
  9
$OSMODE
 70
  4095
  9
$ATTMODE
 70
     1
  9
$TEXTSIZE
 40
0.2
  9
$TRACEWID
 40
0.05
  9
$TEXTSTYLE
  7
STANDARD
  9
$CLAYER
  8
0
  9
$CELTYPE
  6
BYLAYER
  9
$CECOLOR
 62
   256
  9
$DIMSCALE
 40
1.0
  9
$DIMASZ
 40
0.1875
  9
$DIMEXO
 40
0.0625
  9
$DIMDLI
 40
0.4443307087
  9
$DIMRND
 40
0.0
  9
$DIMDLE
 40
0.0
  9
$DIMEXE
 40
0.125
  9
$DIMTP
 40
0.01
  9
$DIMTM
 40
0.01
  9
$DIMTXT
 40
1.0
  9
$DIMCEN
 40
0.1052362205
  9
$DIMTSZ
 40
0.0
  9
$DIMTOL
 70
     1
  9
$DIMLIM
 70
     0
  9
$DIMTIH
 70
     1
  9
$DIMTOH
 70
     1
  9
$DIMSE1
 70
     0
  9
$DIMSE2
 70
     0
  9
$DIMTAD
 70
     0
  9
$DIMZIN
 70
     0
  9
$DIMBLK
  1

  9
$DIMASO
 70
     1
  9
$DIMSHO
 70
     1
  9
$DIMPOST
  1
\X
  9
$DIMAPOST
  1

  9
$DIMALT
 70
     1
  9
$DIMALTD
 70
     2
  9
$DIMALTF
 40
25.3999999999999986
  9
$DIMLFAC
 40
1.0
  9
$DIMTOFL
 70
     0
  9
$DIMTVP
 40
0.0
  9
$DIMTIX
 70
     0
  9
$DIMSOXD
 70
     0
  9
$DIMSAH
 70
     0
  9
$DIMBLK1
  1

  9
$DIMBLK2
  1

  9
$DIMSTYLE
  2
STANDARD
  9
$DIMCLRD
 70
     0
  9
$DIMCLRE
 70
     0
  9
$DIMCLRT
 70
     0
  9
$DIMTFAC
 40
1.0
  9
$DIMGAP
 40
0.09
  9
$LUNITS
 70
     2
  9
$LUPREC
 70
     4
  9
$SKETCHINC
 40
0.1
  9
$FILLETRAD
 40
0.0
  9
$AUNITS
 70
     0
  9
$AUPREC
 70
     0
  9
$MENU
  1
.
  9
$ELEVATION
 40
0.0
  9
$PELEVATION
 40
0.0
  9
$THICKNESS
 40
0.0
  9
$LIMCHECK
 70
     0
  9
$BLIPMODE
 70
     0
  9
$CHAMFERA
 40
0.0
  9
$CHAMFERB
 40
0.0
  9
$SKPOLY
 70
     0
  9
$TDCREATE
 40
2458172.4620254631154239
  9
$TDUPDATE
 40
2459152.5356944450177252
  9
$TDINDWG
 40
0.1336517708
  9
$TDUSRTIMER
 40
0.1336517708
  9
$USRTIMER
 70
     1
  9
$ANGBASE
 50
0.0
  9
$ANGDIR
 70
     0
  9
$PDMODE
 70
     0
  9
$PDSIZE
 40
0.3125
  9
$PLINEWID
 40
0.0
  9
$COORDS
 70
     1
  9
$SPLFRAME
 70
     0
  9
$SPLINETYPE
 70
     6
  9
$SPLINESEGS
 70
     8
  9
$ATTDIA
 70
     1
  9
$ATTREQ
 70
     1
  9
$HANDLING
 70
     1
  9
$HANDSEED
  5
6A23
  9
$SURFTAB1
 70
     6
  9
$SURFTAB2
 70
     6
  9
$SURFTYPE
 70
     6
  9
$SURFU
 70
     6
  9
$SURFV
 70
     6
  9
$UCSNAME
  2

  9
$UCSORG
 10
0.0
 20
0.0
 30
0.0
  9
$UCSXDIR
 10
1.0
 20
0.0
 30
0.0
  9
$UCSYDIR
 10
0.0
 20
1.0
 30
0.0
  9
$PUCSNAME
  2

  9
$PUCSORG
 10
0.0
 20
0.0
 30
0.0
  9
$PUCSXDIR
 10
1.0
 20
0.0
 30
0.0
  9
$PUCSYDIR
 10
0.0
 20
1.0
 30
0.0
  9
$USERI1
 70
     0
  9
$USERI2
 70
     0
  9
$USERI3
 70
     0
  9
$USERI4
 70
     0
  9
$USERI5
 70
     0
  9
$USERR1
 40
0.0
  9
$USERR2
 40
0.0
  9
$USERR3
 40
0.0
  9
$USERR4
 40
0.0
  9
$USERR5
 40
0.0
  9
$WORLDVIEW
 70
     1
  9
$SHADEDGE
 70
     3
  9
$SHADEDIF
 70
    70
  9
$TILEMODE
 70
     1
  9
$MAXACTVP
 70
    64
  9
$PLIMCHECK
 70
     0
  9
$PEXTMIN
 10
1.0000000000000000E+20
 20
1.0000000000000000E+20
 30
1.0000000000000000E+20
  9
$PEXTMAX
 10
-1.0000000000000000E+20
 20
-1.0000000000000000E+20
 30
-1.0000000000000000E+20
  9
$PLIMMIN
 10
0.0
 20
0.0
  9
$PLIMMAX
 10
12.0
 20
9.0
  9
$UNITMODE
 70
     0
  9
$VISRETAIN
 70
     1
  9
$PLINEGEN
 70
     0
  9
$PSLTSCALE
 70
     1
  0
ENDSEC
  0
SECTION
  2
TABLES
  0
TABLE
  2
VPORT
 70
     1
  0
VPORT
  2
*ACTIVE
 70
     0
 10
0.0
 20
0.0
 11
1.0
 21
1.0
 12
38.8346830559448577
 22
-87.961533276015814
 13
0.0
 23
0.0
 14
1.0
 24
1.0
 15
0.0
 25
0.0
 16
0.0
 26
0.0
 36
30.6214257250603907
 17
124.6111586000725993
 27
5.3122741703778242
 37
0.0
 40
74.8950751451661318
 41
2.005224660397074
 42
50.0
 43
0.0
 44
0.0
 50
0.0
 51
0.0
 71
     0
 72
   100
 73
     1
 74
     1
 75
     0
 76
     0
 77
     0
 78
     0
  0
ENDTAB
  0
TABLE
  2
LTYPE
 70
     2
  0
LTYPE
  2
CONTINUOUS
 70
     0
  3
Solid line
 72
    65
 73
     0
 40
0.0
  0
LTYPE
  2
PHANTOM2
 70
     0
  3
___ _ _ ___ _ _ ___ _ _ ___ _ _
 72
    65
 73
     6
 40
1.25
 49
0.625
 49
-0.125
 49
0.125
 49
-0.125
 49
0.125
 49
-0.125
  0
ENDTAB
  0
TABLE
  2
LAYER
 70
     2
  0
LAYER
  2
0
 70
     0
 62
   255
  6
CONTINUOUS
  0
LAYER
  2
DEFPOINTS
 70
     0
 62
     7
  6
CONTINUOUS
  0
ENDTAB
  0
TABLE
  2
STYLE
 70
     1
  0
STYLE
  2
STANDARD
 70
     0
 40
0.0
 41
0.8
 50
0.0
 71
     0
 42
0.2
  3
txt
  4

  0
ENDTAB
  0
TABLE
  2
VIEW
 70
     0
  0
ENDTAB
  0
TABLE
  2
UCS
 70
     0
  0
ENDTAB
  0
TABLE
  2
APPID
 70
     9
  0
APPID
  2
ACAD
 70
     0
  0
APPID
  2
ACAD_MLEADERVER
 70
     0
  0
APPID
  2
ACAD_EXEMPT_FROM_CAD_STANDARDS
 70
     0
  0
APPID
  2
ACAD_DSTYLE_DIMJAG
 70
     0
  0
APPID
  2
ACAD_DSTYLE_DIMTALN
 70
     0
  0
APPID
  2
ACAD_NAV_VCDISPLAY
 70
     0
  0
APPID
  2
ACAECLAYERSTANDARD
 70
     0
  0
APPID
  2
ACCMTRANSPARENCY
 70
     0
  0
APPID
  2
ACDBATTR
 70
     0
  0
ENDTAB
  0
TABLE
  2
DIMSTYLE
 70
     1
  0
DIMSTYLE
  2
STANDARD
 70
     0
  3

  4

  5

  6

  7

 40
1.0
 41
0.1875
 42
0.0625
 43
0.38
 44
0.125
 45
0.0
 46
0.0
 47
0.01
 48
0.01
140
0.15625
141
0.09
142
0.0
143
25.3999999999999986
144
1.0
145
0.0
146
1.0
147
0.09
 71
     1
 72
     0
 73
     1
 74
     1
 75
     0
 76
     0
 77
     0
 78
     4
170
     0
171
     2
172
     0
173
     0
174
     0
175
     0
176
     0
177
     0
178
     0
  0
ENDTAB
  0
ENDSEC
  0
SECTION
  2
BLOCKS
  0
BLOCK
  8
0
  2
$MODEL_SPACE
 70
     0
 10
0.0
 20
0.0
 30
0.0
  3
$MODEL_SPACE
  1

  0
ENDBLK
  5
21
  8
0
  0
BLOCK
 67
     1
  8
0
  2
$PAPER_SPACE
 70
     0
 10
0.0
 20
0.0
 30
0.0
  3
$PAPER_SPACE
  1

  0
ENDBLK
  5
1D
 67
     1
  8
0
  0
BLOCK
  8
0
  2
_FILLED
 70
     0
 10
0.0
 20
0.0
 30
0.0
  3
_FILLED
  1

  0
SOLID
  5
6541
  8
0
  6
BYBLOCK
 62
     0
 10
0.0
 20
0.0
 30
0.0
 11
-1.0
 21
0.1666666667
 31
0.0
 12
-1.0
 22
-0.1666666667
 32
0.0
 13
-1.0
 23
-0.1666666667
 33
0.0
  0
ENDBLK
  5
6542
  8
0
  6
BYBLOCK
 62
     0
  0
ENDSEC
  0
SECTION
  2
ENTITIES
  0
ATTDEF
  5
6350
  8
DEFPOINTS
 10
169.9790829790377984
 20
-86.3461958563074035
 30
0.0
 40
0.001
  1
K-18571W
  3

  2
MODELNUMBER
 70
     0
1001
ACDBATTR
1070
     0
1070
     1
  0
ATTDEF
  5
6351
  8
DEFPOINTS
 10
169.9790829790377984
 20
-86.3478625229740686
 30
0.0
 40
0.001
  1
REACH
  3

  2
TRADENAME
 70
     0
1001
ACDBATTR
1070
     0
1070
     1
  0
ATTDEF
  5
6352
  8
DEFPOINTS
 10
169.9790829790377984
 20
-86.3495291896407338
 30
0.0
 40
0.001
  1
BATHROOM SINK
  3

  2
PRODUCT
 70
     0
1001
ACDBATTR
1070
     0
1070
     1
  0
LINE
  5
68B7
  8
0
 10
150.6182948709466132
 20
-78.9481512893699886
 30
0.0
 11
169.1955840814306953
 21
-78.9483094939086669
 31
0.0
  0
ARC
  5
68B8
  8
0
 10
168.9520778667771879
 20
-76.9802967789489259
 30
0.0
 40
1.98302025275035
 50
277.0534737562443865
 51
288.6478522038767096
  0
LINE
  5
68B9
  8
0
 10
169.9788752998211123
 20
-79.1595761195103904
 30
0.0
 11
169.8728993358222112
 21
-85.2507226110982543
 31
0.0
  0
ARC
  5
68BA
  8
0
 10
169.6766212103808869
 20
-85.2474316024346166
 30
0.0
 40
0.1963057137853407
 50
271.847586744012915
 51
359.0394077842723277
  0
LINE
  5
68BB
  8
0
 10
169.6829502800663931
 20
-85.4436352622926591
 30
0.0
 11
167.023754861446605
 21
-85.4441352142761588
 31
0.0
  0
ARC
  5
68BC
  8
0
 10
167.0237548617737957
 20
-84.65673363417595
 30
0.0
 40
0.7874015801002017
 50
255.8705146135355903
 51
269.9999999761938057
  0
LINE
  5
68BD
  8
0
 10
166.8315390398466036
 20
-85.4203135750761646
 30
0.0
 11
164.674830755824587
 21
-84.8774058410388932
 31
0.0
  0
ARC
  5
68BE
  8
0
 10
164.4824232001155053
 20
-85.6417478395602814
 30
0.0
 40
0.7881873877432938
 50
75.8705215802227428
 51
89.5570058694208058
  0
ARC
  5
68BF
  8
0
 10
150.6181614842886916
 20
-79.2629793071558026
 30
0.0
 40
0.3148280460425064
 50
89.9757248667423966
 51
181.0102547916644937
  0
LINE
  5
68C0
  8
0
 10
150.303382376530493
 20
-79.2685301533882978
 30
0.0
 11
150.3397563820518883
 21
-81.3523955477245835
 31
0.0
  0
ARC
  5
68C1
  8
0
 10
150.4972152852097906
 20
-81.3496459847782489
 30
0.0
 40
0.1574829078982009
 50
181.0004028965337
 51
269.9989902976170129
  0
LINE
  5
68C2
  8
0
 10
150.4972125099465927
 20
-81.507128892651977
 30
0.0
 11
169.7826245510466094
 21
-81.507128892651977
 31
0.0
  0
ARC
  5
68C3
  8
0
 10
169.7816429352328953
 20
-81.3478515604586647
 30
0.0
 40
0.1592803569817382
 50
270.3531056830668717
 51
358.4356871669476163
  0
LINE
  5
68C4
  8
0
 10
152.7995738345040877
 20
-81.507128892651977
 30
0.0
 11
152.9651916010369064
 21
-84.667092636129766
 31
0.0
  0
ARC
  5
68C5
  8
0
 10
153.1617127469235982
 20
-84.6567925246072832
 30
0.0
 40
0.1967908866742388
 50
183.0002543158553863
 51
270.0147155892667001
  0
LINE
  5
68C6
  8
0
 10
153.1617632898056911
 20
-84.8535834047909105
 30
0.0
 11
169.682896646810093
 21
-84.8535842880365152
 31
0.0
  0
ARC
  5
68C7
  8
0
 10
159.01347034503911
 20
-85.0596724214734223
 30
0.0
 40
0.2072483061529063
 50
11.1315362605867403
 51
83.9361339777189244
  0
ARC
  5
68C8
  8
0
 10
159.01347034503911
 20
-85.0596724214734223
 30
0.0
 40
0.2072483061529063
 50
96.0631928711418368
 51
96.0646887046113278
  0
LINE
  5
68C9
  8
0
 10
159.2168195953466068
 20
-85.0196606381761484
 30
0.0
 11
159.4283859084723929
 21
-86.2195128788727629
 31
0.0
  0
ARC
  5
68CA
  8
0
 10
159.5834737438466107
 20
-86.1921667103761422
 30
0.0
 40
0.157480315000019
 50
189.9999995487198987
 51
270.000000005300592
  0
ARC
  5
68CB
  8
0
 10
161.8782001357710101
 20
-86.1921126312489889
 30
0.0
 40
0.1575344006626658
 50
270.0165040071819931
 51
349.983495952954911
  0
ARC
  5
68CC
  8
0
 10
162.3537992441472113
 20
-86.2391091500077636
 30
0.0
 40
0.3210644856348394
 50
98.5504781646890677
 51
176.5007595018603865
  0
ARC
  5
68CD
  8
0
 10
169.6862640016472881
 20
-84.6568151896584453
 30
0.0
 40
0.1967979094277161
 50
269.0195798492305244
 51
358.9334491180073883
  0
ARC
  5
68CE
  8
0
 10
162.1208022401544895
 20
-83.0842420466293845
 30
0.0
 40
2.8434128691471101
 50
273.735719541125718
 51
321.5186433704391789
  0
ARC
  5
68CF
  8
0
 10
165.882542779712594
 20
-88.9691063485583555
 30
0.0
 40
4.1239353877672862
 50
67.5895390211868801
 51
86.3395491934929851
  0
ARC
  5
68D0
  8
0
 10
165.8082498654949859
 20
-89.1036288793082747
 30
0.0
 40
4.2766570515065538
 50
61.9217637450436413
 51
67.3564678567553159
  0
ARC
  5
68D1
  8
0
 10
168.2799523903852048
 20
-84.4703064082336965
 30
0.0
 40
0.9747228140633964
 50
241.9217637450433074
 51
272.7701866411180731
  0
ARC
  5
68D2
  8
0
 10
169.6768025746966941
 20
-79.1625946725498153
 30
0.0
 40
0.302087806649916
 50
0.5725263442882619
 51
10.4810452093878403
  0
ARC
  5
68D3
  8
0
 10
169.6641041913468086
 20
-79.1642784349318731
 30
0.0
 40
0.3148366599751167
 50
51.6554096071856819
 51
90.011007081857727
  0
ARC
  5
68D4
  8
0
 10
169.6640437075112118
 20
-79.1643886565778701
 30
0.0
 40
0.3149606303662923
 50
10.3797341333414295
 51
51.6592194825015127
  0
LINE
  5
68D5
  8
0
 10
159.583473743861191
 20
-86.349647025376143
 30
0.0
 11
161.8782455134387135
 21
-86.349647025376143
 31
0.0
  0
ARC
  5
68D6
  8
0
 10
169.6637676288547141
 20
-79.1618870234189984
 30
0.0
 40
0.3124453646255018
 50
89.9493729742020918
 51
104.3854946892985964
  0
ENDSEC
  0
EOF
