  0
SECTION
  2
HEADER
  9
$ACADVER
  1
AC1009
  9
$INSBASE
 10
124.5995341997962953
 20
-86.2457000843739365
 30
0.0
  9
$EXTMIN
 10
104.9236038751635931
 20
-86.2457000843739365
 30
0.0
  9
$EXTMAX
 10
124.6103538650366005
 20
-78.7454947199206003
 30
0.0
  9
$LIMMIN
 10
0.0
 20
0.0
  9
$LIMMAX
 10
11.6929133858000007
 20
8.2677165353999982
  9
$ORTHOMODE
 70
     0
  9
$REGENMODE
 70
     1
  9
$FILLMODE
 70
     1
  9
$QTEXTMODE
 70
     0
  9
$MIRRTEXT
 70
     0
  9
$DRAGMODE
 70
     2
  9
$LTSCALE
 40
0.6431102362
  9
$OSMODE
 70
  4095
  9
$ATTMODE
 70
     1
  9
$TEXTSIZE
 40
0.2
  9
$TRACEWID
 40
0.05
  9
$TEXTSTYLE
  7
STANDARD
  9
$CLAYER
  8
0
  9
$CELTYPE
  6
BYLAYER
  9
$CECOLOR
 62
   256
  9
$DIMSCALE
 40
1.0
  9
$DIMASZ
 40
0.1875
  9
$DIMEXO
 40
0.0625
  9
$DIMDLI
 40
0.4443307087
  9
$DIMRND
 40
0.0
  9
$DIMDLE
 40
0.0
  9
$DIMEXE
 40
0.125
  9
$DIMTP
 40
0.01
  9
$DIMTM
 40
0.01
  9
$DIMTXT
 40
1.0
  9
$DIMCEN
 40
0.1052362205
  9
$DIMTSZ
 40
0.0
  9
$DIMTOL
 70
     1
  9
$DIMLIM
 70
     0
  9
$DIMTIH
 70
     1
  9
$DIMTOH
 70
     1
  9
$DIMSE1
 70
     0
  9
$DIMSE2
 70
     0
  9
$DIMTAD
 70
     0
  9
$DIMZIN
 70
     0
  9
$DIMBLK
  1

  9
$DIMASO
 70
     1
  9
$DIMSHO
 70
     1
  9
$DIMPOST
  1
\X
  9
$DIMAPOST
  1

  9
$DIMALT
 70
     1
  9
$DIMALTD
 70
     2
  9
$DIMALTF
 40
25.3999999999999986
  9
$DIMLFAC
 40
1.0
  9
$DIMTOFL
 70
     0
  9
$DIMTVP
 40
0.0
  9
$DIMTIX
 70
     0
  9
$DIMSOXD
 70
     0
  9
$DIMSAH
 70
     0
  9
$DIMBLK1
  1

  9
$DIMBLK2
  1

  9
$DIMSTYLE
  2
STANDARD
  9
$DIMCLRD
 70
     0
  9
$DIMCLRE
 70
     0
  9
$DIMCLRT
 70
     0
  9
$DIMTFAC
 40
1.0
  9
$DIMGAP
 40
0.09
  9
$LUNITS
 70
     2
  9
$LUPREC
 70
     4
  9
$SKETCHINC
 40
0.1
  9
$FILLETRAD
 40
0.0
  9
$AUNITS
 70
     0
  9
$AUPREC
 70
     0
  9
$MENU
  1
.
  9
$ELEVATION
 40
0.0
  9
$PELEVATION
 40
0.0
  9
$THICKNESS
 40
0.0
  9
$LIMCHECK
 70
     0
  9
$BLIPMODE
 70
     0
  9
$CHAMFERA
 40
0.0
  9
$CHAMFERB
 40
0.0
  9
$SKPOLY
 70
     0
  9
$TDCREATE
 40
2458172.4620254631154239
  9
$TDUPDATE
 40
2459152.5431249998509884
  9
$TDINDWG
 40
0.1342304745
  9
$TDUSRTIMER
 40
0.1342304745
  9
$USRTIMER
 70
     1
  9
$ANGBASE
 50
0.0
  9
$ANGDIR
 70
     0
  9
$PDMODE
 70
     0
  9
$PDSIZE
 40
0.3125
  9
$PLINEWID
 40
0.0
  9
$COORDS
 70
     1
  9
$SPLFRAME
 70
     0
  9
$SPLINETYPE
 70
     6
  9
$SPLINESEGS
 70
     8
  9
$ATTDIA
 70
     1
  9
$ATTREQ
 70
     1
  9
$HANDLING
 70
     1
  9
$HANDSEED
  5
6CE4
  9
$SURFTAB1
 70
     6
  9
$SURFTAB2
 70
     6
  9
$SURFTYPE
 70
     6
  9
$SURFU
 70
     6
  9
$SURFV
 70
     6
  9
$UCSNAME
  2

  9
$UCSORG
 10
0.0
 20
0.0
 30
0.0
  9
$UCSXDIR
 10
1.0
 20
0.0
 30
0.0
  9
$UCSYDIR
 10
0.0
 20
1.0
 30
0.0
  9
$PUCSNAME
  2

  9
$PUCSORG
 10
0.0
 20
0.0
 30
0.0
  9
$PUCSXDIR
 10
1.0
 20
0.0
 30
0.0
  9
$PUCSYDIR
 10
0.0
 20
1.0
 30
0.0
  9
$USERI1
 70
     0
  9
$USERI2
 70
     0
  9
$USERI3
 70
     0
  9
$USERI4
 70
     0
  9
$USERI5
 70
     0
  9
$USERR1
 40
0.0
  9
$USERR2
 40
0.0
  9
$USERR3
 40
0.0
  9
$USERR4
 40
0.0
  9
$USERR5
 40
0.0
  9
$WORLDVIEW
 70
     1
  9
$SHADEDGE
 70
     3
  9
$SHADEDIF
 70
    70
  9
$TILEMODE
 70
     1
  9
$MAXACTVP
 70
    64
  9
$PLIMCHECK
 70
     0
  9
$PEXTMIN
 10
1.0000000000000000E+20
 20
1.0000000000000000E+20
 30
1.0000000000000000E+20
  9
$PEXTMAX
 10
-1.0000000000000000E+20
 20
-1.0000000000000000E+20
 30
-1.0000000000000000E+20
  9
$PLIMMIN
 10
0.0
 20
0.0
  9
$PLIMMAX
 10
12.0
 20
9.0
  9
$UNITMODE
 70
     0
  9
$VISRETAIN
 70
     1
  9
$PLINEGEN
 70
     0
  9
$PSLTSCALE
 70
     1
  0
ENDSEC
  0
SECTION
  2
TABLES
  0
TABLE
  2
VPORT
 70
     1
  0
VPORT
  2
*ACTIVE
 70
     0
 10
0.0
 20
0.0
 11
1.0
 21
1.0
 12
17.1862155009078705
 22
-93.0917732333331855
 13
0.0
 23
0.0
 14
1.0
 24
1.0
 15
0.0
 25
0.0
 16
0.0
 26
0.0
 36
30.6214257250603907
 17
124.6111586000725993
 27
5.3122741703778242
 37
0.0
 40
66.8945604352739593
 41
2.005224660397074
 42
50.0
 43
0.0
 44
0.0
 50
0.0
 51
0.0
 71
     0
 72
   100
 73
     1
 74
     1
 75
     0
 76
     0
 77
     0
 78
     0
  0
ENDTAB
  0
TABLE
  2
LTYPE
 70
     2
  0
LTYPE
  2
CONTINUOUS
 70
     0
  3
Solid line
 72
    65
 73
     0
 40
0.0
  0
LTYPE
  2
PHANTOM2
 70
     0
  3
___ _ _ ___ _ _ ___ _ _ ___ _ _
 72
    65
 73
     6
 40
1.25
 49
0.625
 49
-0.125
 49
0.125
 49
-0.125
 49
0.125
 49
-0.125
  0
ENDTAB
  0
TABLE
  2
LAYER
 70
     2
  0
LAYER
  2
0
 70
     0
 62
   255
  6
CONTINUOUS
  0
LAYER
  2
DEFPOINTS
 70
     0
 62
     7
  6
CONTINUOUS
  0
ENDTAB
  0
TABLE
  2
STYLE
 70
     1
  0
STYLE
  2
STANDARD
 70
     0
 40
0.0
 41
0.8
 50
0.0
 71
     0
 42
0.2
  3
txt
  4

  0
ENDTAB
  0
TABLE
  2
VIEW
 70
     0
  0
ENDTAB
  0
TABLE
  2
UCS
 70
     0
  0
ENDTAB
  0
TABLE
  2
APPID
 70
     9
  0
APPID
  2
ACAD
 70
     0
  0
APPID
  2
ACAD_MLEADERVER
 70
     0
  0
APPID
  2
ACAD_EXEMPT_FROM_CAD_STANDARDS
 70
     0
  0
APPID
  2
ACAD_DSTYLE_DIMJAG
 70
     0
  0
APPID
  2
ACAD_DSTYLE_DIMTALN
 70
     0
  0
APPID
  2
ACAD_NAV_VCDISPLAY
 70
     0
  0
APPID
  2
ACAECLAYERSTANDARD
 70
     0
  0
APPID
  2
ACCMTRANSPARENCY
 70
     0
  0
APPID
  2
ACDBATTR
 70
     0
  0
ENDTAB
  0
TABLE
  2
DIMSTYLE
 70
     1
  0
DIMSTYLE
  2
STANDARD
 70
     0
  3

  4

  5

  6

  7

 40
1.0
 41
0.1875
 42
0.0625
 43
0.38
 44
0.125
 45
0.0
 46
0.0
 47
0.01
 48
0.01
140
0.15625
141
0.09
142
0.0
143
25.3999999999999986
144
1.0
145
0.0
146
1.0
147
0.09
 71
     1
 72
     0
 73
     1
 74
     1
 75
     0
 76
     0
 77
     0
 78
     4
170
     0
171
     2
172
     0
173
     0
174
     0
175
     0
176
     0
177
     0
178
     0
  0
ENDTAB
  0
ENDSEC
  0
SECTION
  2
BLOCKS
  0
BLOCK
  8
0
  2
$MODEL_SPACE
 70
     0
 10
0.0
 20
0.0
 30
0.0
  3
$MODEL_SPACE
  1

  0
ENDBLK
  5
21
  8
0
  0
BLOCK
 67
     1
  8
0
  2
$PAPER_SPACE
 70
     0
 10
0.0
 20
0.0
 30
0.0
  3
$PAPER_SPACE
  1

  0
ENDBLK
  5
1D
 67
     1
  8
0
  0
BLOCK
  8
0
  2
_FILLED
 70
     0
 10
0.0
 20
0.0
 30
0.0
  3
_FILLED
  1

  0
SOLID
  5
6A03
  8
0
  6
BYBLOCK
 62
     0
 10
0.0
 20
0.0
 30
0.0
 11
-1.0
 21
0.1666666667
 31
0.0
 12
-1.0
 22
-0.1666666667
 32
0.0
 13
-1.0
 23
-0.1666666667
 33
0.0
  0
ENDBLK
  5
6A04
  8
0
  6
BYBLOCK
 62
     0
  0
ENDSEC
  0
SECTION
  2
ENTITIES
  0
ATTDEF
  5
56D7
  8
DEFPOINTS
 10
124.5996871983700061
 20
-86.2419801073615986
 30
0.0
 40
0.001
  1
K-18572W
  3

  2
MODELNUMBER
 70
     0
1001
ACDBATTR
1070
     0
1070
     1
  0
ATTDEF
  5
56D8
  8
DEFPOINTS
 10
124.5996871983700061
 20
-86.2436467740282637
 30
0.0
 40
0.001
  1
REACH
  3

  2
TRADENAME
 70
     0
1001
ACDBATTR
1070
     0
1070
     1
  0
ATTDEF
  5
56D9
  8
DEFPOINTS
 10
124.5996871983700061
 20
-86.2453134406949289
 30
0.0
 40
0.001
  1
BATHROOM SINK
  3

  2
PRODUCT
 70
     0
1001
ACDBATTR
1070
     0
1070
     1
  0
LINE
  5
6B7B
  8
0
 10
105.2387403500822955
 20
-78.844204365512482
 30
0.0
 11
123.8160295605664061
 21
-78.8443625700511603
 31
0.0
  0
ARC
  5
6B7C
  8
0
 10
123.5721450191893069
 20
-76.8741937115284202
 30
0.0
 40
1.9852065385283071
 50
277.0566686676942822
 51
288.6378436984481937
  0
LINE
  5
6B7D
  8
0
 10
124.597613212581706
 20
-79.1731678220845367
 30
0.0
 11
124.4917461639921044
 21
-85.2383623396642491
 31
0.0
  0
ARC
  5
6B7E
  8
0
 10
105.238733236859602
 20
-79.1593337271281712
 30
0.0
 40
0.3151293616959712
 50
89.9987066973441046
 51
180.9542542141234946
  0
LINE
  5
6B7F
  8
0
 10
104.9236475802259037
 20
-79.1645819255453347
 30
0.0
 11
104.9602018611875991
 21
-81.2484486238670911
 31
0.0
  0
ARC
  5
6B80
  8
0
 10
105.1176607346727963
 20
-81.245699073669158
 30
0.0
 40
0.1574828780074781
 50
181.0003984475677896
 51
269.9990010930013113
  0
LINE
  5
6B81
  8
0
 10
105.1176579890823035
 20
-81.4031819516527122
 30
0.0
 11
124.403070030182306
 21
-81.4031819516527122
 31
0.0
  0
ARC
  5
6B82
  8
0
 10
124.4020884445040025
 20
-81.2439046497575958
 30
0.0
 40
0.1592803264983929
 50
270.3530949102296859
 51
358.4356916018405173
  0
LINE
  5
6B83
  8
0
 10
107.4200193136397985
 20
-81.4031819687944846
 30
0.0
 11
107.5856370801725035
 21
-84.5631457122722594
 31
0.0
  0
ARC
  5
6B84
  8
0
 10
107.7821556986695981
 20
-84.5528467660993641
 30
0.0
 40
0.1967883017566033
 50
182.9999539995004909
 51
270.0154516432356786
  0
LINE
  5
6B85
  8
0
 10
107.7822087689414019
 20
-84.74963506069993
 30
0.0
 11
124.3033421259458038
 21
-84.7496359439455347
 31
0.0
  0
ARC
  5
6B86
  8
0
 10
113.6339125031035024
 20
-84.955727363806318
 30
0.0
 40
0.2072519250374232
 50
11.1318652163227103
 51
83.9353169650713227
  0
ARC
  5
6B87
  8
0
 10
113.6339158241748066
 20
-84.9557254976159157
 30
0.0
 40
0.2072483061529063
 50
96.0631928711418368
 51
96.0646887046121236
  0
LINE
  5
6B88
  8
0
 10
113.8372650744823034
 20
-84.915713714318656
 30
0.0
 11
114.0488313876081037
 21
-86.1155659550152848
 31
0.0
  0
ARC
  5
6B89
  8
0
 10
114.2039191892138064
 20
-86.0882198060149051
 30
0.0
 40
0.1574802783590103
 50
189.999994696618387
 51
270.0000122912476854
  0
ARC
  5
6B8A
  8
0
 10
116.4986456486974049
 20
-86.0881657269070217
 30
0.0
 40
0.1575343639926714
 50
270.0164917212554769
 51
349.9835008050508236
  0
ARC
  5
6B8B
  8
0
 10
116.9742447232828937
 20
-86.1351622261502285
 30
0.0
 40
0.3210644856348394
 50
98.5504781646890677
 51
176.5007595018603865
  0
ARC
  5
6B8C
  8
0
 10
124.3066194619593006
 20
-84.5526346439810652
 30
0.0
 40
0.1970285591456909
 50
269.0469088203686283
 51
358.8660592591057252
  0
ARC
  5
6B8D
  8
0
 10
116.7412477192902003
 20
-82.9802951227718921
 30
0.0
 40
2.8434128691471101
 50
273.735719541125718
 51
321.5186799287056942
  0
ARC
  5
6B8E
  8
0
 10
124.2747774014012947
 20
-79.0618073315120569
 30
0.0
 40
0.3247597808460453
 50
0.2455520133843619
 51
10.3080114409689401
  0
ARC
  5
6B8F
  8
0
 10
124.2845496037809028
 20
-79.0603316326267418
 30
0.0
 40
0.3148367966888627
 50
51.6554138103557676
 51
90.010994938342975
  0
ARC
  5
6B90
  8
0
 10
124.2844891866468942
 20
-79.0604417327203635
 30
0.0
 40
0.3149606303662923
 50
10.3797341333415698
 51
51.6592194825015127
  0
LINE
  5
6B91
  8
0
 10
114.2039192229969018
 20
-86.2457000843739365
 30
0.0
 11
116.4986909925743959
 21
-86.2457000843739365
 31
0.0
  0
ARC
  5
6B92
  8
0
 10
124.2842132873553993
 20
-79.0579410419288706
 30
0.0
 40
0.3124463220082674
 50
89.9494060209439112
 51
104.3854836160341932
  0
ARC
  5
6B93
  8
0
 10
124.3736598221439067
 20
-85.2363035691235069
 30
0.0
 40
0.1181042872517112
 50
269.997134998818126
 51
359.0011807317579837
  0
LINE
  5
6B94
  8
0
 10
124.3736539164921027
 20
-85.3544078562275672
 30
0.0
 11
123.7060967478921043
 21
-85.3544078562275246
 31
0.0
  0
ARC
  5
6B95
  8
0
 10
123.706078040666398
 20
-85.0395180368329306
 30
0.0
 40
0.3148898199502758
 50
239.0371920833802903
 51
270.0034038733987245
  0
LINE
  5
6B96
  8
0
 10
123.5440730354033008
 20
-85.3095365120860833
 30
0.0
 11
122.7094432113048015
 21
-84.808800445278905
 31
0.0
  0
ARC
  5
6B97
  8
0
 10
122.4748875521032971
 20
-85.1997663140851813
 30
0.0
 40
0.4559283582262542
 50
59.0388148399354478
 51
80.8528504518451143
  0
ARC
  5
6B98
  8
0
 10
120.8278507513068973
 20
-79.0525845309738457
 30
0.0
 40
3.771691578049539
 50
358.1681706355025199
 51
359.8810393996242283
  0
ENDSEC
  0
EOF
