  0
SECTION
  2
HEADER
  9
$ACADVER
  1
AC1009
  9
$INSBASE
 10
3555.4962442840587755
 20
198.3155582222279918
 30
0.0
  9
$EXTMIN
 10
3548.6966549978569674
 20
198.3088309342278137
 30
-0.0000000349181948
  9
$EXTMAX
 10
3562.1028259951090149
 20
235.8229153536065041
 30
0.0000000814935746
  9
$LIMMIN
 10
0.0
 20
0.0
  9
$LIMMAX
 10
11.6929133858000007
 20
8.2677165353999982
  9
$ORTHOMODE
 70
     0
  9
$REGENMODE
 70
     1
  9
$FILLMODE
 70
     1
  9
$QTEXTMODE
 70
     0
  9
$MIRRTEXT
 70
     0
  9
$DRAGMODE
 70
     2
  9
$LTSCALE
 40
0.6431102362
  9
$OSMODE
 70
  3839
  9
$ATTMODE
 70
     1
  9
$TEXTSIZE
 40
0.2
  9
$TRACEWID
 40
0.05
  9
$TEXTSTYLE
  7
STANDARD
  9
$CLAYER
  8
0
  9
$CELTYPE
  6
BYLAYER
  9
$CECOLOR
 62
   256
  9
$DIMSCALE
 40
1.0
  9
$DIMASZ
 40
0.1875
  9
$DIMEXO
 40
0.0625
  9
$DIMDLI
 40
0.4443307087
  9
$DIMRND
 40
0.0
  9
$DIMDLE
 40
0.0
  9
$DIMEXE
 40
0.125
  9
$DIMTP
 40
0.01
  9
$DIMTM
 40
0.01
  9
$DIMTXT
 40
2.0
  9
$DIMCEN
 40
0.1052362205
  9
$DIMTSZ
 40
0.0
  9
$DIMTOL
 70
     1
  9
$DIMLIM
 70
     0
  9
$DIMTIH
 70
     1
  9
$DIMTOH
 70
     1
  9
$DIMSE1
 70
     0
  9
$DIMSE2
 70
     0
  9
$DIMTAD
 70
     0
  9
$DIMZIN
 70
     0
  9
$DIMBLK
  1

  9
$DIMASO
 70
     1
  9
$DIMSHO
 70
     1
  9
$DIMPOST
  1
\X
  9
$DIMAPOST
  1

  9
$DIMALT
 70
     1
  9
$DIMALTD
 70
     2
  9
$DIMALTF
 40
25.3999999999999986
  9
$DIMLFAC
 40
1.0
  9
$DIMTOFL
 70
     0
  9
$DIMTVP
 40
0.0
  9
$DIMTIX
 70
     0
  9
$DIMSOXD
 70
     0
  9
$DIMSAH
 70
     0
  9
$DIMBLK1
  1

  9
$DIMBLK2
  1

  9
$DIMSTYLE
  2
STANDARD
  9
$DIMCLRD
 70
     0
  9
$DIMCLRE
 70
     0
  9
$DIMCLRT
 70
     0
  9
$DIMTFAC
 40
1.0
  9
$DIMGAP
 40
0.09
  9
$LUNITS
 70
     2
  9
$LUPREC
 70
     4
  9
$SKETCHINC
 40
0.1
  9
$FILLETRAD
 40
0.0
  9
$AUNITS
 70
     0
  9
$AUPREC
 70
     0
  9
$MENU
  1
.
  9
$ELEVATION
 40
0.0
  9
$PELEVATION
 40
0.0
  9
$THICKNESS
 40
0.0
  9
$LIMCHECK
 70
     0
  9
$BLIPMODE
 70
     0
  9
$CHAMFERA
 40
0.0
  9
$CHAMFERB
 40
0.0
  9
$SKPOLY
 70
     0
  9
$TDCREATE
 40
2458060.468368056230247
  9
$TDUPDATE
 40
2460453.4233333328738809
  9
$TDINDWG
 40
0.5314885417
  9
$TDUSRTIMER
 40
0.5314885417
  9
$USRTIMER
 70
     1
  9
$ANGBASE
 50
0.0
  9
$ANGDIR
 70
     0
  9
$PDMODE
 70
     0
  9
$PDSIZE
 40
0.3125
  9
$PLINEWID
 40
0.0
  9
$COORDS
 70
     1
  9
$SPLFRAME
 70
     0
  9
$SPLINETYPE
 70
     6
  9
$SPLINESEGS
 70
     8
  9
$ATTDIA
 70
     1
  9
$ATTREQ
 70
     1
  9
$HANDLING
 70
     1
  9
$HANDSEED
  5
97A8
  9
$SURFTAB1
 70
     6
  9
$SURFTAB2
 70
     6
  9
$SURFTYPE
 70
     6
  9
$SURFU
 70
     6
  9
$SURFV
 70
     6
  9
$UCSNAME
  2

  9
$UCSORG
 10
0.0
 20
0.0
 30
0.0
  9
$UCSXDIR
 10
1.0
 20
0.0
 30
0.0
  9
$UCSYDIR
 10
0.0
 20
1.0
 30
0.0
  9
$PUCSNAME
  2

  9
$PUCSORG
 10
0.0
 20
0.0
 30
0.0
  9
$PUCSXDIR
 10
1.0
 20
0.0
 30
0.0
  9
$PUCSYDIR
 10
0.0
 20
1.0
 30
0.0
  9
$USERI1
 70
     0
  9
$USERI2
 70
     0
  9
$USERI3
 70
     0
  9
$USERI4
 70
     0
  9
$USERI5
 70
     0
  9
$USERR1
 40
0.0
  9
$USERR2
 40
0.0
  9
$USERR3
 40
0.0
  9
$USERR4
 40
0.0
  9
$USERR5
 40
0.0
  9
$WORLDVIEW
 70
     1
  9
$SHADEDGE
 70
     3
  9
$SHADEDIF
 70
    70
  9
$TILEMODE
 70
     1
  9
$MAXACTVP
 70
    64
  9
$PLIMCHECK
 70
     0
  9
$PEXTMIN
 10
1.0000000000000000E+20
 20
1.0000000000000000E+20
 30
1.0000000000000000E+20
  9
$PEXTMAX
 10
-1.0000000000000000E+20
 20
-1.0000000000000000E+20
 30
-1.0000000000000000E+20
  9
$PLIMMIN
 10
0.0
 20
0.0
  9
$PLIMMAX
 10
12.0
 20
9.0
  9
$UNITMODE
 70
     0
  9
$VISRETAIN
 70
     1
  9
$PLINEGEN
 70
     0
  9
$PSLTSCALE
 70
     1
  0
ENDSEC
  0
SECTION
  2
TABLES
  0
TABLE
  2
VPORT
 70
     1
  0
VPORT
  2
*ACTIVE
 70
     0
 10
0.0
 20
0.0
 11
1.0
 21
1.0
 12
-30.5983063785170089
 22
22.7447824456749608
 13
0.0
 23
0.0
 14
1.0
 24
1.0
 15
0.0
 25
0.0
 16
0.0
 26
0.0
 36
90.3010616416203362
 17
3585.998046875
 27
194.3210906982421875
 37
0.0
 40
37.7639007418163217
 41
2.1211111111111101
 42
50.0
 43
0.0
 44
0.0
 50
0.0
 51
0.0
 71
     0
 72
   100
 73
     1
 74
     1
 75
     0
 76
     0
 77
     0
 78
     0
  0
ENDTAB
  0
TABLE
  2
LTYPE
 70
     2
  0
LTYPE
  2
CONTINUOUS
 70
     0
  3
Solid line
 72
    65
 73
     0
 40
0.0
  0
LTYPE
  2
PHANTOM2
 70
     0
  3
___ _ _ ___ _ _ ___ _ _ ___ _ _
 72
    65
 73
     6
 40
1.25
 49
0.625
 49
-0.125
 49
0.125
 49
-0.125
 49
0.125
 49
-0.125
  0
ENDTAB
  0
TABLE
  2
LAYER
 70
     2
  0
LAYER
  2
0
 70
     0
 62
   255
  6
CONTINUOUS
  0
LAYER
  2
DEFPOINTS
 70
     0
 62
     7
  6
CONTINUOUS
  0
ENDTAB
  0
TABLE
  2
STYLE
 70
     1
  0
STYLE
  2
STANDARD
 70
     0
 40
0.0
 41
0.8
 50
0.0
 71
     0
 42
0.2
  3
txt
  4

  0
ENDTAB
  0
TABLE
  2
VIEW
 70
     0
  0
ENDTAB
  0
TABLE
  2
UCS
 70
     0
  0
ENDTAB
  0
TABLE
  2
APPID
 70
     9
  0
APPID
  2
ACAD
 70
     0
  0
APPID
  2
ACAD_MLEADERVER
 70
     0
  0
APPID
  2
ACAD_EXEMPT_FROM_CAD_STANDARDS
 70
     0
  0
APPID
  2
ACAD_NAV_VCDISPLAY
 70
     0
  0
APPID
  2
ACAECLAYERSTANDARD
 70
     0
  0
APPID
  2
ACCMTRANSPARENCY
 70
     0
  0
APPID
  2
ACAD_DSTYLE_DIMJAG
 70
     0
  0
APPID
  2
ACAD_DSTYLE_DIMTALN
 70
     0
  0
APPID
  2
ACDBATTR
 70
     0
  0
ENDTAB
  0
TABLE
  2
DIMSTYLE
 70
     1
  0
DIMSTYLE
  2
STANDARD
 70
     0
  3

  4

  5

  6

  7

 40
1.0
 41
0.1875
 42
0.0625
 43
0.38
 44
0.125
 45
0.0
 46
0.0
 47
0.01
 48
0.01
140
0.15625
141
0.09
142
0.0
143
25.3999999999999986
144
1.0
145
0.0
146
1.0
147
0.09
 71
     1
 72
     0
 73
     1
 74
     1
 75
     0
 76
     0
 77
     0
 78
     4
170
     0
171
     2
172
     0
173
     0
174
     0
175
     0
176
     0
177
     0
178
     0
  0
ENDTAB
  0
ENDSEC
  0
SECTION
  2
BLOCKS
  0
BLOCK
  8
0
  2
$MODEL_SPACE
 70
     0
 10
0.0
 20
0.0
 30
0.0
  3
$MODEL_SPACE
  1

  0
ENDBLK
  5
21
  8
0
  0
BLOCK
 67
     1
  8
0
  2
$PAPER_SPACE
 70
     0
 10
0.0
 20
0.0
 30
0.0
  3
$PAPER_SPACE
  1

  0
ENDBLK
  5
1D
 67
     1
  8
0
  0
BLOCK
  8
0
  2
_FILLED
 70
     0
 10
0.0
 20
0.0
 30
0.0
  3
_FILLED
  1

  0
SOLID
  5
6F59
  8
0
  6
BYBLOCK
 62
     0
 10
0.0
 20
0.0
 30
0.0
 11
-1.0
 21
0.1666666667
 31
0.0
 12
-1.0
 22
-0.1666666667
 32
0.0
 13
-1.0
 23
-0.1666666667
 33
0.0
  0
ENDBLK
  5
6F5A
  8
0
  6
BYBLOCK
 62
     0
  0
ENDSEC
  0
SECTION
  2
ENTITIES
  0
LINE
  5
93CB
  8
0
 10
3550.7718079428550482
 20
210.5413674626647094
 30
0.0
 11
3560.2206806252629576
 21
210.5413674626647094
 31
0.0
  0
ARC
  5
93CD
  8
0
 10
3555.5101337640790007
 20
227.5853029814273043
 30
0.0
 40
8.2228256998258722
 50
90.096780473321445
 51
97.0543921172285025
  0
ARC
  5
93CE
  8
0
 10
3555.3218356111551657
 20
230.290802961072302
 30
0.0
 40
5.516597452081716
 50
98.5646381661093614
 51
117.8576400246138007
  0
ARC
  5
93CF
  8
0
 10
3555.9771018034339249
 20
228.9798167535847142
 30
0.0
 40
6.981924827796905
 50
117.5846603664961947
 51
134.5276486740596056
  0
ARC
  5
93D0
  8
0
 10
3555.550389397228173
 20
229.3727791253768089
 30
0.0
 40
6.4026077381881477
 50
134.2713333623744916
 51
158.7993437369231913
  0
ARC
  5
93D1
  8
0
 10
3556.7439976954037775
 20
229.0503338827400057
 30
0.0
 40
7.6331644703626766
 50
159.7829155872088904
 51
172.2873727035488116
  0
ARC
  5
93D2
  8
0
 10
3556.6876431945552213
 20
229.2032851306954058
 30
0.0
 40
7.5581649868306311
 50
173.3790865088020894
 51
191.6211343485566942
  0
ARC
  5
93D3
  8
0
 10
3556.5495505093290376
 20
229.0626192433001904
 30
0.0
 40
7.3953850365659921
 50
190.7691478810554884
 51
219.1679473559285043
  0
ARC
  5
93D4
  8
0
 10
3555.1782139490528607
 20
227.9454613040747972
 30
0.0
 40
5.6265984969505336
 50
219.1679473559285043
 51
242.4400642331011113
  0
ARC
  5
93D5
  8
0
 10
3555.360800557904895
 20
228.29531289168429
 30
0.0
 40
6.0212299745154461
 50
242.4400642331011113
 51
263.5464678969972852
  0
ARC
  5
93D6
  8
0
 10
3555.5192190531620327
 20
229.994082212820814
 30
0.0
 40
7.7271133082940473
 50
263.7950351129426849
 51
269.8296441126287846
  0
ARC
  5
93D7
  8
0
 10
3555.524491156888871
 20
228.3608040425625916
 30
0.0
 40
5.8101211279121934
 50
253.6869571473008875
 51
269.721445915233403
  0
ARC
  5
93D8
  8
0
 10
3555.2838665542608396
 20
227.4581149070612014
 30
0.0
 40
4.8762375675845711
 50
230.3813938803326096
 51
253.4212344143541884
  0
ARC
  5
93D9
  8
0
 10
3555.1282946563328551
 20
227.2701850771651948
 30
0.0
 40
4.6322698722033513
 50
213.1628396720498984
 51
230.3813938803326096
  0
ARC
  5
93DA
  8
0
 10
3553.6480066438639369
 20
225.9325734128094894
 30
0.0
 40
2.6793841720632359
 50
175.2977506896068007
 51
206.5190964144663042
  0
ARC
  5
93DB
  8
0
 10
3553.7317525302519243
 20
225.9242389231339985
 30
0.0
 40
2.7635318014948469
 50
139.963286469438799
 51
175.2678716503592113
  0
ARC
  5
93DC
  8
0
 10
3554.9320240837860183
 20
224.7214759905920971
 30
0.0
 40
4.4586924330063642
 50
103.9321106443319991
 51
138.0512410159643935
  0
ARC
  5
93DD
  8
0
 10
3555.4999626465892106
 20
222.8783183714915026
 30
0.0
 40
6.3852753384644609
 50
90.0333652787701766
 51
104.8963166066297958
  0
ARC
  5
93DE
  8
0
 10
3649.4126518286370811
 20
232.3838099676268882
 30
0.0
 40
101.0302349649931983
 50
189.0246539729785979
 51
192.4857672430794935
  0
ARC
  5
93DF
  8
0
 10
3608.5260120581851879
 20
225.8899666081748023
 30
0.0
 40
59.6311128330468492
 50
181.2569711875283076
 51
189.0246539729785979
  0
ARC
  5
93E0
  8
0
 10
3587.3077382650139953
 20
225.4430547826850102
 30
0.0
 40
38.408145724961372
 50
173.0737758146854901
 51
181.2847939268060031
  0
ARC
  5
93FF
  8
0
 10
3555.6706529569628401
 20
230.290802961072302
 30
0.0
 40
5.516597452081716
 50
62.1423599753861922
 51
81.4353618338906386
  0
ARC
  5
9400
  8
0
 10
3555.0153867646858998
 20
228.9798167535847142
 30
0.0
 40
6.981924827796905
 50
45.4723513259403731
 51
62.4153396335037627
  0
ARC
  5
9401
  8
0
 10
3555.4420991708898327
 20
229.3727791253768089
 30
0.0
 40
6.4026077381881477
 50
21.2006562630768016
 51
45.7286666376255084
  0
ARC
  5
9402
  8
0
 10
3554.2484908727137736
 20
229.0503338827400057
 30
0.0
 40
7.6331644703626766
 50
7.7126272964511742
 51
20.2170844127910811
  0
ARC
  5
9403
  8
0
 10
3554.3048453735641488
 20
229.2032851306954058
 30
0.0
 40
7.5581649868306311
 50
348.3788656514432773
 51
6.6209134911979133
  0
ARC
  5
9404
  8
0
 10
3554.4429380587898777
 20
229.0626192433001904
 30
0.0
 40
7.3953850365659921
 50
320.8320526440714957
 51
349.2308521189444264
  0
ARC
  5
9405
  8
0
 10
3555.8142746190660546
 20
227.9454613040747972
 30
0.0
 40
5.6265984969505336
 50
297.559935766898775
 51
320.8320526440714957
  0
ARC
  5
9406
  8
0
 10
3555.6316880102140203
 20
228.29531289168429
 30
0.0
 40
6.0212299745154461
 50
276.4535321030027148
 51
297.559935766898775
  0
ARC
  5
9407
  8
0
 10
3555.4732695149559731
 20
229.9940822128210982
 30
0.0
 40
7.7271133082943448
 50
270.1703558873711017
 51
276.2049648870573151
  0
ARC
  5
9408
  8
0
 10
3555.4679974112291347
 20
228.3608040425625916
 30
0.0
 40
5.8101211279122431
 50
270.278554084766597
 51
286.3130428526990841
  0
ARC
  5
9409
  8
0
 10
3555.7086220138571662
 20
227.4581149070612014
 30
0.0
 40
4.8762375675845711
 50
286.5787655856457832
 51
309.6186061196675041
  0
ARC
  5
940A
  8
0
 10
3555.8641939117860602
 20
227.2701850771651948
 30
0.0
 40
4.6322698722033513
 50
309.6186061196675041
 51
326.8371603279500164
  0
ARC
  5
940B
  8
0
 10
3557.3444819242540689
 20
225.9325734128094894
 30
0.0
 40
2.6793841720632359
 50
333.4809035855337243
 51
4.7022493103947749
  0
ARC
  5
940C
  8
0
 10
3557.2607360378660815
 20
225.9242389231339985
 30
0.0
 40
2.7635318014948469
 50
4.7321283496408038
 51
40.0367135305612223
  0
ARC
  5
940D
  8
0
 10
3556.0604644843319875
 20
224.7214759905920971
 30
0.0
 40
4.4586924330063642
 50
41.9487589840356065
 51
76.0678893556679583
  0
ARC
  5
940E
  8
0
 10
3555.4925259215287952
 20
222.8783183714915879
 30
0.0
 40
6.3852753384643908
 50
75.1036833933702326
 51
89.966634721229795
  0
ARC
  5
940F
  8
0
 10
3461.5798367394818342
 20
232.3838099676268882
 30
0.0
 40
101.0302349649931983
 50
347.5142327569204781
 51
350.9753460270213736
  0
ARC
  5
9410
  8
0
 10
3502.4664765099328179
 20
225.8899666081748023
 30
0.0
 40
59.6311128330468492
 50
350.9753460270213736
 51
358.7430288124717208
  0
ARC
  5
9411
  8
0
 10
3523.68475030310492
 20
225.4430547826850102
 30
0.0
 40
38.408145724961372
 50
358.7152060731922916
 51
6.9262241853145188
  0
ARC
  5
9448
  8
0
 10
3555.4823548040390051
 20
227.5853029814261106
 30
0.0
 40
8.2228256998270126
 50
82.9456078827714975
 51
89.9032195266785692
  0
ATTDEF
  5
944D
  8
DEFPOINTS
 10
3555.484719800053881
 20
198.3140764877805964
 30
0.0
 40
0.001
  1
K-18645IN-SS
  3

  2
MODELNUMBER
 70
     0
1001
ACDBATTR
1070
     0
1070
     1
  0
ATTDEF
  5
944E
  8
DEFPOINTS
 10
3555.484719800053881
 20
198.3124098211139028
 30
0.0
 40
0.001
  1
PATIO
  3

  2
TRADENAME
 70
     0
1001
ACDBATTR
1070
     0
1070
     1
  0
ATTDEF
  5
944F
  8
DEFPOINTS
 10
3555.484719800053881
 20
198.3107431544472945
 30
0.0
 40
0.001
  1
URINAL
  3

  2
PRODUCT
 70
     0
1001
ACDBATTR
1070
     0
1070
     1
  0
ENDSEC
  0
EOF
