  0
SECTION
  2
HEADER
  9
$ACADVER
  1
AC1009
  9
$INSBASE
 10
1002.8148846083770422
 20
124.4739872762593933
 30
0.0
  9
$EXTMIN
 10
989.5658313071221528
 20
124.4640807907936022
 30
-0.0000000349181948
  9
$EXTMAX
 10
1002.8787866437320417
 20
161.7776308317193923
 30
0.0000000814935746
  9
$LIMMIN
 10
0.0
 20
0.0
  9
$LIMMAX
 10
11.6929133858000007
 20
8.2677165353999982
  9
$ORTHOMODE
 70
     0
  9
$REGENMODE
 70
     1
  9
$FILLMODE
 70
     1
  9
$QTEXTMODE
 70
     0
  9
$MIRRTEXT
 70
     0
  9
$DRAGMODE
 70
     2
  9
$LTSCALE
 40
0.6431102362
  9
$OSMODE
 70
  4095
  9
$ATTMODE
 70
     1
  9
$TEXTSIZE
 40
0.2
  9
$TRACEWID
 40
0.05
  9
$TEXTSTYLE
  7
STANDARD
  9
$CLAYER
  8
0
  9
$CELTYPE
  6
BYLAYER
  9
$CECOLOR
 62
   256
  9
$DIMSCALE
 40
1.0
  9
$DIMASZ
 40
0.1875
  9
$DIMEXO
 40
0.0625
  9
$DIMDLI
 40
0.4443307087
  9
$DIMRND
 40
0.0
  9
$DIMDLE
 40
0.0
  9
$DIMEXE
 40
0.125
  9
$DIMTP
 40
0.01
  9
$DIMTM
 40
0.01
  9
$DIMTXT
 40
1.0
  9
$DIMCEN
 40
0.1052362205
  9
$DIMTSZ
 40
0.0
  9
$DIMTOL
 70
     1
  9
$DIMLIM
 70
     0
  9
$DIMTIH
 70
     0
  9
$DIMTOH
 70
     1
  9
$DIMSE1
 70
     0
  9
$DIMSE2
 70
     0
  9
$DIMTAD
 70
     0
  9
$DIMZIN
 70
     0
  9
$DIMBLK
  1

  9
$DIMASO
 70
     1
  9
$DIMSHO
 70
     1
  9
$DIMPOST
  1
\X
  9
$DIMAPOST
  1

  9
$DIMALT
 70
     1
  9
$DIMALTD
 70
     2
  9
$DIMALTF
 40
25.3999999999999986
  9
$DIMLFAC
 40
1.0
  9
$DIMTOFL
 70
     0
  9
$DIMTVP
 40
0.0
  9
$DIMTIX
 70
     0
  9
$DIMSOXD
 70
     0
  9
$DIMSAH
 70
     0
  9
$DIMBLK1
  1

  9
$DIMBLK2
  1

  9
$DIMSTYLE
  2
STANDARD
  9
$DIMCLRD
 70
     0
  9
$DIMCLRE
 70
     0
  9
$DIMCLRT
 70
     0
  9
$DIMTFAC
 40
1.0
  9
$DIMGAP
 40
0.09
  9
$LUNITS
 70
     2
  9
$LUPREC
 70
     4
  9
$SKETCHINC
 40
0.1
  9
$FILLETRAD
 40
0.0
  9
$AUNITS
 70
     0
  9
$AUPREC
 70
     0
  9
$MENU
  1
.
  9
$ELEVATION
 40
0.0
  9
$PELEVATION
 40
0.0
  9
$THICKNESS
 40
0.0
  9
$LIMCHECK
 70
     0
  9
$BLIPMODE
 70
     0
  9
$CHAMFERA
 40
0.0
  9
$CHAMFERB
 40
0.0
  9
$SKPOLY
 70
     0
  9
$TDCREATE
 40
2458172.5207638889551163
  9
$TDUPDATE
 40
2459124.6724537038244307
  9
$TDINDWG
 40
0.4457993287
  9
$TDUSRTIMER
 40
0.4457993287
  9
$USRTIMER
 70
     1
  9
$ANGBASE
 50
0.0
  9
$ANGDIR
 70
     0
  9
$PDMODE
 70
     0
  9
$PDSIZE
 40
0.3125
  9
$PLINEWID
 40
0.0
  9
$COORDS
 70
     1
  9
$SPLFRAME
 70
     0
  9
$SPLINETYPE
 70
     6
  9
$SPLINESEGS
 70
     8
  9
$ATTDIA
 70
     1
  9
$ATTREQ
 70
     1
  9
$HANDLING
 70
     1
  9
$HANDSEED
  5
B3DD
  9
$SURFTAB1
 70
     6
  9
$SURFTAB2
 70
     6
  9
$SURFTYPE
 70
     6
  9
$SURFU
 70
     6
  9
$SURFV
 70
     6
  9
$UCSNAME
  2

  9
$UCSORG
 10
0.0
 20
0.0
 30
0.0
  9
$UCSXDIR
 10
1.0
 20
0.0
 30
0.0
  9
$UCSYDIR
 10
0.0
 20
1.0
 30
0.0
  9
$PUCSNAME
  2

  9
$PUCSORG
 10
0.0
 20
0.0
 30
0.0
  9
$PUCSXDIR
 10
1.0
 20
0.0
 30
0.0
  9
$PUCSYDIR
 10
0.0
 20
1.0
 30
0.0
  9
$USERI1
 70
     0
  9
$USERI2
 70
     0
  9
$USERI3
 70
     0
  9
$USERI4
 70
     0
  9
$USERI5
 70
     0
  9
$USERR1
 40
0.0
  9
$USERR2
 40
0.0
  9
$USERR3
 40
0.0
  9
$USERR4
 40
0.0
  9
$USERR5
 40
0.0
  9
$WORLDVIEW
 70
     1
  9
$SHADEDGE
 70
     3
  9
$SHADEDIF
 70
    70
  9
$TILEMODE
 70
     1
  9
$MAXACTVP
 70
    64
  9
$PLIMCHECK
 70
     0
  9
$PEXTMIN
 10
1.0000000000000000E+20
 20
1.0000000000000000E+20
 30
1.0000000000000000E+20
  9
$PEXTMAX
 10
-1.0000000000000000E+20
 20
-1.0000000000000000E+20
 30
-1.0000000000000000E+20
  9
$PLIMMIN
 10
0.0
 20
0.0
  9
$PLIMMAX
 10
12.0
 20
9.0
  9
$UNITMODE
 70
     0
  9
$VISRETAIN
 70
     1
  9
$PLINEGEN
 70
     0
  9
$PSLTSCALE
 70
     1
  0
ENDSEC
  0
SECTION
  2
TABLES
  0
TABLE
  2
VPORT
 70
     1
  0
VPORT
  2
*ACTIVE
 70
     0
 10
0.0
 20
0.0
 11
1.0
 21
1.0
 12
529.4801072675971909
 22
53.9877086913267519
 13
0.0
 23
0.0
 14
1.0
 24
1.0
 15
0.0
 25
0.0
 16
0.0
 26
0.0
 36
24.1179433675886514
 17
466.74220170783002
 27
89.133147119929788
 37
0.0
 40
37.5472465965056585
 41
2.005224660397074
 42
50.0
 43
0.0
 44
0.0
 50
0.0
 51
0.0
 71
     0
 72
   100
 73
     1
 74
     1
 75
     0
 76
     0
 77
     0
 78
     0
  0
ENDTAB
  0
TABLE
  2
LTYPE
 70
     2
  0
LTYPE
  2
CONTINUOUS
 70
     0
  3
Solid line
 72
    65
 73
     0
 40
0.0
  0
LTYPE
  2
PHANTOM2
 70
     0
  3
___ _ _ ___ _ _ ___ _ _ ___ _ _
 72
    65
 73
     6
 40
1.25
 49
0.625
 49
-0.125
 49
0.125
 49
-0.125
 49
0.125
 49
-0.125
  0
ENDTAB
  0
TABLE
  2
LAYER
 70
     2
  0
LAYER
  2
0
 70
     0
 62
   255
  6
CONTINUOUS
  0
LAYER
  2
DEFPOINTS
 70
     0
 62
     7
  6
CONTINUOUS
  0
ENDTAB
  0
TABLE
  2
STYLE
 70
     1
  0
STYLE
  2
STANDARD
 70
     0
 40
0.0
 41
0.8
 50
0.0
 71
     0
 42
0.2
  3
txt
  4

  0
ENDTAB
  0
TABLE
  2
VIEW
 70
     0
  0
ENDTAB
  0
TABLE
  2
UCS
 70
     0
  0
ENDTAB
  0
TABLE
  2
APPID
 70
    11
  0
APPID
  2
ACAD
 70
     0
  0
APPID
  2
ACAD_MLEADERVER
 70
     0
  0
APPID
  2
ACAD_EXEMPT_FROM_CAD_STANDARDS
 70
     0
  0
APPID
  2
ACAD_DSTYLE_DIMJAG
 70
     0
  0
APPID
  2
ACAD_DSTYLE_DIMTALN
 70
     0
  0
APPID
  2
ACAD_NAV_VCDISPLAY
 70
     0
  0
APPID
  2
ACAECLAYERSTANDARD
 70
     0
  0
APPID
  2
ACCMTRANSPARENCY
 70
     0
  0
APPID
  2
DCO15
 70
     0
  0
APPID
  2
ACDBATTR
 70
     0
  0
APPID
  2
ACADANNOTATIVE
 70
     0
  0
ENDTAB
  0
TABLE
  2
DIMSTYLE
 70
     1
  0
DIMSTYLE
  2
STANDARD
 70
     0
  3

  4

  5

  6

  7

 40
1.0
 41
0.1875
 42
0.0625
 43
0.38
 44
0.125
 45
0.0
 46
0.0
 47
0.01
 48
0.01
140
0.15625
141
0.09
142
0.0
143
25.3999999999999986
144
1.0
145
0.0
146
1.0
147
0.09
 71
     1
 72
     0
 73
     1
 74
     1
 75
     0
 76
     0
 77
     0
 78
     4
170
     0
171
     2
172
     0
173
     0
174
     0
175
     0
176
     0
177
     0
178
     0
  0
ENDTAB
  0
ENDSEC
  0
SECTION
  2
BLOCKS
  0
BLOCK
  8
0
  2
$MODEL_SPACE
 70
     0
 10
0.0
 20
0.0
 30
0.0
  3
$MODEL_SPACE
  1

  0
ENDBLK
  5
21
  8
0
  0
BLOCK
 67
     1
  8
0
  2
$PAPER_SPACE
 70
     0
 10
0.0
 20
0.0
 30
0.0
  3
$PAPER_SPACE
  1

  0
ENDBLK
  5
1D
 67
     1
  8
0
  0
ENDSEC
  0
SECTION
  2
ENTITIES
  0
ATTDEF
  5
829
  8
DEFPOINTS
 10
1002.8112705828569915
 20
124.4786811929268993
 30
0.0
 40
0.001
  1
K-18645T-Y
  3

  2
MODELNUMBER
 70
     0
1001
ACDBATTR
1070
     0
1070
     1
  0
ATTDEF
  5
82A
  8
DEFPOINTS
 10
1002.8112705828569915
 20
124.4770145262602057
 30
0.0
 40
0.001
  1
PATIO
  3

  2
TRADENAME
 70
     0
1001
ACDBATTR
1070
     0
1070
     1
  0
ATTDEF
  5
82B
  8
DEFPOINTS
 10
1002.8112705828569915
 20
124.4753478595935974
 30
0.0
 40
0.001
  1
URINAL
  3

  2
PRODUCT
 70
     0
1001
ACDBATTR
1070
     0
1070
     1
  0
LINE
  5
B27C
  8
0
 10
1002.8148846083770422
 20
161.113537000897395
 30
0.0
 11
1002.8148846083770422
 21
136.5072377882974024
 31
0.0
  0
LINE
  5
B27D
  8
0
 10
1002.8148846083770422
 20
136.5072377882974024
 30
0.0
 11
996.1219793899059596
 21
136.5072377882974024
 31
0.0
  0
ARC
  5
B27E
  8
0
 10
1106.9986752793349751
 20
205.3538037419893101
 30
0.0
 40
130.5124183170823073
 50
205.9550974953507989
 51
211.8373488434490071
  0
ARC
  5
B27F
  8
0
 10
989.8265922578705158
 20
148.3200700711921911
 30
0.0
 40
0.1968669206833819
 50
147.4975126494582014
 51
206.2904639746273006
  0
ARC
  5
B280
  8
0
 10
1095.3945588581821085
 20
156.572814901917809
 30
0.0
 40
94.7292112766836709
 50
186.5349762356350141
 51
192.2290522711357141
  0
ARC
  5
B281
  8
0
 10
1298.8071744915609997
 20
202.5529229918616068
 30
0.0
 40
302.8923115394098886
 50
189.882549397590509
 51
190.8009346548859924
  0
ARC
  5
B282
  8
0
 10
1099.0599393160180171
 20
166.834947692716014
 30
0.0
 40
99.9828552177944943
 50
187.4945064048700942
 51
189.3636115909656041
  0
ARC
  5
B283
  8
0
 10
1030.25432401092894
 20
157.3268865270034098
 30
0.0
 40
30.52822642976993
 50
179.1096362589599096
 51
186.6453240405026861
  0
ARC
  5
B284
  8
0
 10
886.5686309866549664
 20
159.3906210095408937
 30
0.0
 40
113.1723132655737061
 50
359.1953320127602751
 51
0.357691046593641
  0
ARC
  5
B285
  8
0
 10
988.7163287107362066
 20
159.8828052628986995
 30
0.0
 40
11.0244938591793993
 50
1.1139879679306861
 51
6.3513593965087249
  0
ARC
  5
B286
  8
0
 10
1000.9679440814420559
 20
161.295048553716299
 30
0.0
 40
1.3090422556980741
 50
173.3889877514519071
 51
188.4631459840026082
  0
ARC
  5
B287
  8
0
 10
999.7453660824254484
 20
161.432670010193192
 30
0.0
 40
0.0788534092960945
 50
144.216770040509914
 51
170.4473270231119955
  0
ARC
  5
B288
  8
0
 10
999.6929958487195336
 20
161.4704173172798107
 30
0.0
 40
0.0142972277896243
 50
87.28702144038283
 51
144.2167700405080097
  0
ARC
  5
B289
  8
0
 10
999.4792970378084647
 20
161.5771358221651894
 30
0.0
 40
0.1968514540941239
 50
22.0001818237821496
 51
142.911417195023688
  0
LINE
  5
B28A
  8
0
 10
1000.2440915410500111
 20
161.113537000897395
 30
0.0
 11
1002.8148846083770422
 21
161.113537000897395
 31
0.0
  0
ARC
  5
B28B
  8
0
 10
1000.2801410995250535
 20
161.7073307533501918
 30
0.0
 40
0.5948870406373546
 50
202.16078981062239
 51
266.5258046202405922
  0
LINE
  5
B28C
  8
0
 10
999.7291989938775032
 20
161.4829351487973099
 30
0.0
 11
999.6618142937775247
 21
161.6508782539972913
 31
0.0
  0
LINE
  5
B28D
  8
0
 10
999.6936725753512292
 20
161.4846985204341081
 30
0.0
 11
999.7291989938775032
 21
161.4829351487973099
 31
0.0
  0
ARC
  5
B28E
  8
0
 10
2133.0837139839109113
 20
-681.8790851821676142
 30
0.0
 40
1413.1644217298630792
 50
143.3489173777209942
 51
143.6260085763562131
  0
ARC
  5
B28F
  8
0
 10
1421.7446399432560611
 20
-157.9329402653588943
 30
0.0
 40
529.692384237899887
 50
143.6260085763562131
 51
144.3295370485396063
  0
ARC
  5
B290
  8
0
 10
1144.1207126374260952
 20
41.3431493009630984
 30
0.0
 40
187.9527100916905056
 50
144.3295370485396063
 51
145.2126931779511096
  0
ARC
  5
B291
  8
0
 10
992.8682783165671708
 20
146.4166430796987015
 30
0.0
 40
3.785020246659029
 50
145.2126931779511096
 51
147.9382978289773121
  0
ENDSEC
  0
EOF
