  0
SECTION
  2
HEADER
  9
$ACADVER
  1
AC1009
  9
$INSBASE
 10
4359.236602078116448
 20
228.3277858097440003
 30
0.0
  9
$EXTMIN
 10
4349.2237967876817493
 20
207.8757357262047947
 30
-0.0015258207003583
  9
$EXTMAX
 10
4367.2156165242740826
 20
228.3452047171774097
 30
0.0000000349246037
  9
$LIMMIN
 10
0.0
 20
0.0
  9
$LIMMAX
 10
11.6929133858000007
 20
8.2677165353999982
  9
$ORTHOMODE
 70
     0
  9
$REGENMODE
 70
     1
  9
$FILLMODE
 70
     1
  9
$QTEXTMODE
 70
     0
  9
$MIRRTEXT
 70
     0
  9
$DRAGMODE
 70
     2
  9
$LTSCALE
 40
0.6431102362
  9
$OSMODE
 70
   575
  9
$ATTMODE
 70
     1
  9
$TEXTSIZE
 40
0.2
  9
$TRACEWID
 40
0.05
  9
$TEXTSTYLE
  7
STANDARD
  9
$CLAYER
  8
0
  9
$CELTYPE
  6
BYLAYER
  9
$CECOLOR
 62
   256
  9
$DIMSCALE
 40
1.0
  9
$DIMASZ
 40
0.1875
  9
$DIMEXO
 40
0.0625
  9
$DIMDLI
 40
0.4443307087
  9
$DIMRND
 40
0.0
  9
$DIMDLE
 40
0.0
  9
$DIMEXE
 40
0.125
  9
$DIMTP
 40
0.01
  9
$DIMTM
 40
0.01
  9
$DIMTXT
 40
2.0
  9
$DIMCEN
 40
0.1052362205
  9
$DIMTSZ
 40
0.0
  9
$DIMTOL
 70
     1
  9
$DIMLIM
 70
     0
  9
$DIMTIH
 70
     1
  9
$DIMTOH
 70
     1
  9
$DIMSE1
 70
     0
  9
$DIMSE2
 70
     0
  9
$DIMTAD
 70
     0
  9
$DIMZIN
 70
     0
  9
$DIMBLK
  1

  9
$DIMASO
 70
     1
  9
$DIMSHO
 70
     1
  9
$DIMPOST
  1
\X
  9
$DIMAPOST
  1

  9
$DIMALT
 70
     1
  9
$DIMALTD
 70
     2
  9
$DIMALTF
 40
25.3999999999999986
  9
$DIMLFAC
 40
1.0
  9
$DIMTOFL
 70
     0
  9
$DIMTVP
 40
0.0
  9
$DIMTIX
 70
     0
  9
$DIMSOXD
 70
     0
  9
$DIMSAH
 70
     0
  9
$DIMBLK1
  1

  9
$DIMBLK2
  1

  9
$DIMSTYLE
  2
STANDARD
  9
$DIMCLRD
 70
     0
  9
$DIMCLRE
 70
     0
  9
$DIMCLRT
 70
     0
  9
$DIMTFAC
 40
1.0
  9
$DIMGAP
 40
0.09
  9
$LUNITS
 70
     2
  9
$LUPREC
 70
     4
  9
$SKETCHINC
 40
0.1
  9
$FILLETRAD
 40
0.0
  9
$AUNITS
 70
     0
  9
$AUPREC
 70
     0
  9
$MENU
  1
.
  9
$ELEVATION
 40
0.0
  9
$PELEVATION
 40
0.0
  9
$THICKNESS
 40
0.0
  9
$LIMCHECK
 70
     0
  9
$BLIPMODE
 70
     0
  9
$CHAMFERA
 40
0.0
  9
$CHAMFERB
 40
0.0
  9
$SKPOLY
 70
     0
  9
$TDCREATE
 40
2458060.468368056230247
  9
$TDUPDATE
 40
2459393.0881134262308478
  9
$TDINDWG
 40
0.6980394676
  9
$TDUSRTIMER
 40
0.6980394676
  9
$USRTIMER
 70
     1
  9
$ANGBASE
 50
0.0
  9
$ANGDIR
 70
     0
  9
$PDMODE
 70
     0
  9
$PDSIZE
 40
0.3125
  9
$PLINEWID
 40
0.0
  9
$COORDS
 70
     2
  9
$SPLFRAME
 70
     0
  9
$SPLINETYPE
 70
     6
  9
$SPLINESEGS
 70
     8
  9
$ATTDIA
 70
     1
  9
$ATTREQ
 70
     1
  9
$HANDLING
 70
     1
  9
$HANDSEED
  5
13F9B
  9
$SURFTAB1
 70
     6
  9
$SURFTAB2
 70
     6
  9
$SURFTYPE
 70
     6
  9
$SURFU
 70
     6
  9
$SURFV
 70
     6
  9
$UCSNAME
  2

  9
$UCSORG
 10
0.0
 20
0.0
 30
0.0
  9
$UCSXDIR
 10
1.0
 20
0.0
 30
0.0
  9
$UCSYDIR
 10
0.0
 20
1.0
 30
0.0
  9
$PUCSNAME
  2

  9
$PUCSORG
 10
0.0
 20
0.0
 30
0.0
  9
$PUCSXDIR
 10
1.0
 20
0.0
 30
0.0
  9
$PUCSYDIR
 10
0.0
 20
1.0
 30
0.0
  9
$USERI1
 70
     0
  9
$USERI2
 70
     0
  9
$USERI3
 70
     0
  9
$USERI4
 70
     0
  9
$USERI5
 70
     0
  9
$USERR1
 40
0.0
  9
$USERR2
 40
0.0
  9
$USERR3
 40
0.0
  9
$USERR4
 40
0.0
  9
$USERR5
 40
0.0
  9
$WORLDVIEW
 70
     1
  9
$SHADEDGE
 70
     3
  9
$SHADEDIF
 70
    70
  9
$TILEMODE
 70
     1
  9
$MAXACTVP
 70
    64
  9
$PLIMCHECK
 70
     0
  9
$PEXTMIN
 10
1.0000000000000000E+20
 20
1.0000000000000000E+20
 30
1.0000000000000000E+20
  9
$PEXTMAX
 10
-1.0000000000000000E+20
 20
-1.0000000000000000E+20
 30
-1.0000000000000000E+20
  9
$PLIMMIN
 10
0.0
 20
0.0
  9
$PLIMMAX
 10
12.0
 20
9.0
  9
$UNITMODE
 70
     0
  9
$VISRETAIN
 70
     1
  9
$PLINEGEN
 70
     0
  9
$PSLTSCALE
 70
     1
  0
ENDSEC
  0
SECTION
  2
TABLES
  0
TABLE
  2
VPORT
 70
     1
  0
VPORT
  2
*ACTIVE
 70
     0
 10
0.0
 20
0.0
 11
1.0
 21
1.0
 12
196.6633101100510999
 22
-8.0003620189503355
 13
0.0
 23
0.0
 14
1.0
 24
1.0
 15
0.0
 25
0.0
 16
0.0
 26
0.0
 36
202.37134017897489
 17
4161.556396484375
 27
226.1108322143554972
 37
0.0
 40
24.4073368420706309
 41
2.7985989492119079
 42
50.0
 43
0.0
 44
0.0
 50
0.0
 51
0.0
 71
     0
 72
   100
 73
     1
 74
     1
 75
     0
 76
     0
 77
     0
 78
     0
  0
ENDTAB
  0
TABLE
  2
LTYPE
 70
     2
  0
LTYPE
  2
CONTINUOUS
 70
     0
  3
Solid line
 72
    65
 73
     0
 40
0.0
  0
LTYPE
  2
PHANTOM2
 70
     0
  3
___ _ _ ___ _ _ ___ _ _ ___ _ _
 72
    65
 73
     6
 40
1.25
 49
0.625
 49
-0.125
 49
0.125
 49
-0.125
 49
0.125
 49
-0.125
  0
ENDTAB
  0
TABLE
  2
LAYER
 70
     2
  0
LAYER
  2
0
 70
     0
 62
   255
  6
CONTINUOUS
  0
LAYER
  2
DEFPOINTS
 70
     0
 62
     7
  6
CONTINUOUS
  0
ENDTAB
  0
TABLE
  2
STYLE
 70
     1
  0
STYLE
  2
STANDARD
 70
     0
 40
0.0
 41
0.8
 50
0.0
 71
     0
 42
0.2
  3
txt
  4

  0
ENDTAB
  0
TABLE
  2
VIEW
 70
     2
  0
ENDTAB
  0
TABLE
  2
UCS
 70
     0
  0
ENDTAB
  0
TABLE
  2
APPID
 70
    10
  0
APPID
  2
ACAD
 70
     0
  0
APPID
  2
ACAD_MLEADERVER
 70
     0
  0
APPID
  2
ACAD_EXEMPT_FROM_CAD_STANDARDS
 70
     0
  0
APPID
  2
ACAD_NAV_VCDISPLAY
 70
     0
  0
APPID
  2
ACAECLAYERSTANDARD
 70
     0
  0
APPID
  2
ACCMTRANSPARENCY
 70
     0
  0
APPID
  2
ACAD_DSTYLE_DIMJAG
 70
     0
  0
APPID
  2
ACAD_DSTYLE_DIMTALN
 70
     0
  0
APPID
  2
ACDBATTR
 70
     0
  0
APPID
  2
DCO15
 70
     0
  0
ENDTAB
  0
TABLE
  2
DIMSTYLE
 70
     1
  0
DIMSTYLE
  2
STANDARD
 70
     0
  3

  4

  5

  6

  7

 40
1.0
 41
0.1875
 42
0.0625
 43
0.38
 44
0.125
 45
0.0
 46
0.0
 47
0.01
 48
0.01
140
0.15625
141
0.09
142
0.0
143
25.3999999999999986
144
1.0
145
0.0
146
1.0
147
0.09
 71
     1
 72
     0
 73
     1
 74
     1
 75
     0
 76
     0
 77
     0
 78
     4
170
     0
171
     2
172
     0
173
     0
174
     0
175
     0
176
     0
177
     0
178
     0
  0
ENDTAB
  0
ENDSEC
  0
SECTION
  2
BLOCKS
  0
BLOCK
  8
0
  2
$MODEL_SPACE
 70
     0
 10
0.0
 20
0.0
 30
0.0
  3
$MODEL_SPACE
  1

  0
ENDBLK
  5
21
  8
0
  0
BLOCK
 67
     1
  8
0
  2
$PAPER_SPACE
 70
     0
 10
0.0
 20
0.0
 30
0.0
  3
$PAPER_SPACE
  1

  0
ENDBLK
  5
1D
 67
     1
  8
0
  0
ENDSEC
  0
SECTION
  2
ENTITIES
  0
ATTDEF
  5
12CA7
  8
DEFPOINTS
 10
4359.236600755561085
 20
228.3311224949673033
 30
0.0
 40
0.001
  1
K-18659T
  3

  2
MODELNUMBER
 70
     0
1001
ACDBATTR
1070
     0
1070
     1
  0
ATTDEF
  5
12CA8
  8
DEFPOINTS
 10
4359.236600755561085
 20
228.329455828300695
 30
0.0
 40
0.001
  1
C3-129
  3

  2
TRADENAME
 70
     0
1001
ACDBATTR
1070
     0
1070
     1
  0
ATTDEF
  5
12CA9
  8
DEFPOINTS
 10
4359.236600755561085
 20
228.3277891616340014
 30
0.0
 40
0.001
  1
TOILET SEAT
  3

  2
PRODUCT
 70
     0
1001
ACDBATTR
1070
     0
1070
     1
  0
ARC
  5
13D6B
  8
0
 10
4358.9064485229428101
 20
217.9568476405572142
 30
0.0
 40
10.3096338143805699
 50
89.2173256981280502
 51
104.5013266990022061
  0
ARC
  5
13D6C
  8
0
 10
4357.7686318462820054
 20
222.3560380568574999
 30
0.0
 40
5.7656814479316312
 50
104.5013266990022061
 51
115.7226742813914058
  0
ARC
  5
13D6D
  8
0
 10
4355.5759726260275784
 20
226.0193779675921064
 30
0.0
 40
1.489088408822524
 50
133.8267139055610073
 51
140.9151420644901975
  0
ARC
  5
13D6E
  8
0
 10
4356.1243796694370758
 20
225.3966862399240085
 30
0.0
 40
2.318354967454439
 50
98.3317918303199576
 51
132.9478514172485859
  0
ARC
  5
13D6F
  8
0
 10
4355.9045478205644031
 20
226.9156088757372913
 30
0.0
 40
0.7836132313358183
 50
90.9792494785191082
 51
98.5210351048672237
  0
LINE
  5
13D70
  8
0
 10
4355.8911556388520694
 20
227.6991076605440014
 30
0.0
 11
4356.2797894291516059
 21
227.6965292297439873
 31
0.0
  0
LINE
  5
13D71
  8
0
 10
4356.2797894291516059
 20
227.6965292297439873
 30
0.0
 11
4356.2787508248511585
 21
227.5399856689440128
 31
0.0
  0
ARC
  5
13D72
  8
0
 10
4359.1600080561784125
 20
220.1433164309424058
 30
0.0
 40
8.3011573232584546
 50
124.8193531741536049
 51
125.2504079603785954
  0
ARC
  5
13D73
  8
0
 10
4357.6898818342597224
 20
222.2234654958234046
 30
0.0
 40
5.7539448781542912
 50
125.2504079603785954
 51
137.8017200906465973
  0
ARC
  5
13D74
  8
0
 10
4358.2531403359544129
 20
221.7710000057512048
 30
0.0
 40
6.4752847671300469
 50
138.1834611960958057
 51
162.5202499517343142
  0
ARC
  5
13D75
  8
0
 10
4359.886040085233617
 20
221.1715471222111091
 30
0.0
 40
8.2132416608052647
 50
161.9530894512878945
 51
169.8532207818032873
  0
ARC
  5
13D76
  8
0
 10
4360.2065471776631966
 20
221.1264664847703045
 30
0.0
 40
8.5366863533800288
 50
169.9343541467376042
 51
172.9951324405446087
  0
ARC
  5
13D77
  8
0
 10
4359.3107437903227037
 20
221.2693514011021136
 30
0.0
 40
7.630213609121979
 50
173.2397176488939863
 51
180.8831759590073887
  0
ARC
  5
13D78
  8
0
 10
4369.8922249631650629
 20
221.6504364102318902
 30
0.0
 40
18.2176153236712608
 50
181.5686293888180955
 51
187.1040997187899961
  0
ARC
  5
13D79
  8
0
 10
4383.4512984662251256
 20
223.4430302501314998
 30
0.0
 40
31.8944545190590105
 50
187.2872412686365067
 51
194.2937973527610893
  0
ARC
  5
13D7A
  8
0
 10
4370.7167591863726557
 20
220.325027864470087
 30
0.0
 40
18.784728886729539
 50
194.6677637191226893
 51
205.2672127559490036
  0
ARC
  5
13D7B
  8
0
 10
4363.2216993878955691
 20
216.6240962320744927
 30
0.0
 40
10.4280824473823408
 50
204.4558994285355027
 51
223.3958287402620044
  0
ARC
  5
13D7C
  8
0
 10
4359.5150090988154261
 20
213.212977288248112
 30
0.0
 40
5.3915820827120138
 50
224.1187029574118981
 51
240.4697261484332103
  0
LINE
  5
13D7D
  8
0
 10
4352.7909119767527955
 20
213.6711358059440045
 30
0.0
 11
4352.7721235583740054
 21
213.720174290202209
 31
0.0
  0
ARC
  5
13D7E
  8
0
 10
4352.8422828524244323
 20
215.0458260229590906
 30
0.0
 40
1.375649722721723
 50
267.8599066125748891
 51
269.9195468657936203
  0
ARC
  5
13D7F
  8
0
 10
4355.0637801612474505
 20
204.446799625179608
 30
0.0
 40
9.5002267214968334
 50
103.6175386188429002
 51
103.8418997367181049
  0
ARC
  5
13D80
  8
0
 10
4371.1713063247143509
 20
220.6475309116181052
 30
0.0
 40
19.6596401103361202
 50
200.8406399279882066
 51
206.7213800059917901
  0
ARC
  5
13D81
  8
0
 10
4362.748440362650399
 20
216.52626048653201
 30
0.0
 40
10.2837152002620904
 50
207.3132375073161882
 51
224.1570861994318875
  0
ARC
  5
13D82
  8
0
 10
4358.9069582118490871
 20
213.5001416819440863
 30
0.0
 40
5.6155696877624051
 50
253.2278625452032088
 51
291.5230698914731988
  0
ARC
  5
13D83
  8
0
 10
4359.3656051103644131
 20
213.3874090923528115
 30
0.0
 40
5.6711132739752053
 50
225.214569728312199
 51
238.6006130184192102
  0
ARC
  5
13D84
  8
0
 10
4358.8684607293753288
 20
212.5123454622871861
 30
0.0
 40
4.6652914697179568
 50
238.2129164529249863
 51
250.1783941350333862
  0
LINE
  5
13D85
  8
0
 10
4352.7979264058521949
 20
213.6532218231440083
 30
0.0
 11
4352.7980707869519392
 21
213.6532673255439931
 31
0.0
  0
LINE
  5
13D86
  8
0
 10
4352.7980707869519392
 20
213.6532673255439931
 30
0.0
 11
4352.8511985872510195
 21
213.6584506292439869
 31
0.0
  0
ARC
  5
13D87
  8
0
 10
4352.8539077895466107
 20
213.6582561718828117
 30
0.0
 40
0.0027161720748938
 50
108.7983121936322988
 51
175.8945436972175003
  0
ARC
  5
13D88
  8
0
 10
4345.8485424660611898
 20
203.2102383507173897
 30
0.0
 40
12.5778508724191198
 50
54.811914694345262
 51
56.169006704812432
  0
ARC
  5
13D89
  8
0
 10
4349.8873948854870832
 20
208.9382050547852998
 30
0.0
 40
5.5691468960180641
 50
52.5985524176481931
 51
54.811914694345262
  0
ARC
  5
13D8A
  8
0
 10
4342.7191941802511792
 20
199.9299450351367113
 30
0.0
 40
17.0655152863540813
 50
53.5714665364795906
 51
54.2890328889688405
  0
ARC
  5
13D8B
  8
0
 10
4368.6643903559470345
 20
237.3773238219237101
 30
0.0
 40
28.4958092701169114
 50
233.0911060964924104
 51
235.8799644041534975
  0
ARC
  5
13D8C
  8
0
 10
4355.8699678941693492
 20
220.2393644953212117
 30
0.0
 40
7.1090940044752786
 50
226.993140947592309
 51
232.5930715640502058
  0
ARC
  5
13D8D
  8
0
 10
4353.6502399184619208
 20
217.884151864333603
 30
0.0
 40
3.8727839580190881
 50
197.0926633521210931
 51
227.241210735362813
  0
ARC
  5
13D8E
  8
0
 10
4360.4399489340248692
 20
219.8171312900547889
 30
0.0
 40
10.9317354375035798
 50
183.2881484696424934
 51
196.3168518729754908
  0
ARC
  5
13D8F
  8
0
 10
4353.1275114003647104
 20
219.3674401670656948
 30
0.0
 40
3.6056640907378381
 50
169.8228536669763002
 51
182.8189365093782897
  0
ARC
  5
13D90
  8
0
 10
4351.1400844791924101
 20
219.7015100847170004
 30
0.0
 40
1.5906364983347061
 50
129.1135737546713926
 51
169.0178001024432035
  0
ARC
  5
13D91
  8
0
 10
4352.8925690092255536
 20
217.7476230714318035
 30
0.0
 40
4.2141409794320781
 50
124.9668213455628063
 51
130.8421553066536092
  0
ARC
  5
13D92
  8
0
 10
4367.0104302913450738
 20
197.004803926264799
 30
0.0
 40
29.3052544556838583
 50
122.1623029727129932
 51
124.3443155965825042
  0
ARC
  5
13D93
  8
0
 10
4351.3678423227647727
 20
221.8723955158887975
 30
0.0
 40
0.073245459776228
 50
305.7869381853925006
 51
321.2157908246830971
  0
ARC
  5
13D94
  8
0
 10
4351.5979849614541308
 20
221.7309880635492902
 30
0.0
 40
0.1976631934529824
 50
141.3331127107009024
 51
151.0999461033244984
  0
ARC
  5
13D95
  8
0
 10
4351.4569944479308106
 20
221.8449117194986115
 30
0.0
 40
0.0164230304981641
 50
103.8719222484786968
 51
144.3381559138256875
  0
LINE
  5
13D96
  8
0
 10
4351.4530569883518183
 20
221.8608557573440123
 30
0.0
 11
4351.503735626552043
 21
221.8765403202440041
 31
0.0
  0
LINE
  5
13D97
  8
0
 10
4351.503735626552043
 20
221.8765403202440041
 30
0.0
 11
4351.7082769562039175
 21
221.9194727412852046
 31
0.0
  0
ARC
  5
13D98
  8
0
 10
4359.22475781986941
 20
221.3340436379426137
 30
0.0
 40
7.6784373580168968
 50
174.7172670189032999
 51
175.8500845198396121
  0
LINE
  5
13D99
  8
0
 10
4351.5789346986066448
 20
222.0410012458447966
 30
0.0
 11
4351.6401137688581002
 21
222.055350436863904
 31
0.0
  0
LINE
  5
13D9A
  8
0
 10
4351.5716799938527402
 20
222.1672480851439957
 30
0.0
 11
4351.6255117784521644
 21
222.0921274353439969
 31
0.0
  0
LINE
  5
13D9B
  8
0
 10
4351.6315402071531935
 20
222.0534026267440026
 30
0.0
 11
4351.6329356151518368
 21
222.0679026470440078
 31
0.0
  0
ARC
  5
13D9C
  8
0
 10
4351.5936294606990486
 20
222.0691069665772943
 30
0.0
 40
0.0393245999778822
 50
358.2450370194206926
 51
35.8309798783100319
  0
LINE
  5
13D9D
  8
0
 10
4351.5716799938527402
 20
222.1672480851439957
 30
0.0
 11
4351.6010042441521364
 21
222.3447635721439894
 31
0.0
  0
LINE
  5
13D9E
  8
0
 10
4351.6258416404516538
 20
222.3406606172439979
 30
0.0
 11
4351.5951776963520388
 21
222.3457260748440092
 31
0.0
  0
LINE
  5
13D9F
  8
0
 10
4351.5951776963520388
 20
222.3457260748440092
 30
0.0
 11
4351.7020796677516046
 21
222.9928613071440111
 31
0.0
  0
LINE
  5
13DA0
  8
0
 10
4351.7020796677516046
 20
222.9928613071440111
 30
0.0
 11
4351.7330796486521649
 21
222.9877403388439916
 31
0.0
  0
LINE
  5
13DA1
  8
0
 10
4351.7079062154525673
 20
222.9918988044439914
 30
0.0
 11
4351.7372304656519191
 21
223.1694142913439975
 31
0.0
  0
LINE
  5
13DA2
  8
0
 10
4351.7372304656519191
 20
223.1694142913439975
 30
0.0
 11
4351.8308479030283706
 21
223.236314083361691
 31
0.0
  0
LINE
  5
13DA3
  8
0
 10
4351.5815432807521574
 20
222.226955874844009
 30
0.0
 11
4351.5908027446803317
 21
222.225426279675105
 31
0.0
  0
LINE
  5
13DA4
  8
0
 10
4351.5906087984521946
 20
222.2251186211439915
 30
0.0
 11
4351.5805103014517954
 21
222.1639869895439858
 31
0.0
  0
LINE
  5
13DA5
  8
0
 10
4351.5805103014517954
 20
222.1639869895439858
 30
0.0
 11
4351.6334729893524127
 21
222.0900631601440125
 31
0.0
  0
LINE
  5
13DA6
  8
0
 10
4351.6407900215517657
 20
222.0631708742440082
 30
0.0
 11
4351.6401137688581002
 21
222.055350436863904
 31
0.0
  0
ARC
  5
13DA7
  8
0
 10
4351.600766846064289
 20
222.0667226785471087
 30
0.0
 40
0.0401804665221842
 50
354.9286462765874717
 51
35.5132531625263326
  0
ARC
  5
13DA8
  8
0
 10
4343.776344540457103
 20
223.9728238111289045
 30
0.0
 40
8.0181481374936965
 50
349.0012612101730838
 51
352.2384774242377148
  0
ARC
  5
13DA9
  8
0
 10
4347.7017119957072282
 20
223.2129619155421949
 30
0.0
 40
4.0199133104804616
 50
347.4674010014343253
 51
348.9584121893433917
  0
ARC
  5
13DAA
  8
0
 10
4350.3297792668672628
 20
222.6222765930972969
 30
0.0
 40
1.3263051059539901
 50
343.7980949046831824
 51
347.7409974613415216
  0
ARC
  5
13DAB
  8
0
 10
4351.4870024811898475
 20
222.2906464281491878
 30
0.0
 40
0.122589406017207
 50
327.6879064444715937
 51
341.7259097680741888
  0
LINE
  5
13DAC
  8
0
 10
4351.6005035449516072
 20
222.3779663055439926
 30
0.0
 11
4351.4839725907513639
 21
222.3972163603440038
 31
0.0
  0
LINE
  5
13DAD
  8
0
 10
4351.4839725907513639
 20
222.3972163603440038
 30
0.0
 11
4351.5802228650518373
 21
222.9798711313439981
 31
0.0
  0
LINE
  5
13DAE
  8
0
 10
4351.5802228650518373
 20
222.9798711313439981
 30
0.0
 11
4351.6967538192520806
 21
222.9606210765439869
 31
0.0
  0
ARC
  5
13DAF
  8
0
 10
4347.6015616227459759
 20
223.4470336145047895
 30
0.0
 40
4.1569690294079509
 50
352.2988056805987185
 51
353.6565792191087212
  0
ARC
  5
13DB0
  8
0
 10
4350.3569083150568986
 20
223.1455493772976126
 30
0.0
 40
1.385189962433492
 50
353.4583224530784946
 51
357.7685487011494274
  0
ARC
  5
13DB1
  8
0
 10
4351.6916540617712599
 20
223.0957984313683085
 30
0.0
 40
0.0495706455239349
 50
355.1590548736642745
 51
22.2379410700811491
  0
LINE
  5
13DB2
  8
0
 10
4351.7375376514519303
 20
223.114558631144007
 30
0.0
 11
4351.7476331742527691
 21
223.1756717858440027
 31
0.0
  0
LINE
  5
13DB3
  8
0
 10
4351.7476331742527691
 20
223.1756717858440027
 30
0.0
 11
4351.8247870374516424
 21
223.2309493841439973
 31
0.0
  0
ARC
  5
13DB4
  8
0
 10
4351.8014416697924389
 20
223.2634302694193025
 30
0.0
 40
0.040000176242929
 50
305.7063789498342885
 51
345.5445489121639753
  0
LINE
  5
13DB5
  8
0
 10
4351.8401755214335935
 20
223.2534451386538024
 30
0.0
 11
4351.8416017905519766
 21
223.2589394855440048
 31
0.0
  0
ARC
  5
13DB6
  8
0
 10
4352.1333406766079861
 20
223.6602409948553998
 30
0.0
 40
0.4961395761401811
 50
229.3726206729272974
 51
233.9835311915375939
  0
LINE
  5
13DB7
  8
0
 10
4351.810285857352028
 20
223.2836907820440047
 30
0.0
 11
4351.8270290589371143
 21
223.3424784593003949
 31
0.0
  0
ARC
  5
13DB8
  8
0
 10
4351.8273270132285688
 20
223.343707633170709
 30
0.0
 40
0.0012647707946584
 50
256.374204981006983
 51
306.2277069580878219
  0
ARC
  5
13DB9
  8
0
 10
4351.8106203519319024
 20
223.3603021444095873
 30
0.0
 40
0.0247977208780817
 50
314.7375567958653733
 51
335.352877847971115
  0
ARC
  5
13DBA
  8
0
 10
4347.8901397264507978
 20
224.8813846318734875
 30
0.0
 40
4.2299714770265506
 50
338.7743954258775148
 51
345.1651172627593951
  0
LINE
  5
13DBB
  8
0
 10
4351.9791164799516991
 20
223.7983667161439882
 30
0.0
 11
4351.9733791956523419
 21
223.8007090616439996
 31
0.0
  0
ARC
  5
13DBC
  8
0
 10
4361.0206504931757081
 20
220.3940156418591982
 30
0.0
 40
9.6674028563726431
 50
155.0045533452509119
 51
159.3664488761058067
  0
LINE
  5
13DBD
  8
0
 10
4352.258683343852681
 20
224.4789403243439949
 30
0.0
 11
4352.2702728468520945
 21
224.4881492515440016
 31
0.0
  0
ARC
  5
13DBE
  8
0
 10
4363.6125284259178443
 20
219.0399667116710134
 30
0.0
 40
12.5829032662831004
 50
151.0041921005179972
 51
154.3429850413396025
  0
LINE
  5
13DBF
  8
0
 10
4352.60682695045125
 20
225.1394740394439964
 30
0.0
 11
4352.6062635848520586
 21
225.1487625683440115
 31
0.0
  0
ARC
  5
13DC0
  8
0
 10
4357.1658641141821136
 20
222.5302995149060905
 30
0.0
 40
5.2579754420580711
 50
135.0406745412365126
 51
150.1323404908648058
  0
LINE
  5
13DC1
  8
0
 10
4353.4452755707516189
 20
226.2456092785440092
 30
0.0
 11
4353.462913817057597
 21
226.2576362454225887
 31
0.0
  0
LINE
  5
13DC2
  8
0
 10
4353.462913817057597
 20
226.2576362454225887
 30
0.0
 11
4353.7748581211517376
 21
226.5547062607440125
 31
0.0
  0
LINE
  5
13DC3
  8
0
 10
4353.7748581211517376
 20
226.5547062607440125
 30
0.0
 11
4353.7872768581519267
 21
226.5720187807440027
 31
0.0
  0
LINE
  5
13DC4
  8
0
 10
4353.7872768581519267
 20
226.5720187807440027
 30
0.0
 11
4353.7433893684519717
 21
226.6164925022440002
 31
0.0
  0
LINE
  5
13DC5
  8
0
 10
4353.7433893684519717
 20
226.6164925022440002
 30
0.0
 11
4353.4069312346528022
 21
226.2844694753439967
 31
0.0
  0
LINE
  5
13DC6
  8
0
 10
4353.4069312346528022
 20
226.2844694753439967
 30
0.0
 11
4353.4452755707516189
 21
226.2456092785440092
 31
0.0
  0
ARC
  5
13DC7
  8
0
 10
4356.8649344786526854
 20
223.315170200886314
 30
0.0
 40
4.4809640823693133
 50
125.2540053911904039
 51
133.379645056145705
  0
LINE
  5
13DC8
  8
0
 10
4354.2785118035517371
 20
226.9743308769440091
 30
0.0
 11
4354.2867735219515453
 21
226.9755826136440078
 31
0.0
  0
ARC
  5
13DC9
  8
0
 10
4358.0363460133958142
 20
221.7213824408781022
 30
0.0
 40
6.4549138897501139
 50
119.3803022937125036
 51
125.5129201911541941
  0
ARC
  5
13DCA
  8
0
 10
4350.0570436473772133
 20
220.3197554652217889
 30
0.0
 40
0.276974268448348
 50
66.289986565254722
 51
127.7646659817218051
  0
ARC
  5
13DCB
  8
0
 10
4350.0569160448512775
 20
220.3199952252440994
 30
0.0
 40
0.2767065877997777
 50
127.7741825619840057
 51
142.6090770271090946
  0
ARC
  5
13DCC
  8
0
 10
4350.0718666080947514
 20
220.3327633604395999
 30
0.0
 40
0.2814886738983373
 50
146.5249124365228113
 51
149.6769240597409976
  0
ARC
  5
13DCD
  8
0
 10
4351.0990215430147146
 20
219.7494105550304084
 30
0.0
 40
1.462718637429536
 50
150.2660441896258021
 51
165.7400407468738877
  0
ARC
  5
13DCE
  8
0
 10
4351.8232560971273415
 20
219.5536621634527989
 30
0.0
 40
2.212884209302417
 50
165.4468840772015881
 51
173.7316535118399088
  0
ARC
  5
13DCF
  8
0
 10
4353.5923717504210799
 20
219.391792151791293
 30
0.0
 40
3.989227314634971
 50
174.1949816207587958
 51
183.9600246507989993
  0
ARC
  5
13DD0
  8
0
 10
4360.7608731398368036
 20
219.9081353436764061
 30
0.0
 40
11.1762906207417494
 50
184.0628142469176112
 51
189.4194964484356092
  0
ARC
  5
13DD1
  8
0
 10
4359.1361737017423366
 20
219.4963946852388119
 30
0.0
 40
9.5071467159977576
 50
188.5740062297954012
 51
195.0036891639921919
  0
ARC
  5
13DD2
  8
0
 10
4354.4399890472341212
 20
218.2522141885802966
 30
0.0
 40
4.6489850018350127
 50
195.1760920146824105
 51
208.0329784585624111
  0
ARC
  5
13DD3
  8
0
 10
4353.262721888840133
 20
217.6414650216291875
 30
0.0
 40
3.3228287144539279
 50
208.277783914397304
 51
214.4152042903351969
  0
ARC
  5
13DD4
  8
0
 10
4350.7349692015641267
 20
215.9300964622989056
 30
0.0
 40
0.270807146554016
 50
217.9790560378843907
 51
324.5789477287535192
  0
ARC
  5
13DD5
  8
0
 10
4300.0708676497979468
 20
255.7670440872666973
 30
0.0
 40
64.7207361918147797
 50
321.8337249218769784
 51
322.9211981749248253
  0
ARC
  5
13DD6
  8
0
 10
4350.7358570075730313
 20
215.9316083492797134
 30
0.0
 40
0.2762196927976487
 50
218.1302958856765883
 51
310.5507607497947902
  0
ARC
  5
13DD7
  8
0
 10
4350.5989467218660138
 20
216.0452613061819989
 30
0.0
 40
0.4525896870293554
 50
314.3692175453638242
 51
322.6563800793820178
  0
ARC
  5
13DD8
  8
0
 10
4300.4290674999328985
 20
255.4894064277739005
 30
0.0
 40
64.271484453884284
 50
321.8310101596001118
 51
322.9265205175177016
  0
ARC
  5
13DD9
  8
0
 10
4351.0425257150136531
 20
217.1473063765128018
 30
0.0
 40
0.7788912005437636
 50
328.8211268846520738
 51
10.2219723881131994
  0
ARC
  5
13DDA
  8
0
 10
4351.0440499395726874
 20
217.1468921333564026
 30
0.0
 40
0.773435446966028
 50
328.7868675579613864
 51
10.3273897898404297
  0
ARC
  5
13DDB
  8
0
 10
4396.1104300855622569
 20
227.0032162271022003
 30
0.0
 40
45.358661507134272
 50
189.2890841832387139
 51
192.3709807468486019
  0
ARC
  5
13DDC
  8
0
 10
4397.0709835868774462
 20
227.1679067127840881
 30
0.0
 40
46.3282163697092031
 50
189.3709073874599085
 51
192.316530234093193
  0
ARC
  5
13DDD
  8
0
 10
4350.5763294554863023
 20
219.5387535590012078
 30
0.0
 40
0.7833863848550516
 50
10.5072122133131192
 51
67.0607676196112834
  0
ARC
  5
13DDE
  8
0
 10
4350.5753947733337554
 20
219.5355559214060008
 30
0.0
 40
0.7906446454293442
 50
6.46029250712707
 51
67.1569534652227134
  0
LINE
  5
13DDF
  8
0
 10
4350.8816579229523995
 20
220.2601887639440008
 30
0.0
 11
4350.1684185083522607
 21
220.5733541284440093
 31
0.0
  0
LINE
  5
13DE0
  8
0
 10
4350.882329737451073
 20
220.2641921033439871
 30
0.0
 11
4350.1700003955520515
 21
220.5769567595440037
 31
0.0
  0
ARC
  5
13DE1
  8
0
 10
4350.0575868558771617
 20
220.3209321060224113
 30
0.0
 40
0.2796165715996422
 50
66.2950139615903993
 51
146.1053764179478947
  0
ARC
  5
13DE2
  8
0
 10
4351.0892481517030319
 20
219.753363775005397
 30
0.0
 40
1.4562095782240629
 50
150.2089280171649932
 51
165.8478938808108012
  0
ARC
  5
13DE3
  8
0
 10
4352.138331159639165
 20
219.4931980934167086
 30
0.0
 40
2.537066219735296
 50
165.9433748402973094
 51
178.062420154174589
  0
ARC
  5
13DE4
  8
0
 10
4354.3569335309575763
 20
219.4093409875329996
 30
0.0
 40
4.7572435163418278
 50
177.9564740233172131
 51
183.5343659338817872
  0
ARC
  5
13DE5
  8
0
 10
4360.4993971981602954
 20
219.8787852557098006
 30
0.0
 40
10.9173341927396201
 50
184.0061043968688068
 51
189.4654694555773062
  0
ARC
  5
13DE6
  8
0
 10
4363.0421680276904226
 20
220.1965876171182117
 30
0.0
 40
13.4781551279754392
 50
189.0204212695664978
 51
191.3079276467153136
  0
ARC
  5
13DE7
  8
0
 10
4354.9809155499842745
 20
218.4803374499956874
 30
0.0
 40
5.2378644325260177
 50
190.1891659253996067
 51
207.4550118850285116
  0
ARC
  5
13DE8
  8
0
 10
4353.2358609204329696
 20
217.6269131742122056
 30
0.0
 40
3.2962156396343412
 50
208.2764429920497093
 51
214.4759609420009951
  0
CIRCLE
  5
13DE9
  8
0
 10
4349.9510092806522152
 20
219.812382985594013
 30
0.0
 40
0.2496092447143062
  0
CIRCLE
  5
13DEA
  8
0
 10
4350.6342111553167342
 20
219.311630553527408
 30
0.0
 40
0.2496092447143062
  0
CIRCLE
  5
13DEB
  8
0
 10
4349.9239854498928253
 20
218.9673883986602902
 30
0.0
 40
0.2496092447143062
  0
CIRCLE
  5
13DEC
  8
0
 10
4350.8441323109200312
 20
218.2375920081233005
 30
0.0
 40
0.2496092447143062
  0
CIRCLE
  5
13DED
  8
0
 10
4350.068986573289294
 20
217.9714538379371902
 30
0.0
 40
0.2496092447143062
  0
CIRCLE
  5
13DEE
  8
0
 10
4350.2797517427507046
 20
217.0684458011049003
 30
0.0
 40
0.2496092447143062
  0
CIRCLE
  5
13DEF
  8
0
 10
4351.0988710390647611
 20
217.1079937175477141
 30
0.0
 40
0.2496092447143062
  0
CIRCLE
  5
13DF0
  8
0
 10
4350.6312127123919709
 20
216.2047381269559878
 30
0.0
 40
0.2496092447143062
  0
CIRCLE
  5
13DF1
  8
0
 10
4350.8046456211914119
 20
215.8233487892067046
 30
0.0
 40
0.0394627590917404
  0
CIRCLE
  5
13DF2
  8
0
 10
4350.8968451520559029
 20
215.9455597394587016
 30
0.0
 40
0.0331893787630532
  0
CIRCLE
  5
13DF3
  8
0
 10
4350.9881807887031755
 20
216.0664574105940119
 30
0.0
 40
0.0263590388665601
  0
CIRCLE
  5
13DF4
  8
0
 10
4350.4536369132256368
 20
216.6866458507485049
 30
0.0
 40
0.0394627590917404
  0
CIRCLE
  5
13DF5
  8
0
 10
4350.5458364440910373
 20
216.8088568010005019
 30
0.0
 40
0.0331893787630532
  0
CIRCLE
  5
13DF6
  8
0
 10
4350.6371720807374004
 20
216.9297544721358122
 30
0.0
 40
0.0263590388665601
  0
CIRCLE
  5
13DF7
  8
0
 10
4350.2439588352790452
 20
217.5890429111497042
 30
0.0
 40
0.0394627590917404
  0
CIRCLE
  5
13DF8
  8
0
 10
4350.3361583661426266
 20
217.7112538614017865
 30
0.0
 40
0.0331893787630532
  0
CIRCLE
  5
13DF9
  8
0
 10
4350.4274940027889897
 20
217.8321515325370967
 30
0.0
 40
0.0263590388665601
  0
CIRCLE
  5
13DFA
  8
0
 10
4351.0176130450918208
 20
217.8564584759251943
 30
0.0
 40
0.0394627590917404
  0
CIRCLE
  5
13DFB
  8
0
 10
4351.1098125759572213
 20
217.978669426177305
 30
0.0
 40
0.0331893787630532
  0
CIRCLE
  5
13DFC
  8
0
 10
4351.2011482126017654
 20
218.0995670973125868
 30
0.0
 40
0.0263590388665601
  0
CIRCLE
  5
13DFD
  8
0
 10
4350.100760728428213
 20
218.5895317733956063
 30
0.0
 40
0.0394627590917404
  0
CIRCLE
  5
13DFE
  8
0
 10
4350.192960259292704
 20
218.7117427236476033
 30
0.0
 40
0.0331893787630532
  0
CIRCLE
  5
13DFF
  8
0
 10
4350.2842958959390671
 20
218.8326403947829135
 30
0.0
 40
0.0263590388665601
  0
CIRCLE
  5
13E00
  8
0
 10
4350.8078472179831806
 20
218.9339152402002924
 30
0.0
 40
0.0394627590917404
  0
CIRCLE
  5
13E01
  8
0
 10
4350.9000467488467621
 20
219.0561261904524031
 30
0.0
 40
0.0331893787630532
  0
CIRCLE
  5
13E02
  8
0
 10
4350.9913823854940347
 20
219.1770238615875996
 30
0.0
 40
0.0263590388665601
  0
CIRCLE
  5
13E03
  8
0
 10
4350.1246257972943567
 20
219.432688015797595
 30
0.0
 40
0.0394627590917404
  0
CIRCLE
  5
13E04
  8
0
 10
4350.2168253281606667
 20
219.554898966049592
 30
0.0
 40
0.0331893787630532
  0
CIRCLE
  5
13E05
  8
0
 10
4350.3081609648061203
 20
219.6757966371849022
 30
0.0
 40
0.0263590388665601
  0
CIRCLE
  5
13E06
  8
0
 10
4351.3152276356513539
 20
216.7865784898534969
 30
0.0
 40
0.0394627590917404
  0
CIRCLE
  5
13E07
  8
0
 10
4351.4517821744384491
 20
216.9680635890811971
 30
0.0
 40
0.0394627590917404
  0
ARC
  5
13E08
  8
0
 10
4359.236602078116448
 20
216.808095793034596
 30
0.0
 40
11.1320413377369398
 50
74.5910866022761496
 51
105.408913397723893
  0
ARC
  5
13E09
  8
0
 10
4359.5667556332900858
 20
217.9568476405572142
 30
0.0
 40
10.3096338143805699
 50
75.4986733009978224
 51
90.7826743018719355
  0
ARC
  5
13E0A
  8
0
 10
4360.7045723099508905
 20
222.3560380568574999
 30
0.0
 40
5.7656814479316312
 50
64.2773257186085516
 51
75.4986733009978224
  0
ARC
  5
13E0B
  8
0
 10
4362.8972315302053175
 20
226.0193779675921064
 30
0.0
 40
1.489088408822524
 50
39.0848579355097883
 51
46.1732860944389785
  0
ARC
  5
13E0C
  8
0
 10
4362.3488244867949106
 20
225.3966862399240085
 30
0.0
 40
2.318354967454439
 50
47.052148582751343
 51
81.6682081696800566
  0
ARC
  5
13E0D
  8
0
 10
4362.5686563356694023
 20
226.9156088757372913
 30
0.0
 40
0.7836132313358183
 50
81.4789648951327905
 51
89.0207505214809203
  0
LINE
  5
13E0E
  8
0
 10
4362.582048517379917
 20
227.6991076605440014
 30
0.0
 11
4362.1934147270803805
 21
227.6965292297439873
 31
0.0
  0
LINE
  5
13E0F
  8
0
 10
4362.1934147270803805
 20
227.6965292297439873
 30
0.0
 11
4362.1944533313808279
 21
227.5399856689440128
 31
0.0
  0
ARC
  5
13E10
  8
0
 10
4359.3131961000563024
 20
220.1433164309424058
 30
0.0
 40
8.3011573232584546
 50
54.7495920396214331
 51
55.1806468258463596
  0
ARC
  5
13E11
  8
0
 10
4360.783322321974083
 20
222.2234654958234046
 30
0.0
 40
5.7539448781542912
 50
42.1982799093534098
 51
54.7495920396214331
  0
ARC
  5
13E12
  8
0
 10
4360.2200638202793925
 20
221.7710000057512048
 30
0.0
 40
6.4752847671300469
 50
17.4797500482656609
 51
41.8165388039041588
  0
ARC
  5
13E13
  8
0
 10
4358.5871640709992789
 20
221.1715471222111091
 30
0.0
 40
8.2132416608052647
 50
10.1467792181967003
 51
18.0469105487120594
  0
ARC
  5
13E14
  8
0
 10
4358.2666569785696993
 20
221.1264664847703045
 30
0.0
 40
8.5366863533800288
 50
7.0048675594553957
 51
10.0656458532623905
  0
ARC
  5
13E15
  8
0
 10
4359.1624603659111017
 20
221.2693514011021136
 30
0.0
 40
7.630213609121979
 50
359.1168240409925829
 51
6.760282351106019
  0
ARC
  5
13E16
  8
0
 10
4348.580979193067833
 20
221.6504364102318902
 30
0.0
 40
18.2176153236712608
 50
352.8959002812098902
 51
358.431370611181876
  0
ARC
  5
13E17
  8
0
 10
4335.0219056900077703
 20
223.4430302501314998
 30
0.0
 40
31.8944545190590105
 50
345.7062026472389107
 51
352.7127587313635217
  0
ARC
  5
13E18
  8
0
 10
4347.7564449698602402
 20
220.325027864470087
 30
0.0
 40
18.784728886729539
 50
334.7327872440508827
 51
345.3322362808772823
  0
ARC
  5
13E19
  8
0
 10
4355.2515047683364173
 20
216.6240962320744927
 30
0.0
 40
10.4280824473823408
 50
316.6041712597379956
 51
335.5441005714645257
  0
ARC
  5
13E1A
  8
0
 10
4358.9581950574165603
 20
213.212977288248112
 30
0.0
 40
5.3915820827120138
 50
299.5302738515666761
 51
315.8812970425880167
  0
ARC
  5
13E1B
  8
0
 10
4357.4525536630571878
 20
220.3940156418591982
 30
0.0
 40
9.6674028563726431
 50
20.6335511238941507
 51
24.9954466547491094
  0
LINE
  5
13E1C
  8
0
 10
4366.2145208123811244
 20
224.4789403243439949
 30
0.0
 11
4366.2029313093808014
 21
224.4881492515440016
 31
0.0
  0
ARC
  5
13E1D
  8
0
 10
4354.8606757303132326
 20
219.0399667116710134
 30
0.0
 40
12.5829032662831004
 50
25.6570149586603691
 51
28.2857139409356506
  0
ARC
  5
13E1E
  8
0
 10
4361.3073400420507824
 20
222.5302995149060905
 30
0.0
 40
5.2579754420580711
 50
41.2046835155342492
 51
44.9593254587634519
  0
LINE
  5
13E1F
  8
0
 10
4365.027928585481277
 20
226.2456092785440092
 30
0.0
 11
4365.0102903391743894
 21
226.2576362454225887
 31
0.0
  0
LINE
  5
13E20
  8
0
 10
4365.0102903391743894
 20
226.2576362454225887
 30
0.0
 11
4364.6983460350811583
 21
226.5547062607440125
 31
0.0
  0
LINE
  5
13E21
  8
0
 10
4364.6983460350811583
 20
226.5547062607440125
 30
0.0
 11
4364.6859272980809692
 21
226.5720187807440027
 31
0.0
  0
LINE
  5
13E22
  8
0
 10
4364.6859272980809692
 20
226.5720187807440027
 30
0.0
 11
4364.7298147877809242
 21
226.6164925022440002
 31
0.0
  0
LINE
  5
13E23
  8
0
 10
4364.7298147877809242
 20
226.6164925022440002
 30
0.0
 11
4365.0662729215810032
 21
226.2844694753439967
 31
0.0
  0
LINE
  5
13E24
  8
0
 10
4365.0662729215810032
 20
226.2844694753439967
 30
0.0
 11
4365.027928585481277
 21
226.2456092785440092
 31
0.0
  0
ARC
  5
13E25
  8
0
 10
4361.6082696775793011
 20
223.315170200886314
 30
0.0
 40
4.4809640823693133
 50
46.6203549438542595
 51
54.7459946088095677
  0
LINE
  5
13E26
  8
0
 10
4364.1946923526811588
 20
226.9743308769440091
 30
0.0
 11
4364.1864306342804412
 21
226.9755826136440078
 31
0.0
  0
ARC
  5
13E27
  8
0
 10
4360.4368581428352627
 20
221.7213824408781022
 30
0.0
 40
6.4549138897501139
 50
54.4870798088457278
 51
60.6196977062874609
  0
LINE
  5
13E28
  8
0
 10
4365.2063801417516515
 20
225.9736834623440132
 30
0.0
 11
4365.2957145059517643
 21
226.005599211843986
 31
0.0
  0
ARC
  5
13E29
  8
0
 10
4365.3151902385516223
 20
225.9506185705778023
 30
0.0
 40
0.0583281670751212
 50
40.7913133253553468
 51
109.5056172240406056
  0
ARC
  5
13E2A
  8
0
 10
4361.5283848293065603
 20
222.6102890242327135
 30
0.0
 40
5.1076722501841019
 50
29.0983620904373197
 51
41.4086003608890607
  0
LINE
  5
13E2B
  8
0
 10
4365.879392666251988
 20
224.9806020939439861
 30
0.0
 11
4365.9596360751520479
 21
225.0092099276440081
 31
0.0
  0
ARC
  5
13E2C
  8
0
 10
4365.9394873116652889
 20
225.0651708205334103
 30
0.0
 40
0.0594776781913156
 50
289.8014523048053093
 51
29.2172036279786411
  0
ARC
  5
13E2D
  8
0
 10
4367.366530380137192
 20
227.6907797261611108
 30
0.0
 40
2.7594689039039828
 50
218.481072172490002
 51
220.2179873359748967
  0
ARC
  5
13E2E
  8
0
 10
4361.5608025352257755
 20
222.7869909233839962
 30
0.0
 40
4.8401120513649962
 50
27.8744518040134501
 51
40.1677593169851193
  0
ARC
  5
13E2F
  8
0
 10
4366.7008915563374103
 20
225.5015706306587902
 30
0.0
 40
0.9727634052827021
 50
207.6649618366332106
 51
212.3815741019265033
  0
LINE
  5
13E30
  8
0
 10
4365.879392666251988
 20
224.9806020939439861
 30
0.0
 11
4365.9596360751520479
 21
225.0092099276440081
 31
0.0
  0
ARC
  5
13E31
  8
0
 10
4365.2671270769178591
 20
225.9321677261910963
 30
0.0
 40
0.0597902891241206
 50
40.5337772068351967
 51
104.343343305958598
  0
ARC
  5
13E32
  8
0
 10
4365.5809755043628684
 20
226.1742357011740125
 30
0.0
 40
0.3366548949703481
 50
217.1293610551288111
 51
220.7222444173403062
  0
ARC
  5
13E33
  8
0
 10
4361.555027997437719
 20
222.7786163913087023
 30
0.0
 40
4.9300970274689657
 50
27.8959819416164692
 51
40.1060186790874624
  0
ARC
  5
13E34
  8
0
 10
4366.086506261221075
 20
225.1751177449579018
 30
0.0
 40
0.1960736495017613
 50
207.2797562033208862
 51
213.1874573196678
  0
ARC
  5
13E35
  8
0
 10
4365.8702972650507945
 20
225.0400436447355901
 30
0.0
 40
0.0590440959941515
 50
289.6527745034322834
 51
28.0305304300625586
  0
ARC
  5
13E36
  8
0
 10
4361.5649485913136232
 20
222.7734243140652097
 30
0.0
 40
4.9304866748868799
 50
28.8142813098991688
 51
38.9773785692979402
  0
ARC
  5
13E37
  8
0
 10
4361.5608095249435792
 20
222.7617307575158065
 30
0.0
 40
4.9440735604694392
 50
28.9017992380974995
 51
39.0402978205157822
  0
ARC
  5
13E38
  8
0
 10
4361.5555956192238227
 20
222.7508080373835924
 30
0.0
 40
4.957508504693088
 50
28.9764162244284904
 51
39.0901921295574368
  0
ARC
  5
13E39
  8
0
 10
4361.551883640790038
 20
222.7394316353785939
 30
0.0
 40
4.9705638218051433
 50
29.0622594468026207
 51
39.1527781366131933
  0
ARC
  5
13E3A
  8
0
 10
4361.5468972469798246
 20
222.7286786520427881
 30
0.0
 40
4.9837146874771037
 50
29.1356557291659612
 51
39.2022813856247581
  0
ARC
  5
13E3B
  8
0
 10
4361.5436111486778827
 20
222.7176169144547941
 30
0.0
 40
4.9962410455144024
 50
29.2199140516488782
 51
39.2645868057042335
  0
ARC
  5
13E3C
  8
0
 10
4361.5388977046941363
 20
222.707062788945592
 30
0.0
 40
5.0090542788196624
 50
29.2921020926161511
 51
39.3137969322188709
  0
ARC
  5
13E3D
  8
0
 10
4361.532360882219109
 20
222.693800108207796
 30
0.0
 40
5.0254897947006461
 50
29.37927667754089
 51
39.3714378136478587
  0
ARC
  5
13E3E
  8
0
 10
4361.5315101653122838
 20
222.6858992071182115
 30
0.0
 40
5.0336334558378626
 50
29.4459970616781703
 51
39.4247154499459569
  0
ARC
  5
13E3F
  8
0
 10
4361.5286301109836131
 20
222.6751584331622098
 30
0.0
 40
5.0456423544875282
 50
29.5278412484026909
 51
39.4860565967933894
  0
ARC
  5
13E40
  8
0
 10
4361.5246658488558751
 20
222.665139116467202
 30
0.0
 40
5.0575365126313789
 50
29.5975409447689586
 51
39.5350255457993427
  0
ARC
  5
13E41
  8
0
 10
4361.5233328172153051
 20
222.6554853141811066
 30
0.0
 40
5.0676606448319603
 50
29.6766658703083017
 51
39.5975366074158686
  0
ARC
  5
13E42
  8
0
 10
4361.5207228515100724
 20
222.6464143105143876
 30
0.0
 40
5.0779067741480528
 50
29.7440414389757386
 51
39.6475779512909199
  0
ARC
  5
13E43
  8
0
 10
4361.5170855726673835
 20
222.6351859341689021
 30
0.0
 40
5.0908101476116814
 50
29.8250769914182783
 51
39.7067203804131168
  0
ARC
  5
13E44
  8
0
 10
4361.5144661744388941
 20
222.6261197130000937
 30
0.0
 40
5.1010604605766741
 50
29.8917835901397915
 51
39.7562407957753123
  0
ARC
  5
13E45
  8
0
 10
4361.5095466837583444
 20
222.6140075571011039
 30
0.0
 40
5.1155144615306769
 50
29.9735204882001014
 51
39.8132901624713398
  0
LINE
  5
13E46
  8
0
 10
4365.8849748136517519
 20
225.1497812505440095
 30
0.0
 11
4365.8890955109527567
 21
225.1512503315439915
 31
0.0
  0
LINE
  5
13E47
  8
0
 10
4365.8925191824528156
 20
225.1524709156439883
 30
0.0
 11
4365.8966156070518991
 21
225.1539313450439863
 31
0.0
  0
LINE
  5
13E48
  8
0
 10
4365.9000195405533304
 20
225.155144893144012
 30
0.0
 11
4365.9040928180520496
 21
225.1565970693440022
 31
0.0
  0
LINE
  5
13E49
  8
0
 10
4365.9074778878512006
 20
225.1578038914439901
 30
0.0
 11
4365.9115290138515775
 21
225.1592481712440019
 31
0.0
  0
LINE
  5
13E4A
  8
0
 10
4365.9148959962521985
 20
225.1604485448440016
 30
0.0
 11
4365.9189258383521519
 21
225.1618852367440127
 31
0.0
  0
LINE
  5
13E4B
  8
0
 10
4365.9222754145521321
 20
225.1630794048440123
 30
0.0
 11
4365.9262847412510382
 21
225.1645087827440079
 31
0.0
  0
LINE
  5
13E4C
  8
0
 10
4365.9296175133522411
 20
225.1656969599440004
 30
0.0
 11
4365.9336070048520924
 21
225.1671192662439864
 31
0.0
  0
LINE
  5
13E4D
  8
0
 10
4365.9369235068515991
 20
225.1683016430440034
 30
0.0
 11
4365.9408937671505555
 21
225.1697170931439871
 31
0.0
  0
LINE
  5
13E4E
  8
0
 10
4365.397881164752107
 20
225.8747670456440062
 30
0.0
 11
4365.4008870311517967
 21
225.8758386743440099
 31
0.0
  0
LINE
  5
13E4F
  8
0
 10
4365.4033874328515594
 20
225.8767300986440034
 30
0.0
 11
4365.4063825583525613
 21
225.8777978984439869
 31
0.0
  0
LINE
  5
13E50
  8
0
 10
4365.4088740543511449
 20
225.8786861481439985
 30
0.0
 11
4365.4118585472524501
 21
225.879750157744013
 31
0.0
  0
LINE
  5
13E51
  8
0
 10
4365.4143412284520309
 20
225.8806352652439955
 30
0.0
 11
4365.4173152317516724
 21
225.8816955548439864
 31
0.0
  0
LINE
  5
13E52
  8
0
 10
4365.4197891568519481
 20
225.8825775224439951
 30
0.0
 11
4365.422752715153365
 21
225.8836340701440122
 31
0.0
  0
LINE
  5
13E53
  8
0
 10
4365.4252180433522881
 20
225.8845129926440052
 30
0.0
 11
4365.4281713326518002
 21
225.8855658982440104
 31
0.0
  0
LINE
  5
13E54
  8
0
 10
4365.430628122352573
 20
225.886441776444002
 30
0.0
 11
4365.433571190152179
 21
225.8874910193439973
 31
0.0
  0
LINE
  5
13E55
  8
0
 10
4365.4360195361532533
 20
225.888363887444001
 30
0.0
 11
4365.4389525122523992
 21
225.8894095234439874
 31
0.0
  0
ARC
  5
13E56
  8
0
 10
4361.5220912254853829
 20
222.7727684732797115
 30
0.0
 40
4.8730944785584533
 50
28.3213404253360999
 51
39.5664805024850992
  0
ARC
  5
13E57
  8
0
 10
4367.2364261637721938
 20
225.852366803029696
 30
0.0
 40
1.618249731966658
 50
208.3213404253345971
 51
209.871760173818501
  0
ARC
  5
13E58
  8
0
 10
4366.1220243635607403
 20
225.2122880200743111
 30
0.0
 40
0.3331068524765127
 50
209.871760173818501
 51
216.1605841340428924
  0
LINE
  5
13E59
  8
0
 10
4365.8530850764518618
 20
225.015738191743992
 30
0.0
 11
4365.857277145019907
 21
225.0172325589832951
 31
0.0
  0
ARC
  5
13E5A
  8
0
 10
4369.0693614530200648
 20
229.0028171004875048
 30
0.0
 40
4.9133663817291202
 50
219.0769635531148936
 51
219.5110804095504022
  0
ARC
  5
13E5B
  8
0
 10
4365.8372165477931048
 20
226.3782812681266137
 30
0.0
 40
0.7498403491773425
 50
215.5723943056516987
 51
219.0769635531148936
  0
LINE
  5
13E5C
  8
0
 10
4365.2273105501517421
 20
225.9420757852439863
 30
0.0
 11
4365.2308527727136607
 21
225.9433388004767949
 31
0.0
  0
ARC
  5
13E5D
  8
0
 10
4360.2926100646345731
 20
221.4681791992215096
 30
0.0
 40
6.631003869968632
 50
2.475929334785778
 51
20.5950757207294188
  0
ARC
  5
13E5E
  8
0
 10
4358.6499060022088088
 20
221.2564737772175079
 30
0.0
 40
8.2825125110361917
 50
358.889404398890008
 51
3.4482111758430061
  0
ARC
  5
13E5F
  8
0
 10
4366.8704419035948376
 20
221.0990689674594876
 30
0.0
 40
0.0605016962654471
 50
243.5663334432279044
 51
357.0348806982930228
  0
LINE
  5
13E60
  8
0
 10
4366.843508882833703
 20
221.0448927028810999
 30
0.0
 11
4366.7893209621333881
 21
221.0692323994159096
 31
0.0
  0
ARC
  5
13E61
  8
0
 10
4359.236602078116448
 20
213.8232059495065016
 30
0.0
 40
5.8107448307893668
 50
245.8318219786299039
 51
294.1681780213701245
  0
LINE
  5
13E62
  8
0
 10
4359.0472762492527181
 20
228.2655195694439954
 30
0.0
 11
4359.0476893593531713
 21
228.3277858097440003
 31
0.0
  0
LINE
  5
13E63
  8
0
 10
4359.0472762492527181
 20
228.2655195694439954
 30
0.0
 11
4359.06824139775199
 21
228.2602301753439917
 31
0.0
  0
ARC
  5
13E64
  8
0
 10
4359.0980095031600285
 20
228.4769941832346944
 30
0.0
 40
0.2187984808366151
 50
262.1805081087995859
 51
268.3776880992469955
  0
LINE
  5
13E65
  8
0
 10
4359.4259279069810873
 20
228.2655195694439954
 30
0.0
 11
4359.4255147968806341
 21
228.3277858097440003
 31
0.0
  0
LINE
  5
13E66
  8
0
 10
4359.4259279069810873
 20
228.2655195694439954
 30
0.0
 11
4359.4049627584809059
 21
228.2602301753439917
 31
0.0
  0
ARC
  5
13E67
  8
0
 10
4359.3751946530728674
 20
228.4769941832346944
 30
0.0
 40
0.2187984808366151
 50
271.6223119007530045
 51
277.8194918912003004
  0
LINE
  5
13E68
  8
0
 10
4359.4255147968806341
 20
228.3277858097440003
 30
0.0
 11
4359.0476893593531713
 21
228.3277858097440003
 31
0.0
  0
LINE
  5
13E69
  8
0
 10
4359.3813890351802911
 20
228.258283404243997
 30
0.0
 11
4359.0918151210516953
 21
228.258283404243997
 31
0.0
  0
ENDSEC
  0
EOF
