  0
SECTION
  2
HEADER
  9
$ACADVER
  1
AC1009
  9
$INSBASE
 10
4392.0512254523937372
 20
302.6666947300367951
 30
0.0
  9
$EXTMIN
 10
4362.4085770881683857
 20
302.6423388187636192
 30
-0.0000000000000058
  9
$EXTMAX
 10
4392.291266603101576
 20
327.0978335332911229
 30
0.0000000000000104
  9
$LIMMIN
 10
0.0
 20
0.0
  9
$LIMMAX
 10
11.6929133858000007
 20
8.2677165353999982
  9
$ORTHOMODE
 70
     0
  9
$REGENMODE
 70
     1
  9
$FILLMODE
 70
     1
  9
$QTEXTMODE
 70
     0
  9
$MIRRTEXT
 70
     0
  9
$DRAGMODE
 70
     2
  9
$LTSCALE
 40
0.6431102362
  9
$OSMODE
 70
     3
  9
$ATTMODE
 70
     1
  9
$TEXTSIZE
 40
0.2
  9
$TRACEWID
 40
0.05
  9
$TEXTSTYLE
  7
STANDARD
  9
$CLAYER
  8
0
  9
$CELTYPE
  6
BYLAYER
  9
$CECOLOR
 62
   256
  9
$DIMSCALE
 40
1.0
  9
$DIMASZ
 40
0.1875
  9
$DIMEXO
 40
0.0625
  9
$DIMDLI
 40
0.4443307087
  9
$DIMRND
 40
0.0
  9
$DIMDLE
 40
0.0
  9
$DIMEXE
 40
0.125
  9
$DIMTP
 40
0.01
  9
$DIMTM
 40
0.01
  9
$DIMTXT
 40
2.0
  9
$DIMCEN
 40
0.1052362205
  9
$DIMTSZ
 40
0.0
  9
$DIMTOL
 70
     1
  9
$DIMLIM
 70
     0
  9
$DIMTIH
 70
     1
  9
$DIMTOH
 70
     1
  9
$DIMSE1
 70
     0
  9
$DIMSE2
 70
     0
  9
$DIMTAD
 70
     0
  9
$DIMZIN
 70
     0
  9
$DIMBLK
  1

  9
$DIMASO
 70
     1
  9
$DIMSHO
 70
     1
  9
$DIMPOST
  1
\X
  9
$DIMAPOST
  1

  9
$DIMALT
 70
     1
  9
$DIMALTD
 70
     2
  9
$DIMALTF
 40
25.3999999999999986
  9
$DIMLFAC
 40
1.0
  9
$DIMTOFL
 70
     0
  9
$DIMTVP
 40
0.0
  9
$DIMTIX
 70
     0
  9
$DIMSOXD
 70
     0
  9
$DIMSAH
 70
     0
  9
$DIMBLK1
  1

  9
$DIMBLK2
  1

  9
$DIMSTYLE
  2
STANDARD
  9
$DIMCLRD
 70
     0
  9
$DIMCLRE
 70
     0
  9
$DIMCLRT
 70
     0
  9
$DIMTFAC
 40
1.0
  9
$DIMGAP
 40
0.09
  9
$LUNITS
 70
     2
  9
$LUPREC
 70
     4
  9
$SKETCHINC
 40
0.1
  9
$FILLETRAD
 40
0.0
  9
$AUNITS
 70
     0
  9
$AUPREC
 70
     0
  9
$MENU
  1
.
  9
$ELEVATION
 40
0.0
  9
$PELEVATION
 40
0.0
  9
$THICKNESS
 40
0.0
  9
$LIMCHECK
 70
     0
  9
$BLIPMODE
 70
     0
  9
$CHAMFERA
 40
0.0
  9
$CHAMFERB
 40
0.0
  9
$SKPOLY
 70
     0
  9
$TDCREATE
 40
2458060.468368056230247
  9
$TDUPDATE
 40
2459150.492175925988704
  9
$TDINDWG
 40
0.4777616898
  9
$TDUSRTIMER
 40
0.4777616898
  9
$USRTIMER
 70
     1
  9
$ANGBASE
 50
0.0
  9
$ANGDIR
 70
     0
  9
$PDMODE
 70
     0
  9
$PDSIZE
 40
0.3125
  9
$PLINEWID
 40
0.0
  9
$COORDS
 70
     1
  9
$SPLFRAME
 70
     0
  9
$SPLINETYPE
 70
     6
  9
$SPLINESEGS
 70
     8
  9
$ATTDIA
 70
     1
  9
$ATTREQ
 70
     1
  9
$HANDLING
 70
     1
  9
$HANDSEED
  5
1B442
  9
$SURFTAB1
 70
     6
  9
$SURFTAB2
 70
     6
  9
$SURFTYPE
 70
     6
  9
$SURFU
 70
     6
  9
$SURFV
 70
     6
  9
$UCSNAME
  2

  9
$UCSORG
 10
0.0
 20
0.0
 30
0.0
  9
$UCSXDIR
 10
1.0
 20
0.0
 30
0.0
  9
$UCSYDIR
 10
0.0
 20
1.0
 30
0.0
  9
$PUCSNAME
  2

  9
$PUCSORG
 10
0.0
 20
0.0
 30
0.0
  9
$PUCSXDIR
 10
1.0
 20
0.0
 30
0.0
  9
$PUCSYDIR
 10
0.0
 20
1.0
 30
0.0
  9
$USERI1
 70
     0
  9
$USERI2
 70
     0
  9
$USERI3
 70
     0
  9
$USERI4
 70
     0
  9
$USERI5
 70
     0
  9
$USERR1
 40
0.0
  9
$USERR2
 40
0.0
  9
$USERR3
 40
0.0
  9
$USERR4
 40
0.0
  9
$USERR5
 40
0.0
  9
$WORLDVIEW
 70
     1
  9
$SHADEDGE
 70
     3
  9
$SHADEDIF
 70
    70
  9
$TILEMODE
 70
     1
  9
$MAXACTVP
 70
    64
  9
$PLIMCHECK
 70
     0
  9
$PEXTMIN
 10
1.0000000000000000E+20
 20
1.0000000000000000E+20
 30
1.0000000000000000E+20
  9
$PEXTMAX
 10
-1.0000000000000000E+20
 20
-1.0000000000000000E+20
 30
-1.0000000000000000E+20
  9
$PLIMMIN
 10
0.0
 20
0.0
  9
$PLIMMAX
 10
12.0
 20
9.0
  9
$UNITMODE
 70
     0
  9
$VISRETAIN
 70
     1
  9
$PLINEGEN
 70
     0
  9
$PSLTSCALE
 70
     1
  0
ENDSEC
  0
SECTION
  2
TABLES
  0
TABLE
  2
VPORT
 70
     1
  0
VPORT
  2
*ACTIVE
 70
     0
 10
0.0
 20
0.0
 11
1.0
 21
1.0
 12
465.9845654003228788
 22
182.2904810734883085
 13
0.0
 23
0.0
 14
1.0
 24
1.0
 15
0.0
 25
0.0
 16
0.0
 26
0.0
 36
60.4960186965801583
 17
3911.3653564453120453
 27
132.5796051025390057
 37
0.0
 40
24.6026692062899315
 41
1.926706827309236
 42
50.0
 43
0.0
 44
0.0
 50
0.0
 51
0.0
 71
     0
 72
   100
 73
     1
 74
     1
 75
     0
 76
     0
 77
     0
 78
     0
  0
ENDTAB
  0
TABLE
  2
LTYPE
 70
     2
  0
LTYPE
  2
CONTINUOUS
 70
     0
  3
Solid line
 72
    65
 73
     0
 40
0.0
  0
LTYPE
  2
PHANTOM2
 70
     0
  3
___ _ _ ___ _ _ ___ _ _ ___ _ _
 72
    65
 73
     6
 40
1.25
 49
0.625
 49
-0.125
 49
0.125
 49
-0.125
 49
0.125
 49
-0.125
  0
ENDTAB
  0
TABLE
  2
LAYER
 70
     2
  0
LAYER
  2
0
 70
     0
 62
   255
  6
CONTINUOUS
  0
LAYER
  2
DEFPOINTS
 70
     0
 62
     7
  6
CONTINUOUS
  0
ENDTAB
  0
TABLE
  2
STYLE
 70
     1
  0
STYLE
  2
STANDARD
 70
     0
 40
0.0
 41
0.8
 50
0.0
 71
     0
 42
0.2
  3
txt
  4

  0
ENDTAB
  0
TABLE
  2
VIEW
 70
     0
  0
ENDTAB
  0
TABLE
  2
UCS
 70
     0
  0
ENDTAB
  0
TABLE
  2
APPID
 70
    10
  0
APPID
  2
ACAD
 70
     0
  0
APPID
  2
ACAD_MLEADERVER
 70
     0
  0
APPID
  2
ACAD_EXEMPT_FROM_CAD_STANDARDS
 70
     0
  0
APPID
  2
ACAD_NAV_VCDISPLAY
 70
     0
  0
APPID
  2
ACAECLAYERSTANDARD
 70
     0
  0
APPID
  2
ACCMTRANSPARENCY
 70
     0
  0
APPID
  2
ACAD_DSTYLE_DIMJAG
 70
     0
  0
APPID
  2
ACAD_DSTYLE_DIMTALN
 70
     0
  0
APPID
  2
ACDBATTR
 70
     0
  0
APPID
  2
ACADANNOTATIVE
 70
     0
  0
ENDTAB
  0
TABLE
  2
DIMSTYLE
 70
     1
  0
DIMSTYLE
  2
STANDARD
 70
     0
  3

  4

  5

  6

  7

 40
1.0
 41
0.1875
 42
0.0625
 43
0.38
 44
0.125
 45
0.0
 46
0.0
 47
0.01
 48
0.01
140
0.15625
141
0.09
142
0.0
143
25.3999999999999986
144
1.0
145
0.0
146
1.0
147
0.09
 71
     1
 72
     0
 73
     1
 74
     1
 75
     0
 76
     0
 77
     0
 78
     4
170
     0
171
     2
172
     0
173
     0
174
     0
175
     0
176
     0
177
     0
178
     0
  0
ENDTAB
  0
ENDSEC
  0
SECTION
  2
BLOCKS
  0
BLOCK
  8
0
  2
$MODEL_SPACE
 70
     0
 10
0.0
 20
0.0
 30
0.0
  3
$MODEL_SPACE
  1

  0
ENDBLK
  5
21
  8
0
  0
BLOCK
 67
     1
  8
0
  2
$PAPER_SPACE
 70
     0
 10
0.0
 20
0.0
 30
0.0
  3
$PAPER_SPACE
  1

  0
ENDBLK
  5
1D
 67
     1
  8
0
  0
ENDSEC
  0
SECTION
  2
ENTITIES
  0
ATTDEF
  5
159BF
  8
0
 10
4392.0515910626354525
 20
302.6700009237360973
 30
0.0
 40
0.001
  1
K-18728T-S
  3

  2
MODELNUMBER
 70
     0
1001
ACDBATTR
1070
     0
1070
     1
  0
ATTDEF
  5
159C0
  8
0
 10
4392.0514652529782325
 20
302.6683340833569105
 30
0.0
 40
0.001
  1
SAN RAPHAEL GRANDE
  3

  2
TRADENAME
 70
     0
1001
ACDBATTR
1070
     0
1070
     1
  0
ATTDEF
  5
159C1
  8
0
 10
4392.0515910626354525
 20
302.6666675904028239
 30
0.0
 40
0.001
  1
TOILET
  3

  2
PRODUCT
 70
     0
1001
ACDBATTR
1070
     0
1070
     1
  0
LINE
  5
1B390
  8
0
 10
4385.2176874348951969
 20
327.0771205582366861
 30
0.0
 11
4391.0112276504105466
 21
327.0771205582366861
 31
0.0
  0
LINE
  5
1B391
  8
0
 10
4391.3830997895947803
 20
302.6666947300367951
 30
0.0
 11
4391.3831007707940444
 21
325.9162831118367194
 31
0.0
  0
LINE
  5
1B392
  8
0
 10
4362.9636874432953846
 20
317.8448074369367191
 30
0.0
 11
4362.4246841982949263
 21
316.0718458005367211
 31
0.0
  0
LINE
  5
1B393
  8
0
 10
4362.4659515771945735
 20
315.8299678150366958
 30
0.0
 11
4391.2760676606949346
 21
315.868980126836675
 31
0.0
  0
ARC
  5
1B394
  8
0
 10
4391.2837912118657187
 20
316.0041603149728076
 30
0.0
 40
0.1354006517975222
 50
266.7299476450870088
 51
317.1756048096523273
  0
ARC
  5
1B395
  8
0
 10
4352.3493227544022375
 20
308.4179784477925068
 30
0.0
 40
12.5412824351537395
 50
332.7039580692381833
 51
36.2285213059437368
  0
ARC
  5
1B396
  8
0
 10
4362.6885792111515912
 20
315.9924102012602134
 30
0.0
 40
0.2755913500884497
 50
163.2475681771230995
 51
216.116718130076606
  0
CIRCLE
  5
1B397
  8
0
 10
4385.993726250333566
 20
304.0501920793333852
 30
0.0
 40
0.5384025534084249
  0
ARC
  5
1B398
  8
0
 10
4375.2399183069028368
 20
330.8995646414659859
 30
0.0
 40
12.8785821041595892
 50
269.8812631158638737
 51
277.1610832313655237
  0
ARC
  5
1B399
  8
0
 10
4376.5640360669704023
 20
321.1870746373986094
 30
0.0
 40
3.0785145265846481
 50
275.2430596659742719
 51
302.62021401589368
  0
ARC
  5
1B39A
  8
0
 10
4372.2662795290671056
 20
327.457279052081617
 30
0.0
 40
10.6791460517708998
 50
303.9067463257886743
 51
350.5073366184561223
  0
ARC
  5
1B39B
  8
0
 10
4391.2831008191060391
 20
325.9162834332469743
 30
0.0
 40
0.0999999516897439
 50
359.9998158454010877
 51
85.9927175552159326
  0
ARC
  5
1B39C
  8
0
 10
4391.2908035153550372
 20
326.1364588475800019
 30
0.0
 40
0.1204220638640461
 50
266.3326163135326965
 51
359.9168454156057919
  0
LINE
  5
1B39D
  8
0
 10
4391.4112254523952288
 20
326.1362840745476888
 30
0.0
 11
4391.4112254523952288
 21
326.6771205702366956
 31
0.0
  0
ARC
  5
1B39E
  8
0
 10
4391.0112251499813283
 20
326.6771202558310279
 30
0.0
 40
0.400000302413548
 50
0.0000450352701121
 51
89.9996420000056645
  0
ARC
  5
1B39F
  8
0
 10
4383.4342681087973688
 20
326.0063312394688069
 30
0.0
 40
0.1200471867475126
 50
161.1745264455454958
 51
269.9646754733863077
  0
LINE
  5
1B3A0
  8
0
 10
4383.4341940961949149
 20
325.8862840755367074
 30
0.0
 11
4390.8489752795940149
 21
325.8862840755367074
 31
0.0
  0
ARC
  5
1B3A1
  8
0
 10
4390.8489755524942666
 20
326.3262840755373873
 30
0.0
 40
0.4400000000008356
 50
269.999964463652077
 51
305.7479831530823731
  0
ARC
  5
1B3A2
  8
0
 10
4391.2520884399027636
 20
325.7662840755542106
 30
0.0
 40
0.24999999998251
 50
90.0000000020322943
 51
125.7480764068292984
  0
LINE
  5
1B3A3
  8
0
 10
4391.2520884398936687
 20
326.0162840755367029
 30
0.0
 11
4391.2831008116891098
 21
326.0162833849367985
 31
0.0
  0
LINE
  5
1B3A4
  8
0
 10
4382.9462151180950968
 20
325.8162840399367042
 30
0.0
 11
4391.2831009312949391
 21
325.8162829607367144
 31
0.0
  0
ARC
  5
1B3A5
  8
0
 10
4391.2831007289942136
 20
325.7162829607365211
 30
0.0
 40
0.1000000000003624
 50
359.9999931065880787
 51
89.9998840904307968
  0
ARC
  5
1B3A6
  8
0
 10
4382.946207860454706
 20
325.6662842205411152
 30
0.0
 40
0.1499998195711705
 50
89.9972277827434368
 51
168.550320526219906
  0
ARC
  5
1B3A7
  8
0
 10
4388.0129062913802045
 20
317.1488013130535819
 30
0.0
 40
10.3310731927578203
 50
106.4832142200023952
 51
113.1924606807160956
  0
ARC
  5
1B3A8
  8
0
 10
4385.2313275477654315
 20
326.5570084296116988
 30
0.0
 40
0.5202909561215743
 50
91.5022564599401846
 51
106.721999844631199
  0
ARC
  5
1B3A9
  8
0
 10
4384.3311267782710274
 20
325.6187250896275032
 30
0.0
 40
1.096743814674465
 50
110.6521081750068021
 51
157.1241299257551987
  0
ARC
  5
1B3AA
  8
0
 10
4357.0308218840400514
 20
556.2615795667168186
 30
0.0
 40
237.0635045256317142
 50
271.524654649524507
 51
275.6144821858204068
  0
LINE
  5
1B3AB
  8
0
 10
4363.2659310290637222
 20
319.2260541433440153
 30
0.0
 11
4363.0601455303558396
 21
318.5361625118200095
 31
0.0
  0
ARC
  5
1B3AC
  8
0
 10
4373.0851949453826819
 20
455.3778336571359091
 30
0.0
 40
137.2799843122662082
 50
265.8340837088152284
 51
271.2241129245322782
  0
ARC
  5
1B3AD
  8
0
 10
4374.7961428211401653
 20
379.906472471701079
 30
0.0
 40
61.789373933005578
 50
271.133008557509072
 51
272.1656309148785908
  0
ARC
  5
1B3AE
  8
0
 10
4364.5633994290174087
 20
317.6377578377509963
 30
0.0
 40
0.9842977752964664
 50
31.951048956918779
 51
43.9183925488493401
  0
LINE
  5
1B3AF
  8
0
 10
4365.3985766097939631
 20
318.1586428414366878
 30
0.0
 11
4365.482195372375827
 21
318.0210101916867984
 31
0.0
  0
LINE
  5
1B3B0
  8
0
 10
4367.0365826334937083
 20
318.2312909086367085
 30
0.0
 11
4367.038071696393672
 21
318.1459825536367134
 31
0.0
  0
LINE
  5
1B3B1
  8
0
 10
4367.038071696393672
 20
318.1459825536367134
 30
0.0
 11
4367.0355213287939478
 21
318.048587945336692
 31
0.0
  0
LINE
  5
1B3B2
  8
0
 10
4368.0711666912065994
 20
318.1894463444979237
 30
0.0
 11
4368.0704080278947004
 21
318.1459825536367134
 31
0.0
  0
LINE
  5
1B3B3
  8
0
 10
4368.0704080278947004
 20
318.1459825536367134
 30
0.0
 11
4368.0729583954962436
 21
318.048587945336692
 31
0.0
  0
ARC
  5
1B3B4
  8
0
 10
4359.6096858550808975
 20
248.3044764261348973
 30
0.0
 40
70.2980257878026151
 50
82.6254119013931358
 51
83.0862311809979275
  0
ARC
  5
1B3B5
  8
0
 10
4368.0336018076268374
 20
318.0475573569009953
 30
0.0
 40
0.0393700790089847
 50
317.6003410600027905
 51
1.4999998727939059
  0
ARC
  5
1B3B6
  8
0
 10
4367.074877916663354
 20
318.0475573569009953
 30
0.0
 40
0.0393700790089672
 50
178.5000001271897929
 51
222.3996589399498873
  0
LINE
  5
1B3B7
  8
0
 10
4376.4682499250993715
 20
318.1397274638435988
 30
0.0
 11
4376.4698209786420193
 21
318.0797313523090111
 31
0.0
  0
LINE
  5
1B3B8
  8
0
 10
4375.8367057079140068
 20
318.1254264603959996
 30
0.0
 11
4375.834693620595317
 21
318.048587945336692
 31
0.0
  0
ARC
  5
1B3B9
  8
0
 10
4375.8740502099581136
 20
318.0475573571146128
 30
0.0
 40
0.0393700804975409
 50
178.5000004948300045
 51
198.6715446265876892
  0
ARC
  5
1B3BA
  8
0
 10
4383.5129104769430342
 20
325.9662842602089086
 30
0.0
 40
0.1500002936303164
 50
270.0000725761793774
 51
327.769034689744899
  0
ARC
  5
1B3BB
  8
0
 10
4363.3413164354869878
 20
319.2033177829035253
 30
0.0
 40
0.07873945381895
 50
92.1262935580661946
 51
163.2166040520075967
  0
ARC
  5
1B3BC
  8
0
 10
4363.2025451855997744
 20
317.7710128747937119
 30
0.0
 40
0.2499973169081995
 50
89.9993690305303744
 51
162.8315837813370877
  0
ARC
  5
1B3BD
  8
0
 10
4363.1167818164540222
 20
318.5194551134767948
 30
0.0
 40
0.0590491834186059
 50
163.5642256078668026
 51
265.844600293873782
  0
LINE
  5
1B3BE
  8
0
 10
4363.4941197788512
 20
302.6666947300367951
 30
0.0
 11
4391.3830997895947803
 21
302.6666947300367951
 31
0.0
  0
LINE
  5
1B3BF
  8
0
 10
4363.2025451855997744
 20
318.0210101916867984
 30
0.0
 11
4375.2666072119109231
 21
318.0210101916867984
 31
0.0
  0
ENDSEC
  0
EOF
