  0
SECTION
  2
HEADER
  9
$ACADVER
  1
AC1009
  9
$INSBASE
 10
4354.9763942150102594
 20
256.4204237549997174
 30
0.0
  9
$EXTMIN
 10
4325.9075204873579423
 20
239.1362695323450964
 30
-0.0000000000112498
  9
$EXTMAX
 10
4383.883665632294651
 20
258.2343856429628772
 30
0.0000000000002956
  9
$LIMMIN
 10
0.0
 20
0.0
  9
$LIMMAX
 10
11.6929133858000007
 20
8.2677165353999982
  9
$ORTHOMODE
 70
     0
  9
$REGENMODE
 70
     1
  9
$FILLMODE
 70
     1
  9
$QTEXTMODE
 70
     0
  9
$MIRRTEXT
 70
     0
  9
$DRAGMODE
 70
     2
  9
$LTSCALE
 40
0.6431102362
  9
$OSMODE
 70
   575
  9
$ATTMODE
 70
     1
  9
$TEXTSIZE
 40
0.2
  9
$TRACEWID
 40
0.05
  9
$TEXTSTYLE
  7
STANDARD
  9
$CLAYER
  8
0
  9
$CELTYPE
  6
BYLAYER
  9
$CECOLOR
 62
   256
  9
$DIMSCALE
 40
1.0
  9
$DIMASZ
 40
0.1875
  9
$DIMEXO
 40
0.0625
  9
$DIMDLI
 40
0.4443307087
  9
$DIMRND
 40
0.0
  9
$DIMDLE
 40
0.0
  9
$DIMEXE
 40
0.125
  9
$DIMTP
 40
0.01
  9
$DIMTM
 40
0.01
  9
$DIMTXT
 40
2.0
  9
$DIMCEN
 40
0.1052362205
  9
$DIMTSZ
 40
0.0
  9
$DIMTOL
 70
     1
  9
$DIMLIM
 70
     0
  9
$DIMTIH
 70
     1
  9
$DIMTOH
 70
     1
  9
$DIMSE1
 70
     0
  9
$DIMSE2
 70
     0
  9
$DIMTAD
 70
     0
  9
$DIMZIN
 70
     0
  9
$DIMBLK
  1

  9
$DIMASO
 70
     1
  9
$DIMSHO
 70
     1
  9
$DIMPOST
  1
\X
  9
$DIMAPOST
  1

  9
$DIMALT
 70
     1
  9
$DIMALTD
 70
     2
  9
$DIMALTF
 40
25.3999999999999986
  9
$DIMLFAC
 40
1.0
  9
$DIMTOFL
 70
     0
  9
$DIMTVP
 40
0.0
  9
$DIMTIX
 70
     0
  9
$DIMSOXD
 70
     0
  9
$DIMSAH
 70
     0
  9
$DIMBLK1
  1

  9
$DIMBLK2
  1

  9
$DIMSTYLE
  2
STANDARD
  9
$DIMCLRD
 70
     0
  9
$DIMCLRE
 70
     0
  9
$DIMCLRT
 70
     0
  9
$DIMTFAC
 40
1.0
  9
$DIMGAP
 40
0.09
  9
$LUNITS
 70
     2
  9
$LUPREC
 70
     4
  9
$SKETCHINC
 40
0.1
  9
$FILLETRAD
 40
0.0
  9
$AUNITS
 70
     0
  9
$AUPREC
 70
     0
  9
$MENU
  1
.
  9
$ELEVATION
 40
0.0
  9
$PELEVATION
 40
0.0
  9
$THICKNESS
 40
0.0
  9
$LIMCHECK
 70
     0
  9
$BLIPMODE
 70
     0
  9
$CHAMFERA
 40
0.0
  9
$CHAMFERB
 40
0.0
  9
$SKPOLY
 70
     0
  9
$TDCREATE
 40
2458060.468368056230247
  9
$TDUPDATE
 40
2459389.7972685191780329
  9
$TDINDWG
 40
0.5280163194
  9
$TDUSRTIMER
 40
0.5280163194
  9
$USRTIMER
 70
     1
  9
$ANGBASE
 50
0.0
  9
$ANGDIR
 70
     0
  9
$PDMODE
 70
     0
  9
$PDSIZE
 40
0.3125
  9
$PLINEWID
 40
0.0
  9
$COORDS
 70
     2
  9
$SPLFRAME
 70
     0
  9
$SPLINETYPE
 70
     6
  9
$SPLINESEGS
 70
     8
  9
$ATTDIA
 70
     1
  9
$ATTREQ
 70
     1
  9
$HANDLING
 70
     1
  9
$HANDSEED
  5
20DCF
  9
$SURFTAB1
 70
     6
  9
$SURFTAB2
 70
     6
  9
$SURFTYPE
 70
     6
  9
$SURFU
 70
     6
  9
$SURFV
 70
     6
  9
$UCSNAME
  2

  9
$UCSORG
 10
0.0
 20
0.0
 30
0.0
  9
$UCSXDIR
 10
1.0
 20
0.0
 30
0.0
  9
$UCSYDIR
 10
0.0
 20
1.0
 30
0.0
  9
$PUCSNAME
  2

  9
$PUCSORG
 10
0.0
 20
0.0
 30
0.0
  9
$PUCSXDIR
 10
1.0
 20
0.0
 30
0.0
  9
$PUCSYDIR
 10
0.0
 20
1.0
 30
0.0
  9
$USERI1
 70
     0
  9
$USERI2
 70
     0
  9
$USERI3
 70
     0
  9
$USERI4
 70
     0
  9
$USERI5
 70
     0
  9
$USERR1
 40
0.0
  9
$USERR2
 40
0.0
  9
$USERR3
 40
0.0
  9
$USERR4
 40
0.0
  9
$USERR5
 40
0.0
  9
$WORLDVIEW
 70
     1
  9
$SHADEDGE
 70
     3
  9
$SHADEDIF
 70
    70
  9
$TILEMODE
 70
     1
  9
$MAXACTVP
 70
    64
  9
$PLIMCHECK
 70
     0
  9
$PEXTMIN
 10
1.0000000000000000E+20
 20
1.0000000000000000E+20
 30
1.0000000000000000E+20
  9
$PEXTMAX
 10
-1.0000000000000000E+20
 20
-1.0000000000000000E+20
 30
-1.0000000000000000E+20
  9
$PLIMMIN
 10
0.0
 20
0.0
  9
$PLIMMAX
 10
12.0
 20
9.0
  9
$UNITMODE
 70
     0
  9
$VISRETAIN
 70
     1
  9
$PLINEGEN
 70
     0
  9
$PSLTSCALE
 70
     1
  0
ENDSEC
  0
SECTION
  2
TABLES
  0
TABLE
  2
VPORT
 70
     1
  0
VPORT
  2
*ACTIVE
 70
     0
 10
0.0
 20
0.0
 11
1.0
 21
1.0
 12
443.5302365414960946
 22
116.1057224145463067
 13
0.0
 23
0.0
 14
1.0
 24
1.0
 15
0.0
 25
0.0
 16
0.0
 26
0.0
 36
60.4960186965801583
 17
3911.3653564453120453
 27
132.5796051025390057
 37
0.0
 40
33.2136206077105101
 41
2.5405405405405399
 42
50.0
 43
0.0
 44
0.0
 50
0.0
 51
0.0
 71
     0
 72
   100
 73
     1
 74
     1
 75
     0
 76
     0
 77
     0
 78
     0
  0
ENDTAB
  0
TABLE
  2
LTYPE
 70
     2
  0
LTYPE
  2
CONTINUOUS
 70
     0
  3
Solid line
 72
    65
 73
     0
 40
0.0
  0
LTYPE
  2
PHANTOM2
 70
     0
  3
___ _ _ ___ _ _ ___ _ _ ___ _ _
 72
    65
 73
     6
 40
1.25
 49
0.625
 49
-0.125
 49
0.125
 49
-0.125
 49
0.125
 49
-0.125
  0
ENDTAB
  0
TABLE
  2
LAYER
 70
     2
  0
LAYER
  2
0
 70
     0
 62
   255
  6
CONTINUOUS
  0
LAYER
  2
DEFPOINTS
 70
     0
 62
     7
  6
CONTINUOUS
  0
ENDTAB
  0
TABLE
  2
STYLE
 70
     1
  0
STYLE
  2
STANDARD
 70
     0
 40
0.0
 41
0.8
 50
0.0
 71
     0
 42
0.2
  3
txt
  4

  0
ENDTAB
  0
TABLE
  2
VIEW
 70
     1
  0
ENDTAB
  0
TABLE
  2
UCS
 70
     0
  0
ENDTAB
  0
TABLE
  2
APPID
 70
    11
  0
APPID
  2
ACAD
 70
     0
  0
APPID
  2
ACAD_MLEADERVER
 70
     0
  0
APPID
  2
ACAD_EXEMPT_FROM_CAD_STANDARDS
 70
     0
  0
APPID
  2
ACAD_NAV_VCDISPLAY
 70
     0
  0
APPID
  2
ACAECLAYERSTANDARD
 70
     0
  0
APPID
  2
ACCMTRANSPARENCY
 70
     0
  0
APPID
  2
ACAD_DSTYLE_DIMJAG
 70
     0
  0
APPID
  2
ACAD_DSTYLE_DIMTALN
 70
     0
  0
APPID
  2
ACDBATTR
 70
     0
  0
APPID
  2
ACADANNOTATIVE
 70
     0
  0
APPID
  2
DCO15
 70
     0
  0
ENDTAB
  0
TABLE
  2
DIMSTYLE
 70
     1
  0
DIMSTYLE
  2
STANDARD
 70
     0
  3

  4

  5

  6

  7

 40
1.0
 41
0.1875
 42
0.0625
 43
0.38
 44
0.125
 45
0.0
 46
0.0
 47
0.01
 48
0.01
140
0.15625
141
0.09
142
0.0
143
25.3999999999999986
144
1.0
145
0.0
146
1.0
147
0.09
 71
     1
 72
     0
 73
     1
 74
     1
 75
     0
 76
     0
 77
     0
 78
     4
170
     0
171
     2
172
     0
173
     0
174
     0
175
     0
176
     0
177
     0
178
     0
  0
ENDTAB
  0
ENDSEC
  0
SECTION
  2
BLOCKS
  0
BLOCK
  8
0
  2
$MODEL_SPACE
 70
     0
 10
0.0
 20
0.0
 30
0.0
  3
$MODEL_SPACE
  1

  0
ENDBLK
  5
21
  8
0
  0
BLOCK
 67
     1
  8
0
  2
$PAPER_SPACE
 70
     0
 10
0.0
 20
0.0
 30
0.0
  3
$PAPER_SPACE
  1

  0
ENDBLK
  5
1D
 67
     1
  8
0
  0
BLOCK
  8
0
  2
_FILLED
 70
     0
 10
0.0
 20
0.0
 30
0.0
  3
_FILLED
  1

  0
SOLID
  5
20CEF
  8
0
  6
BYBLOCK
 62
     0
 10
0.0
 20
0.0
 30
0.0
 11
-1.0
 21
0.1666666667
 31
0.0
 12
-1.0
 22
-0.1666666667
 32
0.0
 13
-1.0
 23
-0.1666666667
 33
0.0
  0
ENDBLK
  5
20CF0
  8
0
  6
BYBLOCK
 62
     0
  0
ENDSEC
  0
SECTION
  2
ENTITIES
  0
ATTDEF
  5
20106
  8
DEFPOINTS
 10
4354.9764595632195778
 20
256.4192902207254861
 30
0.0
 40
0.001
  1
K-18744T
  3

  2
MODELNUMBER
 70
     0
1001
ACDBATTR
1070
     0
1070
     1
  0
ATTDEF
  5
20107
  8
DEFPOINTS
 10
4354.9763337535632672
 20
256.4176233803462992
 30
0.0
 40
0.001
  1
ACRYLIC
  3

  2
TRADENAME
 70
     0
1001
ACDBATTR
1070
     0
1070
     1
  0
ATTDEF
  5
20108
  8
DEFPOINTS
 10
4354.9764595632195778
 20
256.4159568873922126
 30
0.0
 40
0.001
  1
BATH
  3

  2
PRODUCT
 70
     0
1001
ACDBATTR
1070
     0
1070
     1
  0
LINE
  5
20D14
  8
0
 10
4332.7171871321097569
 20
242.5582278501995859
 30
0.0
 11
4329.9058064691107575
 21
256.4204237549997174
 31
0.0
  0
LINE
  5
20D15
  8
0
 10
4337.1023784669096131
 20
240.0031009359981908
 30
0.0
 11
4337.1023784669096131
 21
239.1369591880996097
 31
0.0
  0
LINE
  5
20D16
  8
0
 10
4339.4645831913103393
 20
240.0031009652454941
 30
0.0
 11
4339.4645831913103393
 21
239.1369591880996097
 31
0.0
  0
LINE
  5
20D17
  8
0
 10
4345.4488351598101872
 20
240.0031010393387874
 30
0.0
 11
4345.4488351598101872
 21
239.1369591880996097
 31
0.0
  0
LINE
  5
20D18
  8
0
 10
4337.1023784669096131
 20
239.1369591880996097
 30
0.0
 11
4339.4645831913103393
 21
239.1369591880996097
 31
0.0
  0
LINE
  5
20D19
  8
0
 10
4345.4488351598101872
 20
239.1369591880996097
 30
0.0
 11
4347.8110398842109134
 21
239.1369591880996097
 31
0.0
  0
LINE
  5
20D1A
  8
0
 10
4362.1417485457113798
 20
239.1369591880996097
 30
0.0
 11
4364.5039532701102871
 21
239.1369591880996097
 31
0.0
  0
LINE
  5
20D1B
  8
0
 10
4364.818913900010557
 20
239.1369591880996097
 30
0.0
 11
4367.1811186244112832
 21
239.1369591880996097
 31
0.0
  0
LINE
  5
20D1C
  8
0
 10
4347.8110398842109134
 20
240.0031010685860906
 30
0.0
 11
4347.8110398842109134
 21
239.1369591880996097
 31
0.0
  0
LINE
  5
20D1D
  8
0
 10
4353.793066675110822
 20
239.840511471999605
 30
0.0
 11
4356.1597217548096523
 21
239.840511471999605
 31
0.0
  0
LINE
  5
20D1E
  8
0
 10
4335.8425359472103082
 20
240.0031009203995893
 30
0.0
 11
4369.812923499610406
 21
240.0031013409995921
 31
0.0
  0
LINE
  5
20D1F
  8
0
 10
4353.5703558779096056
 20
239.9327613046995964
 30
0.0
 11
4353.5461411785108794
 21
239.956976003999614
 31
0.0
  0
LINE
  5
20D20
  8
0
 10
4362.1417485457113798
 20
240.0031012460200088
 30
0.0
 11
4362.1417485457113798
 21
239.1369591880996097
 31
0.0
  0
LINE
  5
20D21
  8
0
 10
4356.3824325520108687
 20
239.9327613046995964
 30
0.0
 11
4356.4066472514095949
 21
239.956976003999614
 31
0.0
  0
LINE
  5
20D22
  8
0
 10
4364.5039532701102871
 20
240.0031012752673121
 30
0.0
 11
4364.5039532701102871
 21
239.1369591880996097
 31
0.0
  0
LINE
  5
20D23
  8
0
 10
4364.818913900010557
 20
240.0031012791669127
 30
0.0
 11
4364.818913900010557
 21
239.1369591880996097
 31
0.0
  0
LINE
  5
20D24
  8
0
 10
4326.2362367346113388
 20
256.4204237549997174
 30
0.0
 11
4383.7165516953109545
 21
256.4204237549997174
 31
0.0
  0
LINE
  5
20D25
  8
0
 10
4367.1811186244112832
 20
240.0031013084143012
 30
0.0
 11
4367.1811186244112832
 21
239.1369591880996097
 31
0.0
  0
LINE
  5
20D26
  8
0
 10
4383.4015910653097308
 20
258.2314473770995846
 30
0.0
 11
4326.5511973646107435
 21
258.2314473770995846
 31
0.0
  0
LINE
  5
20D27
  8
0
 10
4372.8984950659096285
 20
242.5266830732996084
 30
0.0
 11
4375.7162732994111138
 21
256.4204237549997174
 31
0.0
  0
ARC
  5
20D28
  8
0
 10
4335.8425359472103082
 20
243.1920772982996937
 30
0.0
 40
3.188976378
 50
191.4646124612042115
 51
270.0
  0
ARC
  5
20D29
  8
0
 10
4383.399860445707418
 20
257.9117578001041124
 30
0.0
 40
0.3196942612618814
 50
7.8593976758307367
 51
89.6898358978495338
  0
ARC
  5
20D2A
  8
0
 10
4326.5511973646107435
 20
257.916486747199599
 30
0.0
 40
0.3149606299
 50
90.0
 51
180.0
  0
ARC
  5
20D2B
  8
0
 10
4356.1597217548096523
 20
240.1554721018995906
 30
0.0
 40
0.3149606299
 50
270.0
 51
315.0000000000046043
  0
ARC
  5
20D2C
  8
0
 10
4353.793066675110822
 20
240.1554721018995906
 30
0.0
 40
0.3149606299
 50
224.9999999999953957
 51
270.0
  0
ARC
  5
20D2D
  8
0
 10
4356.5224361102564217
 20
239.8398427896613043
 30
0.0
 40
0.1647035207648934
 50
97.5955345762832565
 51
134.669309827044998
  0
ARC
  5
20D2E
  8
0
 10
4353.423902041200563
 20
239.8318248929024037
 30
0.0
 40
0.1749434403418945
 50
45.6743843152253604
 51
78.2478489932141201
  0
ARC
  5
20D2F
  8
0
 10
4369.8117557912773918
 20
243.1526769109447912
 30
0.0
 40
3.149575786409692
 50
270.021242467332911
 51
348.535837551273687
  0
LINE
  5
20D30
  8
0
 10
4383.7165516953109545
 20
256.4204237549997174
 30
0.0
 11
4383.7165516953109545
 21
257.9554736222791007
 31
0.0
  0
LINE
  5
20D31
  8
0
 10
4326.2362367347095642
 20
256.4204237549997174
 30
0.0
 11
4326.2362367347095642
 21
257.916486747199599
 31
0.0
  0
ENDSEC
  0
EOF
