  0
SECTION
  2
HEADER
  9
$ACADVER
  1
AC1009
  9
$INSBASE
 10
-63.4239373098593688
 20
-55.6792991752710975
 30
0.0
  9
$EXTMIN
 10
-72.5971958430158395
 20
-76.3572922432078656
 30
-0.0015258207003583
  9
$EXTMAX
 10
-55.6396279033107533
 20
-55.6716955067880903
 30
0.0000000349246037
  9
$LIMMIN
 10
0.0
 20
0.0
  9
$LIMMAX
 10
11.6929133858000007
 20
8.2677165353999982
  9
$ORTHOMODE
 70
     0
  9
$REGENMODE
 70
     1
  9
$FILLMODE
 70
     1
  9
$QTEXTMODE
 70
     0
  9
$MIRRTEXT
 70
     0
  9
$DRAGMODE
 70
     2
  9
$LTSCALE
 40
0.6431102362
  9
$OSMODE
 70
  2023
  9
$ATTMODE
 70
     1
  9
$TEXTSIZE
 40
0.2
  9
$TRACEWID
 40
0.05
  9
$TEXTSTYLE
  7
STANDARD
  9
$CLAYER
  8
0
  9
$CELTYPE
  6
BYLAYER
  9
$CECOLOR
 62
   256
  9
$DIMSCALE
 40
1.0
  9
$DIMASZ
 40
0.1875
  9
$DIMEXO
 40
0.0625
  9
$DIMDLI
 40
0.4443307087
  9
$DIMRND
 40
0.0
  9
$DIMDLE
 40
0.0
  9
$DIMEXE
 40
0.125
  9
$DIMTP
 40
0.01
  9
$DIMTM
 40
0.01
  9
$DIMTXT
 40
1.0
  9
$DIMCEN
 40
0.1052362205
  9
$DIMTSZ
 40
0.0
  9
$DIMTOL
 70
     1
  9
$DIMLIM
 70
     0
  9
$DIMTIH
 70
     1
  9
$DIMTOH
 70
     1
  9
$DIMSE1
 70
     0
  9
$DIMSE2
 70
     0
  9
$DIMTAD
 70
     0
  9
$DIMZIN
 70
     0
  9
$DIMBLK
  1

  9
$DIMASO
 70
     1
  9
$DIMSHO
 70
     1
  9
$DIMPOST
  1
\X
  9
$DIMAPOST
  1

  9
$DIMALT
 70
     1
  9
$DIMALTD
 70
     2
  9
$DIMALTF
 40
25.3999999999999986
  9
$DIMLFAC
 40
1.0
  9
$DIMTOFL
 70
     0
  9
$DIMTVP
 40
0.0
  9
$DIMTIX
 70
     0
  9
$DIMSOXD
 70
     0
  9
$DIMSAH
 70
     0
  9
$DIMBLK1
  1

  9
$DIMBLK2
  1

  9
$DIMSTYLE
  2
STANDARD
  9
$DIMCLRD
 70
     0
  9
$DIMCLRE
 70
     0
  9
$DIMCLRT
 70
     0
  9
$DIMTFAC
 40
1.0
  9
$DIMGAP
 40
0.09
  9
$LUNITS
 70
     2
  9
$LUPREC
 70
     4
  9
$SKETCHINC
 40
0.1
  9
$FILLETRAD
 40
0.0
  9
$AUNITS
 70
     0
  9
$AUPREC
 70
     0
  9
$MENU
  1
.
  9
$ELEVATION
 40
0.0
  9
$PELEVATION
 40
0.0
  9
$THICKNESS
 40
0.0
  9
$LIMCHECK
 70
     0
  9
$BLIPMODE
 70
     0
  9
$CHAMFERA
 40
0.0
  9
$CHAMFERB
 40
0.0
  9
$SKPOLY
 70
     0
  9
$TDCREATE
 40
2458172.4620254631154239
  9
$TDUPDATE
 40
2459112.4116203710436821
  9
$TDINDWG
 40
0.1645892708
  9
$TDUSRTIMER
 40
0.1645892708
  9
$USRTIMER
 70
     1
  9
$ANGBASE
 50
0.0
  9
$ANGDIR
 70
     0
  9
$PDMODE
 70
     0
  9
$PDSIZE
 40
0.3125
  9
$PLINEWID
 40
0.0
  9
$COORDS
 70
     1
  9
$SPLFRAME
 70
     0
  9
$SPLINETYPE
 70
     6
  9
$SPLINESEGS
 70
     8
  9
$ATTDIA
 70
     1
  9
$ATTREQ
 70
     1
  9
$HANDLING
 70
     1
  9
$HANDSEED
  5
B19B
  9
$SURFTAB1
 70
     6
  9
$SURFTAB2
 70
     6
  9
$SURFTYPE
 70
     6
  9
$SURFU
 70
     6
  9
$SURFV
 70
     6
  9
$UCSNAME
  2

  9
$UCSORG
 10
0.0
 20
0.0
 30
0.0
  9
$UCSXDIR
 10
1.0
 20
0.0
 30
0.0
  9
$UCSYDIR
 10
0.0
 20
1.0
 30
0.0
  9
$PUCSNAME
  2

  9
$PUCSORG
 10
0.0
 20
0.0
 30
0.0
  9
$PUCSXDIR
 10
1.0
 20
0.0
 30
0.0
  9
$PUCSYDIR
 10
0.0
 20
1.0
 30
0.0
  9
$USERI1
 70
     0
  9
$USERI2
 70
     0
  9
$USERI3
 70
     0
  9
$USERI4
 70
     0
  9
$USERI5
 70
     0
  9
$USERR1
 40
0.0
  9
$USERR2
 40
0.0
  9
$USERR3
 40
0.0
  9
$USERR4
 40
0.0
  9
$USERR5
 40
0.0
  9
$WORLDVIEW
 70
     1
  9
$SHADEDGE
 70
     3
  9
$SHADEDIF
 70
    70
  9
$TILEMODE
 70
     1
  9
$MAXACTVP
 70
    64
  9
$PLIMCHECK
 70
     0
  9
$PEXTMIN
 10
1.0000000000000000E+20
 20
1.0000000000000000E+20
 30
1.0000000000000000E+20
  9
$PEXTMAX
 10
-1.0000000000000000E+20
 20
-1.0000000000000000E+20
 30
-1.0000000000000000E+20
  9
$PLIMMIN
 10
0.0
 20
0.0
  9
$PLIMMAX
 10
12.0
 20
9.0
  9
$UNITMODE
 70
     0
  9
$VISRETAIN
 70
     1
  9
$PLINEGEN
 70
     0
  9
$PSLTSCALE
 70
     1
  0
ENDSEC
  0
SECTION
  2
TABLES
  0
TABLE
  2
VPORT
 70
     1
  0
VPORT
  2
*ACTIVE
 70
     0
 10
0.0
 20
0.0
 11
1.0
 21
1.0
 12
-188.7295704732358956
 22
-71.3267680453758004
 13
0.0
 23
0.0
 14
1.0
 24
1.0
 15
0.0
 25
0.0
 16
0.0
 26
0.0
 36
30.6214257250603907
 17
124.6111586000725993
 27
5.3122741703778242
 37
0.0
 40
20.8577376246562594
 41
2.6486111111111108
 42
50.0
 43
0.0
 44
0.0
 50
0.0
 51
0.0
 71
     0
 72
   100
 73
     1
 74
     1
 75
     0
 76
     0
 77
     0
 78
     0
  0
ENDTAB
  0
TABLE
  2
LTYPE
 70
     2
  0
LTYPE
  2
CONTINUOUS
 70
     0
  3
Solid line
 72
    65
 73
     0
 40
0.0
  0
LTYPE
  2
PHANTOM2
 70
     0
  3
___ _ _ ___ _ _ ___ _ _ ___ _ _
 72
    65
 73
     6
 40
1.25
 49
0.625
 49
-0.125
 49
0.125
 49
-0.125
 49
0.125
 49
-0.125
  0
ENDTAB
  0
TABLE
  2
LAYER
 70
     2
  0
LAYER
  2
0
 70
     0
 62
   255
  6
CONTINUOUS
  0
LAYER
  2
DEFPOINTS
 70
     0
 62
     7
  6
CONTINUOUS
  0
ENDTAB
  0
TABLE
  2
STYLE
 70
     1
  0
STYLE
  2
STANDARD
 70
     0
 40
0.0
 41
0.8
 50
0.0
 71
     0
 42
0.2
  3
txt
  4

  0
ENDTAB
  0
TABLE
  2
VIEW
 70
     0
  0
ENDTAB
  0
TABLE
  2
UCS
 70
     0
  0
ENDTAB
  0
TABLE
  2
APPID
 70
     9
  0
APPID
  2
ACAD
 70
     0
  0
APPID
  2
ACAD_MLEADERVER
 70
     0
  0
APPID
  2
ACAD_EXEMPT_FROM_CAD_STANDARDS
 70
     0
  0
APPID
  2
ACAD_DSTYLE_DIMJAG
 70
     0
  0
APPID
  2
ACAD_DSTYLE_DIMTALN
 70
     0
  0
APPID
  2
ACAD_NAV_VCDISPLAY
 70
     0
  0
APPID
  2
ACAECLAYERSTANDARD
 70
     0
  0
APPID
  2
ACCMTRANSPARENCY
 70
     0
  0
APPID
  2
ACDBATTR
 70
     0
  0
ENDTAB
  0
TABLE
  2
DIMSTYLE
 70
     1
  0
DIMSTYLE
  2
STANDARD
 70
     0
  3

  4

  5

  6

  7

 40
1.0
 41
0.1875
 42
0.0625
 43
0.38
 44
0.125
 45
0.0
 46
0.0
 47
0.01
 48
0.01
140
0.15625
141
0.09
142
0.0
143
25.3999999999999986
144
1.0
145
0.0
146
1.0
147
0.09
 71
     1
 72
     0
 73
     1
 74
     1
 75
     0
 76
     0
 77
     0
 78
     4
170
     0
171
     2
172
     0
173
     0
174
     0
175
     0
176
     0
177
     0
178
     0
  0
ENDTAB
  0
ENDSEC
  0
SECTION
  2
BLOCKS
  0
BLOCK
  8
0
  2
$MODEL_SPACE
 70
     0
 10
0.0
 20
0.0
 30
0.0
  3
$MODEL_SPACE
  1

  0
ENDBLK
  5
21
  8
0
  0
BLOCK
 67
     1
  8
0
  2
$PAPER_SPACE
 70
     0
 10
0.0
 20
0.0
 30
0.0
  3
$PAPER_SPACE
  1

  0
ENDBLK
  5
1D
 67
     1
  8
0
  0
BLOCK
  8
0
  2
_FILLED
 70
     0
 10
0.0
 20
0.0
 30
0.0
  3
_FILLED
  1

  0
SOLID
  5
9844
  8
0
  6
BYBLOCK
 62
     0
 10
0.0
 20
0.0
 30
0.0
 11
-1.0
 21
0.1666666667
 31
0.0
 12
-1.0
 22
-0.1666666667
 32
0.0
 13
-1.0
 23
-0.1666666667
 33
0.0
  0
ENDBLK
  5
9845
  8
0
  6
BYBLOCK
 62
     0
  0
ENDSEC
  0
SECTION
  2
ENTITIES
  0
ATTDEF
  5
A8E4
  8
DEFPOINTS
 10
-63.4234444009699132
 20
-55.6751371133432826
 30
0.0
 40
0.001
  1
K-18751T
  3

  2
MODELNUMBER
 70
     0
1001
ACDBATTR
1070
     0
1070
     1
  0
ATTDEF
  5
A8E5
  8
DEFPOINTS
 10
-63.4234444009699132
 20
-55.6768037800099478
 30
0.0
 40
0.001
  1
C3-050
  3

  2
TRADENAME
 70
     0
1001
ACDBATTR
1070
     0
1070
     1
  0
ATTDEF
  5
A8E6
  8
DEFPOINTS
 10
-63.4234444009699132
 20
-55.67847044667662
 30
0.0
 40
0.001
  1
TOILET SEAT
  3

  2
PRODUCT
 70
     0
1001
ACDBATTR
1070
     0
1070
     1
  0
ARC
  5
AEAA
  8
0
 10
-63.5073419561059822
 20
-77.3673908272228346
 30
0.0
 40
21.6882507520829613
 50
89.7800992124210069
 51
95.6294523772569676
  0
ARC
  5
AEAB
  8
0
 10
-64.6677425422856658
 20
-65.5950532710850638
 30
0.0
 40
9.8588610359547335
 50
95.6294359180844538
 51
105.3741521796969067
  0
ARC
  5
AEAC
  8
0
 10
-65.7842462568653588
 20
-61.5344579046750511
 30
0.0
 40
5.6475648846040789
 50
105.3741521796969067
 51
117.1055647404876936
  0
ARC
  5
AEAD
  8
0
 10
-64.4133621909682859
 20
-61.5412650254551608
 30
0.0
 40
6.7403709815454196
 50
156.2809572979261077
 51
169.3338326894536863
  0
ARC
  5
AEAE
  8
0
 10
-42.8963884329470417
 20
-63.4180445947976708
 30
0.0
 40
28.3137938987250806
 50
173.6647053073727136
 51
178.9554152700114003
  0
ARC
  5
AEAF
  8
0
 10
-44.349952316401307
 20
-62.9235708981213122
 30
0.0
 40
26.855533364521829
 50
179.9537055342433121
 51
186.1171805489526037
  0
ARC
  5
AEB0
  8
0
 10
-50.2614517653070365
 20
-63.4022787510466586
 30
0.0
 40
20.9272479561285785
 50
186.5387057574839105
 51
192.9446579102385044
  0
ARC
  5
AEB1
  8
0
 10
-52.3508301713270825
 20
-64.0063931544072915
 30
0.0
 40
18.7560281082864293
 50
192.5758785444128875
 51
207.1580936707129865
  0
ARC
  5
AEB2
  8
0
 10
-59.2663986794772484
 20
-67.0675545141656357
 30
0.0
 40
11.2139988026261292
 50
209.3705792728916038
 51
218.9538175914373994
  0
ARC
  5
AEB3
  8
0
 10
-62.8129134502247979
 20
-69.9347354825035552
 30
0.0
 40
6.653462241613842
 50
218.9538175914373994
 51
233.768503513153604
  0
ARC
  5
AEB4
  8
0
 10
-63.5531830976732834
 20
-70.9450199338229339
 30
0.0
 40
5.4009951468320327
 50
233.7685035131528934
 51
251.8214986707735079
  0
ARC
  5
AEB5
  8
0
 10
-63.5758889179902908
 20
-71.014167512791559
 30
0.0
 40
5.3282150537193571
 50
251.8214986707735079
 51
263.1922040711402246
  0
ARC
  5
AEB6
  8
0
 10
-63.304589864598519
 20
-68.7416153622088331
 30
0.0
 40
7.616903860326631
 50
263.1922040711398267
 51
267.1474860641520195
  0
ARC
  5
AEB7
  8
0
 10
-63.4571862603444004
 20
-71.8045682529190827
 30
0.0
 40
4.5501521472012509
 50
267.1472199870054283
 51
270.4165923836532102
  0
ARC
  5
AEB8
  8
0
 10
-65.915529310573163
 20
-61.1232867986532398
 30
0.0
 40
5.1997240349503997
 50
131.7659324845214996
 51
140.6708296145721135
  0
ARC
  5
AEB9
  8
0
 10
-64.6793715408172858
 20
-62.5075095596336823
 30
0.0
 40
7.0555685014249336
 50
125.8047081059887944
 51
131.7659324845214996
  0
ARC
  5
AEBA
  8
0
 10
-66.6229148655102819
 20
-59.8131869608015592
 30
0.0
 40
3.7334103291615812
 50
117.6842797723631975
 51
125.8047081059887944
  0
ARC
  5
AEBB
  8
0
 10
-63.3870991854514827
 20
-82.7710308890707438
 30
0.0
 40
26.5010661343591316
 50
90.0798238822486184
 51
92.9463298719612965
  0
ARC
  5
AEBC
  8
0
 10
-63.8626087530981366
 20
-73.5321901820510107
 30
0.0
 40
17.2499966308580106
 50
92.9463298719612965
 51
97.447316739867631
  0
ARC
  5
AEBD
  8
0
 10
-65.0782129805063221
 20
-64.2326914166630871
 30
0.0
 40
7.8713842108278467
 50
97.447316739867631
 51
107.2352667787608027
  0
ARC
  5
AEBE
  8
0
 10
-65.5801699334220416
 20
-62.614656814523812
 30
0.0
 40
6.1772777335660249
 50
107.2352667787608027
 51
113.9843275674454048
  0
LINE
  5
AEBF
  8
0
 10
-68.2293944756722226
 20
-56.4708245885275488
 30
0.0
 11
-68.2193700095593698
 21
-57.0342849681896098
 31
0.0
  0
LINE
  5
AEC0
  8
0
 10
-68.2193700095593698
 20
-57.0342849681896098
 30
0.0
 11
-68.2251295271593534
 21
-59.8502898470896127
 31
0.0
  0
ARC
  5
AEC1
  8
0
 10
-67.1254561839950554
 20
-58.8030619653337681
 30
0.0
 40
2.5803121775481079
 50
115.330006992546501
 51
120.2092062939636037
  0
ARC
  5
AEC2
  8
0
 10
-65.6282053520816646
 20
-61.6128661742985813
 30
0.0
 40
5.7631295658821919
 50
119.0174723541552027
 51
126.0102830016685971
  0
ARC
  5
AEC3
  8
0
 10
-67.2873990372423236
 20
-59.4371722968246203
 30
0.0
 40
3.02835036669275
 50
124.8185490618602955
 51
128.142635769874488
  0
ARC
  5
AEC4
  8
0
 10
-65.4287097372102124
 20
-62.1744506857630981
 30
0.0
 40
6.3480270003577743
 50
117.5860211059239049
 51
120.0883770409224951
  0
ARC
  5
AEC5
  8
0
 10
-67.1665752822336941
 20
-58.8482442014369411
 30
0.0
 40
2.5951845804108249
 50
116.6059752092740069
 51
117.5860211059239049
  0
ARC
  5
AEC6
  8
0
 10
-68.3188870029719766
 20
-56.5477301360323565
 30
0.0
 40
0.0222121229455118
 50
96.045344533670459
 51
116.6059752092744048
  0
ARC
  5
AEC7
  8
0
 10
-68.3054603616896117
 20
-56.6745108380281621
 30
0.0
 40
0.1497018130960313
 50
92.7973426402835457
 51
96.045344533670459
  0
ARC
  5
AEC8
  8
0
 10
-68.3110311179358263
 20
-56.5445988584787003
 30
0.0
 40
0.0196880645234917
 50
0.0083169686639373
 51
95.0563253869409408
  0
LINE
  5
AEC9
  8
0
 10
-68.2913430536197694
 20
-56.5445960005890527
 30
0.0
 11
-68.2911247916593709
 21
-59.7713877696896176
 31
0.0
  0
ARC
  5
AECA
  8
0
 10
-68.3106243642622246
 20
-57.0914665761961615
 30
0.0
 40
0.0194122898862592
 50
5.644307486130077
 51
118.4512802407794965
  0
ARC
  5
AECB
  8
0
 10
-65.982978731896381
 20
-61.3871632502144493
 30
0.0
 40
4.9052023084036023
 50
118.4512802407794965
 51
135.2313251978092978
  0
ARC
  5
AECC
  8
0
 10
-66.3569016455685983
 20
-61.0340281385793233
 30
0.0
 40
4.3910576373008743
 50
135.0666108306596982
 51
157.0924083944044867
  0
ARC
  5
AECD
  8
0
 10
-64.3654633616371683
 20
-61.6551856715547473
 30
0.0
 40
6.4704068122525582
 50
158.8901915779698868
 51
177.1591357408213128
  0
ARC
  5
AECE
  8
0
 10
-39.1204496764262615
 20
-63.0287463882682175
 30
0.0
 40
31.7527013575146384
 50
176.9413824487963041
 51
180.6272365709552901
  0
ARC
  5
AECF
  8
0
 10
-45.6375201238386197
 20
-63.1574464105223896
 30
0.0
 40
25.2346776947757583
 50
180.4970242561718123
 51
185.9456375568211968
  0
ARC
  5
AED0
  8
0
 10
-50.9482356700660617
 20
-63.5896180991760076
 30
0.0
 40
19.9081273074001217
 50
186.291756532414496
 51
192.2281465947289973
  0
ARC
  5
AED1
  8
0
 10
-52.8723369247910711
 20
-64.0762978607171618
 30
0.0
 40
17.9247283403479898
 50
192.0104545238056062
 51
207.2010965117048045
  0
ARC
  5
AED2
  8
0
 10
-61.4077852136953979
 20
-68.3025387813218003
 30
0.0
 40
8.4025716743146415
 50
208.1750788296789096
 51
229.9875483748467104
  0
ARC
  5
AED3
  8
0
 10
-63.542045499455412
 20
-70.6668906658199489
 30
0.0
 40
5.2207271295347057
 50
231.2439242018199934
 51
249.8087472805706
  0
ARC
  5
AED4
  8
0
 10
-63.5568139924793414
 20
-70.6333430327739507
 30
0.0
 40
5.2471773704259421
 50
250.0865370960497955
 51
262.1520356277554811
  0
ARC
  5
AED5
  8
0
 10
-63.4202853824405395
 20
-69.7835286388234834
 30
0.0
 40
6.1077048052878693
 50
261.9718091429172091
 51
269.9649653506928075
  0
ARC
  5
AED6
  8
0
 10
-70.4240959536562059
 20
-58.7924125592064684
 30
0.0
 40
0.4133042505057527
 50
78.0972772752844548
 51
206.2575722194864909
  0
LINE
  5
AED7
  8
0
 10
-70.7749048750136183
 20
-58.9793967955946314
 30
0.0
 11
-72.2334145545655701
 21
-58.6755108836401575
 31
0.0
  0
ARC
  5
AED8
  8
0
 10
-72.2378709040324338
 20
-58.6968992684819995
 30
0.0
 40
0.0218477014057261
 50
78.2305917958487242
 51
102.6808037291677067
  0
ARC
  5
AED9
  8
0
 10
-71.5890722362682652
 20
-59.0398097435017633
 30
0.0
 40
0.7482285937709136
 50
150.8706168425196097
 51
183.2436871596962078
  0
ARC
  5
AEDA
  8
0
 10
-72.3143382575302525
 20
-59.0798618502205031
 30
0.0
 40
0.0218834406602306
 50
185.9929134686389887
 51
239.4107658939510088
  0
LINE
  5
AEDB
  8
0
 10
-72.3254742956593759
 20
-59.0986999400896096
 30
0.0
 11
-71.0371253298593643
 21
-59.3670759147896092
 31
0.0
  0
ARC
  5
AEDC
  8
0
 10
-70.3846210602076354
 20
-61.2351685793776923
 30
0.0
 40
1.9787703316457641
 50
101.1727197257244057
 51
109.2537479882945064
  0
ARC
  5
AEDD
  8
0
 10
-70.4132491254407569
 20
-61.1532076158243072
 30
0.0
 40
1.891953480369132
 50
109.2537479882945064
 51
169.6255843594728105
  0
ARC
  5
AEDE
  8
0
 10
-43.1422675410498826
 20
-65.1446610544500686
 30
0.0
 40
29.4523566989905703
 50
171.5416567589039119
 51
179.9899588878421923
  0
ARC
  5
AEDF
  8
0
 10
-72.0195282721084311
 20
-65.1204285058522032
 30
0.0
 40
0.575411640062102
 50
181.899315928584798
 51
232.6093268523698896
  0
ARC
  5
AEE0
  8
0
 10
-72.0196137026762386
 20
-65.0715861612829514
 30
0.0
 40
0.614884680431884
 50
235.3804292366961874
 51
267.5044419745188975
  0
ARC
  5
AEE1
  8
0
 10
-70.9414220258721855
 20
-57.2674897902684279
 30
0.0
 40
8.4906048458109851
 50
262.5223336753987837
 51
269.2297560862033947
  0
ARC
  5
AEE2
  8
0
 10
-68.6696193989186554
 20
-61.470043912956811
 30
0.0
 40
2.6437744630633802
 50
153.5802919354161133
 51
170.8805636296619923
  0
ARC
  5
AEE3
  8
0
 10
-52.763594058492437
 20
-64.0233109050168139
 30
0.0
 40
18.7534241942966595
 50
170.8805636296619923
 51
175.3547601634178079
  0
ARC
  5
AEE4
  8
0
 10
-35.711863740457602
 20
-65.408812347737026
 30
0.0
 40
35.8613498747164883
 50
175.3547601634178079
 51
178.165926310528306
  0
ARC
  5
AEE5
  8
0
 10
-25.8535515804808504
 20
-65.7244909080783088
 30
0.0
 40
45.7247150001188913
 50
178.165926310528306
 51
179.5611500975811907
  0
ARC
  5
AEE6
  8
0
 10
-70.9250343620767865
 20
-65.3792647361861441
 30
0.0
 40
0.6519101035800263
 50
179.5611500975807928
 51
199.5227638665699033
  0
ARC
  5
AEE7
  8
0
 10
-71.3639931481789205
 20
-65.5349044926023936
 30
0.0
 40
0.1861756839012049
 50
199.5227638665695054
 51
251.1928349690238917
  0
ARC
  5
AEE8
  8
0
 10
-71.3820885691013416
 20
-65.5880376613935994
 30
0.0
 40
0.1300456751344667
 50
251.1928349690238917
 51
268.1661487862807007
  0
LINE
  5
AEE9
  8
0
 10
-71.3862501967954586
 20
-65.7180167307706142
 30
0.0
 11
-71.0592269733152051
 21
-65.7225563561903385
 31
0.0
  0
ARC
  5
AEEA
  8
0
 10
-71.9682694626657877
 20
-60.7180753248859304
 30
0.0
 40
0.1159679209639922
 50
132.1403189013092003
 51
155.1794989919133059
  0
ARC
  5
AEEB
  8
0
 10
-72.000862858871443
 20
-60.6820544874071572
 30
0.0
 40
0.0673898373367886
 50
102.8671091230011001
 51
132.1403189013092003
  0
ARC
  5
AEEC
  8
0
 10
-72.0040917764671917
 20
-60.6679190093729304
 30
0.0
 40
0.0528902632707592
 50
74.2683888192635351
 51
102.8671091230019954
  0
ARC
  5
AEED
  8
0
 10
-72.0067567921731353
 20
-60.677380064167437
 30
0.0
 40
0.062719498568466
 50
37.8795331112019227
 51
74.2683888192634214
  0
LINE
  5
AEEE
  8
0
 10
-71.9572520745593636
 20
-60.6388700857896126
 30
0.0
 11
-71.4767578154068417
 21
-61.2120306586592022
 31
0.0
  0
ARC
  5
AEEF
  8
0
 10
-71.6981483088204214
 20
-61.3978831674864409
 30
0.0
 40
0.2890586542750185
 50
352.2064143960985803
 51
40.0127284910512984
  0
ARC
  5
AEF0
  8
0
 10
-50.5353566082226919
 20
-64.294411386248683
 30
0.0
 40
21.0710356405771115
 50
172.2064143960986087
 51
176.8311164192865874
  0
ARC
  5
AEF1
  8
0
 10
-31.8909207078022412
 20
-65.5825956977397055
 30
0.0
 40
39.7589941879521618
 50
176.4628264639050883
 51
179.5145221460574021
  0
ARC
  5
AEF2
  8
0
 10
-71.8352401750018856
 20
-65.2429313199527741
 30
0.0
 40
0.1867732525015752
 50
345.3098730776354159
 51
359.1462321906753914
  0
ARC
  5
AEF3
  8
0
 10
-71.7205477750464411
 20
-65.261835600867002
 30
0.0
 40
0.0718521193318736
 50
311.4564918367519795
 51
336.6661338342731824
  0
ARC
  5
AEF4
  8
0
 10
-71.7283045036901683
 20
-65.2511010040069408
 30
0.0
 40
0.0850424447423676
 50
262.1792712622983004
 51
310.5849834677277954
  0
ARC
  5
AEF5
  8
0
 10
1483.4815711807120806
 20
11153.891208480899877
 30
0.0
 40
11326.506892102490383
 50
262.1044237513489179
 51
262.1078910459222016
  0
ARC
  5
AEF6
  8
0
 10
-72.3918614128674847
 20
-65.1415427962024438
 30
0.0
 40
0.1032533656404076
 50
191.9822532076277923
 51
254.869100141930403
  0
ARC
  5
AEF7
  8
0
 10
-31.8420644448434587
 20
-65.5608384411512901
 30
0.0
 40
40.6527475712529025
 50
176.5264876616082859
 51
179.4392500704911981
  0
ARC
  5
AEF8
  8
0
 10
-51.0606578407600509
 20
-64.2924040455600334
 30
0.0
 40
21.3928513825971791
 50
171.9065536699662005
 51
176.7988828624561108
  0
ARC
  5
AEF9
  8
0
 10
-68.846320996357889
 20
-61.86479041370103
 30
0.0
 40
3.4440275254218742
 50
162.7875622987351107
 51
170.2331441132583052
  0
ARC
  5
AEFA
  8
0
 10
-68.8991717338334126
 20
-61.8956928553472423
 30
0.0
 40
3.4029878982362418
 50
158.877739311600692
 51
162.0272224981316072
  0
LINE
  5
AEFB
  8
0
 10
-70.714030034776826
 20
-59.1466490456252885
 30
0.0
 11
-70.7939189625232075
 21
-58.9271560217636576
 31
0.0
  0
ARC
  5
AEFC
  8
0
 10
-70.4239613523699717
 20
-58.7925022372330375
 30
0.0
 40
0.393700742949152
 50
79.1534747849191547
 51
200.0000309741955959
  0
LINE
  5
AEFD
  8
0
 10
-70.5070954784768986
 20
-58.6796673655145113
 30
0.0
 11
-70.5886909083835548
 21
-58.4550220455352516
 31
0.0
  0
ARC
  5
AEFE
  8
0
 10
-70.5700975992620414
 20
-58.4482686039265005
 30
0.0
 40
0.0197818127999292
 50
117.1737199549346968
 51
199.9619791116309102
  0
ARC
  5
AEFF
  8
0
 10
-70.5280191005620338
 20
-58.45183715254052
 30
0.0
 40
0.0375109359414208
 50
20.0021814995798088
 51
105.376225204693398
  0
LINE
  5
AF00
  8
0
 10
-70.4927708393593662
 20
-58.4390063147896228
 30
0.0
 11
-70.4467656022920607
 21
-58.5699967860043671
 31
0.0
  0
ARC
  5
AF01
  8
0
 10
-70.5907085199108337
 20
-58.5007731358261509
 30
0.0
 40
0.0177834237850444
 50
292.1618420364152939
 51
10.0066172919138108
  0
LINE
  5
AF02
  8
0
 10
-70.5840001840593629
 20
-58.5172427560896224
 30
0.0
 11
-70.7542225969349516
 21
-58.5791986465105126
 31
0.0
  0
ARC
  5
AF03
  8
0
 10
-70.7142602820491959
 20
-58.603584256181712
 30
0.0
 40
0.0468150037086429
 50
148.6078189043192879
 51
184.4117062394238076
  0
LINE
  5
AF04
  8
0
 10
-70.7609365755593558
 20
-58.6071853943896173
 30
0.0
 11
-70.7594453838567716
 21
-58.6283281738163993
 31
0.0
  0
ARC
  5
AF05
  8
0
 10
-70.4239378250319135
 20
-58.7924997205559592
 30
0.0
 40
0.3735205734460765
 50
153.9264360266105029
 51
197.0037505626191887
  0
ARC
  5
AF06
  8
0
 10
-70.746464262374019
 20
-58.9288890543580095
 30
0.0
 40
0.0440379675676389
 50
141.9229788175939007
 51
202.3762488305438865
  0
LINE
  5
AF07
  8
0
 10
-70.7871863436831745
 20
-58.9456537399005072
 30
0.0
 11
-70.6059950659007569
 21
-58.8797055117179582
 31
0.0
  0
LINE
  5
AF08
  8
0
 10
-70.7594453838567716
 20
-58.6283281738163993
 30
0.0
 11
-70.6607039926619791
 21
-58.8996179315055386
 31
0.0
  0
ARC
  5
AF09
  8
0
 10
-65.9069424068119361
 20
-61.1387863148637081
 30
0.0
 40
5.2161934674431683
 50
140.5989161042546129
 51
153.7278825659776942
  0
ARC
  5
AF0A
  8
0
 10
-68.2130803702198847
 20
-59.773160779300909
 30
0.0
 40
0.0780645584174139
 50
178.698580949892488
 51
261.1209796295041201
  0
ARC
  5
AF0B
  8
0
 10
-68.2115542473684826
 20
-59.7633917611488172
 30
0.0
 40
0.0879520639983808
 50
261.1209796295041201
 51
278.2242989975915748
  0
ARC
  5
AF0C
  8
0
 10
-63.5662656932809114
 20
-91.9029033994224847
 30
0.0
 40
32.3855281020920032
 50
89.7481948757980348
 51
98.2242989975916458
  0
ARC
  5
AF0D
  8
0
 10
-63.3407159032481104
 20
-77.3676343013575263
 30
0.0
 40
21.6884947920309301
 50
84.370564081915532
 51
90.2202886686912109
  0
ARC
  5
AF0E
  8
0
 10
-62.1802975784330485
 20
-65.5950532710850638
 30
0.0
 40
9.8588610359547335
 50
74.6258478203030649
 51
84.370564081915532
  0
ARC
  5
AF0F
  8
0
 10
-61.0637938638533768
 20
-61.5344579046750511
 30
0.0
 40
5.6475648846040789
 50
62.8944352595122922
 51
74.6258478203030649
  0
ARC
  5
AF10
  8
0
 10
-62.4346779297504568
 20
-61.5412650254551608
 30
0.0
 40
6.7403709815454196
 50
10.6661673105463404
 51
23.7190427020738603
  0
ARC
  5
AF11
  8
0
 10
-83.9516516877717009
 20
-63.4180445947976708
 30
0.0
 40
28.3137938987250806
 50
1.0445847299885469
 51
6.3352946926268707
  0
ARC
  5
AF12
  8
0
 10
-82.4980878043174357
 20
-62.9235708981213122
 30
0.0
 40
26.855533364521829
 50
353.8828194510473963
 51
0.0462944657566942
  0
ARC
  5
AF13
  8
0
 10
-76.586588355411692
 20
-63.4022787510466586
 30
0.0
 40
20.9272479561285785
 50
347.0553420897616093
 51
353.4612942425160895
  0
ARC
  5
AF14
  8
0
 10
-74.497209949391646
 20
-64.0063931544072915
 30
0.0
 40
18.7560281082864293
 50
332.8419063292869282
 51
347.4241214555871125
  0
ARC
  5
AF15
  8
0
 10
-67.581641441241473
 20
-67.0675545141656357
 30
0.0
 40
11.2139988026261292
 50
321.0461824085622879
 51
330.6294207271084247
  0
ARC
  5
AF16
  8
0
 10
-64.0351266704939377
 20
-69.9347354825035552
 30
0.0
 40
6.653462241613842
 50
306.2314964868467086
 51
321.0461824085622879
  0
ARC
  5
AF17
  8
0
 10
-63.2948570230454592
 20
-70.9450199338229339
 30
0.0
 40
5.4009951468320327
 50
288.1785013292264921
 51
306.2314964868467086
  0
ARC
  5
AF18
  8
0
 10
-63.2721512027284376
 20
-71.014167512791559
 30
0.0
 40
5.3282150537193571
 50
276.8077959288597754
 51
288.1785013292264921
  0
ARC
  5
AF19
  8
0
 10
-63.5434502561202095
 20
-68.7416153622088331
 30
0.0
 40
7.616903860326631
 50
272.8525139358480942
 51
276.8077959288597754
  0
ARC
  5
AF1A
  8
0
 10
-63.3909064428343498
 20
-71.8030883459507834
 30
0.0
 40
4.551632837210783
 50
269.582121688323582
 51
272.8525139358480942
  0
ARC
  5
AF1B
  8
0
 10
-60.9325108101455797
 20
-61.1232867986532398
 30
0.0
 40
5.1997240349503997
 50
39.3291703854278225
 51
48.2340675154785217
  0
ARC
  5
AF1C
  8
0
 10
-62.1686685799014498
 20
-62.5075095596336823
 30
0.0
 40
7.0555685014249336
 50
48.2340675154785217
 51
54.1952918940111701
  0
ARC
  5
AF1D
  8
0
 10
-60.2251252552084608
 20
-59.8131869608015592
 30
0.0
 40
3.7334103291615812
 50
54.1952918940111701
 51
62.3157202276367812
  0
ARC
  5
AF1E
  8
0
 10
-63.4609409141290683
 20
-82.7710303461685442
 30
0.0
 40
26.5010655910880786
 50
87.0536701133474082
 51
89.9201766893492049
  0
ARC
  5
AF1F
  8
0
 10
-62.9854313676205919
 20
-73.5321901820510107
 30
0.0
 40
17.2499966308580106
 50
82.5526832601323974
 51
87.0536701280387177
  0
ARC
  5
AF20
  8
0
 10
-61.7698271402124206
 20
-64.2326914166630871
 30
0.0
 40
7.8713842108278467
 50
72.7647332212391547
 51
82.5526832601323974
  0
ARC
  5
AF21
  8
0
 10
-61.2678701872966869
 20
-62.614656814523812
 30
0.0
 40
6.1772777335660249
 50
64.706406209739697
 51
72.7647332212391547
  0
LINE
  5
AF22
  8
0
 10
-58.6186456450465272
 20
-56.4708245885275488
 30
0.0
 11
-58.6286701111593729
 21
-57.0342849681896098
 31
0.0
  0
LINE
  5
AF23
  8
0
 10
-58.6286701111593729
 20
-57.0342849681896098
 30
0.0
 11
-58.6229105935593608
 21
-59.8502898470896127
 31
0.0
  0
ARC
  5
AF24
  8
0
 10
-59.7225839367236802
 20
-58.8030619653337681
 30
0.0
 40
2.5803121775481079
 50
59.7907937060364603
 51
64.6699930074534706
  0
ARC
  5
AF25
  8
0
 10
-61.219834768637071
 20
-61.6128661742985813
 30
0.0
 40
5.7631295658821919
 50
53.9897169983314171
 51
60.9825276458447476
  0
ARC
  5
AF26
  8
0
 10
-59.5606410834764119
 20
-59.4371722968246203
 30
0.0
 40
3.02835036669275
 50
51.8573642301255333
 51
55.1814509381396334
  0
ARC
  5
AF27
  8
0
 10
-61.4193303835085302
 20
-62.1744506857630981
 30
0.0
 40
6.3480270003577743
 50
59.9116229590776612
 51
62.413978894076017
  0
ARC
  5
AF28
  8
0
 10
-59.6814648384850486
 20
-58.8482442014369411
 30
0.0
 40
2.5951845804108249
 50
62.413978894076017
 51
63.3940247907260002
  0
ARC
  5
AF29
  8
0
 10
-58.529153117746759
 20
-56.5477301360323565
 30
0.0
 40
0.0222121229455118
 50
63.3940247907260002
 51
83.9546554663295268
  0
ARC
  5
AF2A
  8
0
 10
-58.5425797590291168
 20
-56.6745108380281621
 30
0.0
 40
0.1497018130960313
 50
83.9546554663295268
 51
87.2026573597164685
  0
ARC
  5
AF2B
  8
0
 10
-58.5370090027829022
 20
-56.5445988584787003
 30
0.0
 40
0.0196880645234917
 50
84.943674613059045
 51
179.9916830313360094
  0
LINE
  5
AF2C
  8
0
 10
-58.5566970670989733
 20
-56.5445960005890527
 30
0.0
 11
-58.5569153290593718
 21
-59.7713877696896176
 31
0.0
  0
ARC
  5
AF2D
  8
0
 10
-58.537415756456511
 20
-57.0914665761961615
 30
0.0
 40
0.0194122898862592
 50
61.5487197592205106
 51
174.3556925138699114
  0
ARC
  5
AF2E
  8
0
 10
-60.8650613888223617
 20
-61.3871632502144493
 30
0.0
 40
4.9052023084036023
 50
44.7686748021904179
 51
61.5487197592205106
  0
ARC
  5
AF2F
  8
0
 10
-60.4911384751501373
 20
-61.0340281385793233
 30
0.0
 40
4.3910576373008743
 50
22.9075916055952895
 51
44.9333891693399892
  0
ARC
  5
AF30
  8
0
 10
-62.4825767590815673
 20
-61.6551856715547473
 30
0.0
 40
6.4704068122525582
 50
2.840864259178725
 51
21.1098084220300493
  0
ARC
  5
AF31
  8
0
 10
-87.7275904442924741
 20
-63.0287463882682175
 30
0.0
 40
31.7527013575146384
 50
359.3727634290447099
 51
3.0586175512037208
  0
ARC
  5
AF32
  8
0
 10
-81.2105199968801088
 20
-63.1574464105223896
 30
0.0
 40
25.2346776947757583
 50
354.0543624431787748
 51
359.502975743828074
  0
ARC
  5
AF33
  8
0
 10
-75.8998044506526668
 20
-63.5896180991760076
 30
0.0
 40
19.9081273074001217
 50
347.7718534052709742
 51
353.7082434675854756
  0
ARC
  5
AF34
  8
0
 10
-73.9757031959276645
 20
-64.0762978607171618
 30
0.0
 40
17.9247283403479898
 50
332.798903488295025
 51
347.9895454761943938
  0
ARC
  5
AF35
  8
0
 10
-65.4402549070233448
 20
-68.3025387813218003
 30
0.0
 40
8.4025716743146415
 50
310.0124516251534033
 51
331.8249211703209767
  0
ARC
  5
AF36
  8
0
 10
-63.3059946212633307
 20
-70.6668906658199489
 30
0.0
 40
5.2207271295347057
 50
290.1912527194293716
 51
308.7560757981798929
  0
ARC
  5
AF37
  8
0
 10
-63.2912261282393871
 20
-70.6333430327739507
 30
0.0
 40
5.2471773704259421
 50
277.8479643722445189
 51
289.913462903950176
  0
ARC
  5
AF38
  8
0
 10
-63.427754738278189
 20
-69.7835286388234834
 30
0.0
 40
6.1077048052878693
 50
270.0350346493071925
 51
278.0281908570827909
  0
ARC
  5
AF39
  8
0
 10
-60.9410977139067995
 20
-61.1387863148637081
 30
0.0
 40
5.2161934674431683
 50
26.2721174340222916
 51
39.4010838957451526
  0
ARC
  5
AF3A
  8
0
 10
-58.634959750498858
 20
-59.773160779300909
 30
0.0
 40
0.0780645584174139
 50
278.879020370495482
 51
1.3014190501074701
  0
ARC
  5
AF3B
  8
0
 10
-58.636485873350253
 20
-59.7633917611488172
 30
0.0
 40
0.0879520639983808
 50
261.7757010024084252
 51
278.879020370495482
  0
ARC
  5
AF3C
  8
0
 10
-63.2817744274378313
 20
-91.9029033994224847
 30
0.0
 40
32.3855281020920032
 50
81.7757010024083542
 51
90.2518051242019652
  0
LINE
  5
AF3E
  8
0
 10
-68.2913430555593663
 20
-56.9258527936896073
 30
0.0
 11
-68.2665399040593712
 21
-56.9258527936896215
 31
0.0
  0
ARC
  5
AF3F
  8
0
 10
-68.2665399040593712
 20
-56.945553759314933
 30
0.0
 40
0.019700965625308
 50
357.6960225804759261
 51
89.9999999999934914
  0
LINE
  5
AF40
  8
0
 10
-68.2468548645608024
 20
-56.9463457608990709
 30
0.0
 11
-68.2469344451895097
 21
-57.5241427691210632
 31
0.0
  0
ARC
  5
AF41
  8
0
 10
-68.2672937955033063
 20
-57.522707956034111
 30
0.0
 40
0.0204098464912027
 50
272.1168520997701989
 51
355.9687791255785214
  0
LINE
  5
AF42
  8
0
 10
-68.2665399040593712
 20
-57.5431038742896206
 30
0.0
 11
-68.2912755354419545
 21
-57.5427868900277701
 31
0.0
  0
LINE
  5
AF43
  8
0
 10
-68.2193713186839545
 20
-57.0367596668700685
 30
0.0
 11
-68.2468548646593689
 21
-57.0768390734896087
 31
0.0
  0
LINE
  5
AF44
  8
0
 10
-68.2469162164914707
 20
-57.3917928824342312
 30
0.0
 11
-68.220182803603592
 21
-57.431684916075902
 31
0.0
  0
LINE
  5
AF45
  8
0
 10
-58.5566973843593672
 20
-56.865915274489609
 30
0.0
 11
-58.6259662593881927
 21
-56.8659152744896232
 31
0.0
  0
LINE
  5
AF46
  8
0
 10
-58.5567290737910469
 20
-57.0177839548896088
 30
0.0
 11
-58.6283973850161928
 21
-57.0177839548896088
 31
0.0
  0
LINE
  5
AF47
  8
0
 10
-58.5567583669413381
 20
-57.4508548210896208
 30
0.0
 11
-58.6282540851776375
 21
-57.4508548210896208
 31
0.0
  0
LINE
  5
AF48
  8
0
 10
-58.5568192397497072
 20
-58.3508003574896179
 30
0.0
 11
-58.6271058287312528
 21
-58.3508003574896179
 31
0.0
  0
ARC
  5
AF49
  8
0
 10
-64.1646428597287439
 20
-84.7669938047500438
 30
0.0
 40
25.6639921255389289
 50
93.4775930915549935
 51
99.1014735483565232
  0
ARC
  5
AF4A
  8
0
 10
-63.750462031988647
 20
-91.5825310617521353
 30
0.0
 40
32.49210268847294
 50
89.4243507082605475
 51
93.477593091554624
  0
ARC
  5
AF4B
  8
0
 10
-64.0052333279885346
 20
-116.939686969900805
 30
0.0
 40
57.8505384478691198
 50
86.5978410640336875
 51
89.4243507082605475
  0
ARC
  5
AF4C
  8
0
 10
-61.535025062557942
 20
-75.3877986426792148
 30
0.0
 40
16.2252894704456594
 50
79.6636452581913375
 51
86.5978410640333038
  0
ENDSEC
  0
EOF
