  0
SECTION
  2
HEADER
  9
$ACADVER
  1
AC1009
  9
$INSBASE
 10
-28.3808364539395797
 20
-86.2577479803139937
 30
0.0
  9
$EXTMIN
 10
-49.0579829447465414
 20
-86.2617298075638246
 30
-0.0015258207003583
  9
$EXTMAX
 10
-28.368306631792759
 20
-80.8889356782761979
 30
0.0000000349246037
  9
$LIMMIN
 10
0.0
 20
0.0
  9
$LIMMAX
 10
11.6929133858000007
 20
8.2677165353999982
  9
$ORTHOMODE
 70
     0
  9
$REGENMODE
 70
     1
  9
$FILLMODE
 70
     1
  9
$QTEXTMODE
 70
     0
  9
$MIRRTEXT
 70
     0
  9
$DRAGMODE
 70
     2
  9
$LTSCALE
 40
0.6431102362
  9
$OSMODE
 70
  2023
  9
$ATTMODE
 70
     1
  9
$TEXTSIZE
 40
0.2
  9
$TRACEWID
 40
0.05
  9
$TEXTSTYLE
  7
STANDARD
  9
$CLAYER
  8
0
  9
$CELTYPE
  6
BYLAYER
  9
$CECOLOR
 62
   256
  9
$DIMSCALE
 40
1.0
  9
$DIMASZ
 40
0.1875
  9
$DIMEXO
 40
0.0625
  9
$DIMDLI
 40
0.4443307087
  9
$DIMRND
 40
0.0
  9
$DIMDLE
 40
0.0
  9
$DIMEXE
 40
0.125
  9
$DIMTP
 40
0.01
  9
$DIMTM
 40
0.01
  9
$DIMTXT
 40
1.0
  9
$DIMCEN
 40
0.1052362205
  9
$DIMTSZ
 40
0.0
  9
$DIMTOL
 70
     1
  9
$DIMLIM
 70
     0
  9
$DIMTIH
 70
     1
  9
$DIMTOH
 70
     1
  9
$DIMSE1
 70
     0
  9
$DIMSE2
 70
     0
  9
$DIMTAD
 70
     0
  9
$DIMZIN
 70
     0
  9
$DIMBLK
  1

  9
$DIMASO
 70
     1
  9
$DIMSHO
 70
     1
  9
$DIMPOST
  1
\X
  9
$DIMAPOST
  1

  9
$DIMALT
 70
     1
  9
$DIMALTD
 70
     2
  9
$DIMALTF
 40
25.3999999999999986
  9
$DIMLFAC
 40
1.0
  9
$DIMTOFL
 70
     0
  9
$DIMTVP
 40
0.0
  9
$DIMTIX
 70
     0
  9
$DIMSOXD
 70
     0
  9
$DIMSAH
 70
     0
  9
$DIMBLK1
  1

  9
$DIMBLK2
  1

  9
$DIMSTYLE
  2
STANDARD
  9
$DIMCLRD
 70
     0
  9
$DIMCLRE
 70
     0
  9
$DIMCLRT
 70
     0
  9
$DIMTFAC
 40
1.0
  9
$DIMGAP
 40
0.09
  9
$LUNITS
 70
     2
  9
$LUPREC
 70
     4
  9
$SKETCHINC
 40
0.1
  9
$FILLETRAD
 40
0.0
  9
$AUNITS
 70
     0
  9
$AUPREC
 70
     0
  9
$MENU
  1
.
  9
$ELEVATION
 40
0.0
  9
$PELEVATION
 40
0.0
  9
$THICKNESS
 40
0.0
  9
$LIMCHECK
 70
     0
  9
$BLIPMODE
 70
     0
  9
$CHAMFERA
 40
0.0
  9
$CHAMFERB
 40
0.0
  9
$SKPOLY
 70
     0
  9
$TDCREATE
 40
2458172.4620254631154239
  9
$TDUPDATE
 40
2459112.4111921298317611
  9
$TDINDWG
 40
0.1636401968
  9
$TDUSRTIMER
 40
0.1636401968
  9
$USRTIMER
 70
     1
  9
$ANGBASE
 50
0.0
  9
$ANGDIR
 70
     0
  9
$PDMODE
 70
     0
  9
$PDSIZE
 40
0.3125
  9
$PLINEWID
 40
0.0
  9
$COORDS
 70
     1
  9
$SPLFRAME
 70
     0
  9
$SPLINETYPE
 70
     6
  9
$SPLINESEGS
 70
     8
  9
$ATTDIA
 70
     1
  9
$ATTREQ
 70
     1
  9
$HANDLING
 70
     1
  9
$HANDSEED
  5
B0AE
  9
$SURFTAB1
 70
     6
  9
$SURFTAB2
 70
     6
  9
$SURFTYPE
 70
     6
  9
$SURFU
 70
     6
  9
$SURFV
 70
     6
  9
$UCSNAME
  2

  9
$UCSORG
 10
0.0
 20
0.0
 30
0.0
  9
$UCSXDIR
 10
1.0
 20
0.0
 30
0.0
  9
$UCSYDIR
 10
0.0
 20
1.0
 30
0.0
  9
$PUCSNAME
  2

  9
$PUCSORG
 10
0.0
 20
0.0
 30
0.0
  9
$PUCSXDIR
 10
1.0
 20
0.0
 30
0.0
  9
$PUCSYDIR
 10
0.0
 20
1.0
 30
0.0
  9
$USERI1
 70
     0
  9
$USERI2
 70
     0
  9
$USERI3
 70
     0
  9
$USERI4
 70
     0
  9
$USERI5
 70
     0
  9
$USERR1
 40
0.0
  9
$USERR2
 40
0.0
  9
$USERR3
 40
0.0
  9
$USERR4
 40
0.0
  9
$USERR5
 40
0.0
  9
$WORLDVIEW
 70
     1
  9
$SHADEDGE
 70
     3
  9
$SHADEDIF
 70
    70
  9
$TILEMODE
 70
     1
  9
$MAXACTVP
 70
    64
  9
$PLIMCHECK
 70
     0
  9
$PEXTMIN
 10
1.0000000000000000E+20
 20
1.0000000000000000E+20
 30
1.0000000000000000E+20
  9
$PEXTMAX
 10
-1.0000000000000000E+20
 20
-1.0000000000000000E+20
 30
-1.0000000000000000E+20
  9
$PLIMMIN
 10
0.0
 20
0.0
  9
$PLIMMAX
 10
12.0
 20
9.0
  9
$UNITMODE
 70
     0
  9
$VISRETAIN
 70
     1
  9
$PLINEGEN
 70
     0
  9
$PSLTSCALE
 70
     1
  0
ENDSEC
  0
SECTION
  2
TABLES
  0
TABLE
  2
VPORT
 70
     1
  0
VPORT
  2
*ACTIVE
 70
     0
 10
0.0
 20
0.0
 11
1.0
 21
1.0
 12
-163.3243033883422868
 22
-88.8876069132978444
 13
0.0
 23
0.0
 14
1.0
 24
1.0
 15
0.0
 25
0.0
 16
0.0
 26
0.0
 36
30.6214257250603907
 17
124.6111586000725993
 27
5.3122741703778242
 37
0.0
 40
7.8360624301457111
 41
2.6486111111111108
 42
50.0
 43
0.0
 44
0.0
 50
0.0
 51
0.0
 71
     0
 72
   100
 73
     1
 74
     1
 75
     0
 76
     0
 77
     0
 78
     0
  0
ENDTAB
  0
TABLE
  2
LTYPE
 70
     2
  0
LTYPE
  2
CONTINUOUS
 70
     0
  3
Solid line
 72
    65
 73
     0
 40
0.0
  0
LTYPE
  2
PHANTOM2
 70
     0
  3
___ _ _ ___ _ _ ___ _ _ ___ _ _
 72
    65
 73
     6
 40
1.25
 49
0.625
 49
-0.125
 49
0.125
 49
-0.125
 49
0.125
 49
-0.125
  0
ENDTAB
  0
TABLE
  2
LAYER
 70
     2
  0
LAYER
  2
0
 70
     0
 62
   255
  6
CONTINUOUS
  0
LAYER
  2
DEFPOINTS
 70
     0
 62
     7
  6
CONTINUOUS
  0
ENDTAB
  0
TABLE
  2
STYLE
 70
     1
  0
STYLE
  2
STANDARD
 70
     0
 40
0.0
 41
0.8
 50
0.0
 71
     0
 42
0.2
  3
txt
  4

  0
ENDTAB
  0
TABLE
  2
VIEW
 70
     0
  0
ENDTAB
  0
TABLE
  2
UCS
 70
     0
  0
ENDTAB
  0
TABLE
  2
APPID
 70
     9
  0
APPID
  2
ACAD
 70
     0
  0
APPID
  2
ACAD_MLEADERVER
 70
     0
  0
APPID
  2
ACAD_EXEMPT_FROM_CAD_STANDARDS
 70
     0
  0
APPID
  2
ACAD_DSTYLE_DIMJAG
 70
     0
  0
APPID
  2
ACAD_DSTYLE_DIMTALN
 70
     0
  0
APPID
  2
ACAD_NAV_VCDISPLAY
 70
     0
  0
APPID
  2
ACAECLAYERSTANDARD
 70
     0
  0
APPID
  2
ACCMTRANSPARENCY
 70
     0
  0
APPID
  2
ACDBATTR
 70
     0
  0
ENDTAB
  0
TABLE
  2
DIMSTYLE
 70
     1
  0
DIMSTYLE
  2
STANDARD
 70
     0
  3

  4

  5

  6

  7

 40
1.0
 41
0.1875
 42
0.0625
 43
0.38
 44
0.125
 45
0.0
 46
0.0
 47
0.01
 48
0.01
140
0.15625
141
0.09
142
0.0
143
25.3999999999999986
144
1.0
145
0.0
146
1.0
147
0.09
 71
     1
 72
     0
 73
     1
 74
     1
 75
     0
 76
     0
 77
     0
 78
     4
170
     0
171
     2
172
     0
173
     0
174
     0
175
     0
176
     0
177
     0
178
     0
  0
ENDTAB
  0
ENDSEC
  0
SECTION
  2
BLOCKS
  0
BLOCK
  8
0
  2
$MODEL_SPACE
 70
     0
 10
0.0
 20
0.0
 30
0.0
  3
$MODEL_SPACE
  1

  0
ENDBLK
  5
21
  8
0
  0
BLOCK
 67
     1
  8
0
  2
$PAPER_SPACE
 70
     0
 10
0.0
 20
0.0
 30
0.0
  3
$PAPER_SPACE
  1

  0
ENDBLK
  5
1D
 67
     1
  8
0
  0
BLOCK
  8
0
  2
_FILLED
 70
     0
 10
0.0
 20
0.0
 30
0.0
  3
_FILLED
  1

  0
SOLID
  5
9844
  8
0
  6
BYBLOCK
 62
     0
 10
0.0
 20
0.0
 30
0.0
 11
-1.0
 21
0.1666666667
 31
0.0
 12
-1.0
 22
-0.1666666667
 32
0.0
 13
-1.0
 23
-0.1666666667
 33
0.0
  0
ENDBLK
  5
9845
  8
0
  6
BYBLOCK
 62
     0
  0
ENDSEC
  0
SECTION
  2
ENTITIES
  0
ATTDEF
  5
9A0E
  8
DEFPOINTS
 10
-28.3808351602730902
 20
-86.2539478928303964
 30
0.0
 40
0.001
  1
K-18751T
  3

  2
MODELNUMBER
 70
     0
1001
ACDBATTR
1070
     0
1070
     1
  0
ATTDEF
  5
9A0F
  8
DEFPOINTS
 10
-28.3808351602730902
 20
-86.2556145594970474
 30
0.0
 40
0.001
  1
C3-050
  3

  2
TRADENAME
 70
     0
1001
ACDBATTR
1070
     0
1070
     1
  0
ATTDEF
  5
9A10
  8
DEFPOINTS
 10
-28.3808351602730902
 20
-86.2572812261637267
 30
0.0
 40
0.001
  1
TOILET SEAT
  3

  2
PRODUCT
 70
     0
1001
ACDBATTR
1070
     0
1070
     1
  0
LINE
  5
ADB2
  8
0
 10
-49.056136825139582
 20
-84.8522357390140058
 30
0.0
 11
-49.048479032139582
 21
-84.6769904824140127
 31
0.0
  0
ARC
  5
ADB3
  8
0
 10
-49.028812759860223
 20
-84.6778498508893307
 30
0.0
 40
0.019685039485406
 50
140.6308110380477956
 51
177.4979049364395109
  0
LINE
  5
ADB4
  8
0
 10
-49.0440307676395832
 20
-84.6653633374139929
 30
0.0
 11
-48.5927702433217803
 21
-84.1468789014836602
 31
0.0
  0
ARC
  5
ADB5
  8
0
 10
-48.5775544024837984
 20
-84.1593636369639455
 30
0.0
 40
0.0196822364689305
 50
89.4900892440298463
 51
140.6308110380498135
  0
LINE
  5
ADB6
  8
0
 10
-48.5773792403395674
 20
-84.1396821799385464
 30
0.0
 11
-44.9632135363658421
 21
-84.1396821799385464
 31
0.0
  0
ARC
  5
ADB7
  8
0
 10
-45.3493728502859383
 20
-5.2925931053385389
 30
0.0
 40
78.8480346904958367
 50
270.2806079751173911
 51
272.2339882697751818
  0
ARC
  5
ADB8
  8
0
 10
-44.5856454868797769
 20
-40.1263259014625788
 30
0.0
 40
44.0150237511154714
 50
273.0081415401335221
 51
275.3194133224490088
  0
ARC
  5
ADB9
  8
0
 10
-41.8905927197949381
 20
-69.0714790672964654
 30
0.0
 40
14.9446745751775296
 50
275.3194133224490088
 51
283.2205782656733959
  0
ARC
  5
ADBA
  8
0
 10
-43.273892670903308
 20
-64.7980218695973633
 30
0.0
 40
19.4247437975399109
 50
284.3099305493345241
 51
294.6298257550392918
  0
ARC
  5
ADBB
  8
0
 10
-2965.8893677321580071
 20
7036.6181016175078184
 30
0.0
 40
7698.7190277556892397
 50
292.3755076188363091
 51
292.3846501011714736
  0
ARC
  5
ADBC
  8
0
 10
-29.4335088928604414
 20
-92.5858924991558041
 30
0.0
 40
11.5570093050632199
 50
102.2008079518301003
 51
113.5041559806983003
  0
ARC
  5
ADBD
  8
0
 10
-27.6412400629525692
 20
-101.4547125168309947
 30
0.0
 40
20.6046484436883794
 50
93.701732061660465
 51
101.8600643860016959
  0
LINE
  5
ADBE
  8
0
 10
-28.971527171039579
 20
-80.8930522312887348
 30
0.0
 11
-28.4096352801395788
 21
-81.903946691513994
 31
0.0
  0
LINE
  5
ADBF
  8
0
 10
-28.4096352801395788
 20
-81.903946691513994
 30
0.0
 11
-28.3808364539395797
 21
-83.0039019477139988
 31
0.0
  0
ARC
  5
ADC0
  8
0
 10
-25.5296126610255314
 20
-114.6243928970710044
 30
0.0
 40
31.7487783228838012
 50
95.152433843675766
 51
98.7154867751623328
  0
ARC
  5
ADC1
  8
0
 10
-25.7260744963403383
 20
-111.2728616624709019
 30
0.0
 40
28.4079094970204515
 50
99.3481140532212947
 51
105.4971362212292973
  0
ARC
  5
ADC2
  8
0
 10
-0.7128138880917519
 20
-200.1478440942146904
 30
0.0
 40
120.735563330295804
 50
105.6667182797822022
 51
108.1272559073377977
  0
LINE
  5
ADC3
  8
0
 10
-38.2771077959395711
 20
-85.4046453513140023
 30
0.0
 11
-38.2976462369643329
 21
-85.6325655729275041
 31
0.0
  0
LINE
  5
ADC4
  8
0
 10
-28.4202054442408212
 20
-83.0074765648725617
 30
0.0
 11
-28.4770847754395788
 21
-85.2073679201140095
 31
0.0
  0
LINE
  5
ADC5
  8
0
 10
-28.4770847754395788
 20
-85.2073679201140095
 30
0.0
 11
-29.5666182036396883
 21
-85.2073679200150451
 31
0.0
  0
LINE
  5
ADC6
  8
0
 10
-29.5666182036396883
 20
-85.2073679200150451
 30
0.0
 11
-29.6065316841434196
 21
-85.6016052171709418
 31
0.0
  0
ARC
  5
ADC7
  8
0
 10
-29.6407854135387687
 20
-85.5981366901996807
 30
0.0
 40
0.0344288927623412
 50
269.9562554316506748
 51
354.2179472957764119
  0
LINE
  5
ADC8
  8
0
 10
-29.6408116995395794
 20
-85.6325655729275041
 30
0.0
 11
-38.4558816971395814
 21
-85.6325655729275041
 31
0.0
  0
ARC
  5
ADC9
  8
0
 10
-49.0362700539979102
 20
-84.8529126267872158
 30
0.0
 40
0.0198782990382213
 50
178.0486101301704878
 51
264.0806447104699259
  0
ARC
  5
ADCA
  8
0
 10
-40.3183182591972624
 20
618.5434039281274181
 30
0.0
 40
703.4735149866198753
 50
269.4145911730950047
 51
269.5639048468179908
  0
ARC
  5
ADCB
  8
0
 10
-43.6281888995213194
 20
128.2386318172289066
 30
0.0
 40
213.1581705859719023
 50
269.4504615730389787
 51
270.3512669899013758
  0
ARC
  5
ADCC
  8
0
 10
-42.659855481212837
 20
-36.8945671796970203
 30
0.0
 40
48.0221585859967703
 50
270.4038490361833738
 51
271.7775054605156129
  0
ARC
  5
ADCD
  8
0
 10
-41.9238544089036083
 20
-60.6512017206602678
 30
0.0
 40
24.2541258692511086
 50
271.7804456035635781
 51
274.5456308272013075
  0
ARC
  5
ADCE
  8
0
 10
-41.6152050110196825
 20
-64.6680348754490808
 30
0.0
 40
20.2254689492732993
 50
274.5758506354134738
 51
278.8817496109708145
  0
ARC
  5
ADCF
  8
0
 10
-42.8572668797070833
 20
-59.5041000593605816
 30
0.0
 40
25.5228729705055812
 50
279.8468222770467264
 51
287.9137234425678002
  0
ARC
  5
ADD0
  8
0
 10
-4.9731866193761496
 20
-175.0619631526631963
 30
0.0
 40
96.0867099024325029
 50
106.3126469370865976
 51
108.2140637915976953
  0
ARC
  5
ADD1
  8
0
 10
-28.4817637239483297
 20
-97.4787736064366328
 30
0.0
 40
15.0434643042593805
 50
98.5985191654165334
 51
103.3758375175497974
  0
ARC
  5
ADD2
  8
0
 10
-26.2086211314246107
 20
-111.5826806665676969
 30
0.0
 40
29.3290329906516014
 50
97.160042201438344
 51
98.8699092603668959
  0
ARC
  5
ADD3
  8
0
 10
-30.0387640080980312
 20
-81.5419942773236244
 30
0.0
 40
0.9564249048111439
 50
280.5145783133074247
 51
296.2173808144390819
  0
ARC
  5
ADD4
  8
0
 10
-30.0190137114788094
 20
-81.606453529227764
 30
0.0
 40
0.8899367193786597
 50
296.9100310804918195
 51
317.7833329431127254
  0
ARC
  5
ADD5
  8
0
 10
-29.9692681964830285
 20
-81.638809987140732
 30
0.0
 40
0.8314071117693963
 50
317.1312306637178153
 51
332.8678472506605885
  0
ARC
  5
ADD6
  8
0
 10
-29.2689012190124096
 20
-82.0026846083451346
 30
0.0
 40
0.0424001333724904
 50
338.8709977244595848
 51
7.4012057787576939
  0
ARC
  5
ADD7
  8
0
 10
-29.2461342399393303
 20
-82.0011959838139433
 30
0.0
 40
0.0196850393997462
 50
11.6445257565518894
 51
28.4355627455778901
  0
ARC
  5
ADD8
  8
0
 10
255.2319213640087128
 20
72.089429459214017
 30
0.0
 40
323.5103521591955769
 50
208.2393813656275938
 51
208.4426713927107926
  0
ARC
  5
ADD9
  8
0
 10
-29.8123011329498517
 20
-81.01839787031318
 30
0.0
 40
0.0533361976355816
 50
43.6756051618791403
 51
95.7769169947566184
  0
LINE
  5
ADDA
  8
0
 10
-35.0271330361116995
 20
-83.7961985413762136
 30
0.0
 11
-35.0298793481895672
 21
-83.9563128461640105
 31
0.0
  0
ARC
  5
ADDB
  8
0
 10
-35.0488882116519207
 20
-83.9559868023955573
 30
0.0
 40
0.0190116594401645
 50
286.3304076061672845
 51
359.0173478669697147
  0
ARC
  5
ADDC
  8
0
 10
-19.2533968146138896
 20
-137.8661305889868061
 30
0.0
 40
56.1575061354965328
 50
106.3304076061671992
 51
107.3312321322474929
  0
ARC
  5
ADDD
  8
0
 10
-44.0834127186624727
 20
-57.2108133270693315
 30
0.0
 40
28.2345484302286813
 50
283.1547531113624245
 51
286.6734463022805812
  0
ARC
  5
ADDE
  8
0
 10
-40.3614434784540279
 20
-72.5057783115381653
 30
0.0
 40
12.4947100643293005
 50
279.0659477968375199
 51
282.4969672813954844
  0
ARC
  5
ADDF
  8
0
 10
-41.244756733317999
 20
-68.3648482203025196
 30
0.0
 40
16.7245390894940016
 50
273.3777428688102873
 51
279.8189279136836944
  0
ARC
  5
ADE0
  8
0
 10
-38.1496251370358905
 20
-84.9645426909874999
 30
0.0
 40
0.2710892519098574
 50
153.6927083506265888
 51
177.9451654670189953
  0
ARC
  5
ADE1
  8
0
 10
-20.2467032314911997
 20
-85.6068818414033643
 30
0.0
 40
18.185530698412979
 50
177.9451654670197911
 51
178.6568430609441975
  0
ARC
  5
ADE2
  8
0
 10
-43.1095927067667972
 20
-85.0708201029485593
 30
0.0
 40
4.6836423812176706
 50
353.1244318924742061
 51
358.6568430609441975
  0
ARC
  5
ADE3
  8
0
 10
-38.4472531728114433
 20
-85.5945234293259176
 30
0.0
 40
0.0390084109120865
 50
251.4967320515227982
 51
257.2206805419825173
  0
LINE
  5
ADE4
  8
0
 10
-38.4278349442046618
 20
-85.2036741876707566
 30
0.0
 11
-32.6210569126135326
 21
-83.27599673231542
 31
0.0
  0
ARC
  5
ADE5
  8
0
 10
-33.213353676180013
 20
-81.4918103658123414
 30
0.0
 40
1.8799299046897351
 50
288.3646301894181079
 51
305.4906796169278778
  0
ARC
  5
ADE6
  8
0
 10
-32.5524968791155587
 20
-82.5899408852630188
 30
0.0
 40
0.6103070004399408
 50
314.8704143124833195
 51
334.2156959696133072
  0
LINE
  5
ADE7
  8
0
 10
-35.7736781536482624
 20
-84.3225731398437404
 30
0.0
 11
-35.7665522903139674
 21
-84.612950331713435
 31
0.0
  0
LINE
  5
ADE8
  8
0
 10
-34.5276067021188595
 20
-83.633345786725755
 30
0.0
 11
-34.5830881820404628
 21
-83.9273327097197637
 31
0.0
  0
LINE
  5
ADE9
  8
0
 10
-35.0285719650797631
 20
-83.8800903587758313
 30
0.0
 11
-34.5474979819395713
 21
-83.7386142190139964
 31
0.0
  0
ARC
  5
ADEA
  8
0
 10
-30.2792590191398006
 20
-80.6669619343185218
 30
0.0
 40
1.9893795985955081
 50
256.8776915465800812
 51
272.6249025391120995
  0
ARC
  5
ADEB
  8
0
 10
-30.2619107114068093
 20
-81.0453719113781972
 30
0.0
 40
1.6105721613407511
 50
272.6249025391117016
 51
288.1390473770167091
  0
ARC
  5
ADEC
  8
0
 10
-30.2221983855415992
 20
-81.1665921085703985
 30
0.0
 40
1.483012743683958
 50
288.1390473770167091
 51
299.9047971427244761
  0
ARC
  5
ADED
  8
0
 10
-29.8459965830232896
 20
-81.8207003562503132
 30
0.0
 40
0.728436441444813
 50
299.9047971427244761
 51
327.7084301665781823
  0
ARC
  5
ADEE
  8
0
 10
-30.8257411787488493
 20
-81.2015332788663073
 30
0.0
 40
1.8874305495271959
 50
327.7084301665780117
 51
331.1654316735637735
  0
ARC
  5
ADEF
  8
0
 10
-468.2268347716068888
 20
-93.6658497072129848
 30
0.0
 40
439.2065129381824136
 50
1.507432626136028
 51
1.5230453844267711
  0
LINE
  5
ADF0
  8
0
 10
-34.7532182889395713
 20
-85.6325655729275041
 30
0.0
 11
-34.7532182889395784
 21
-86.1404372582139075
 31
0.0
  0
ARC
  5
ADF1
  8
0
 10
-34.7414072653394825
 20
-86.1404372582139075
 30
0.0
 40
0.011811023600103
 50
180.0
 51
269.9999999995176267
  0
LINE
  5
ADF2
  8
0
 10
-34.741407265339582
 20
-86.1522482818140247
 30
0.0
 11
-34.725659233839572
 21
-86.1522482818141384
 31
0.0
  0
ARC
  5
ADF3
  8
0
 10
-34.7256592338394796
 20
-86.1404372582142344
 30
0.0
 40
0.0118110235998972
 50
269.9999999995167741
 51
0.0000000011415392
  0
LINE
  5
ADF4
  8
0
 10
-34.7138482102395827
 20
-86.140437258214007
 30
0.0
 11
-34.7138482102497221
 21
-85.6325655729275041
 31
0.0
  0
LINE
  5
ADF5
  8
0
 10
-34.6097542609395816
 20
-85.6325655729275041
 30
0.0
 11
-34.6097542609395816
 21
-86.1464389522140124
 31
0.0
  0
LINE
  5
ADF6
  8
0
 10
-34.6097542609395816
 20
-86.1464389522140124
 30
0.0
 11
-34.3691619764772724
 21
-86.2340073824154558
 31
0.0
  0
ARC
  5
ADF7
  8
0
 10
-34.2350713177699788
 20
-85.8607701599560897
 30
0.0
 40
0.3969782194563018
 50
270.0812445643592241
 51
328.9315156881946223
  0
LINE
  5
ADF8
  8
0
 10
-33.895039196939571
 20
-86.0656356366140045
 30
0.0
 11
-33.4358740244395776
 21
-86.0656356366140045
 31
0.0
  0
ARC
  5
ADF9
  8
0
 10
-33.4358739871396082
 20
-85.9868954791139544
 30
0.0
 40
0.0787401575000594
 50
269.9999728584385252
 51
309.9952794101944278
  0
LINE
  5
ADFA
  8
0
 10
-33.3852657593135405
 20
-86.0472181090254367
 30
0.0
 11
-32.8965037539740521
 21
-85.6371667078309144
 31
0.0
  0
ARC
  5
ADFB
  8
0
 10
-32.8839110624562068
 20
-85.6520982429417757
 30
0.0
 40
0.0195327064287128
 50
89.8893648189555989
 51
130.1430161724138088
  0
LINE
  5
ADFC
  8
0
 10
-34.2717264355766105
 20
-85.6325655729275041
 30
0.0
 11
-34.1059134815395666
 21
-85.8261632992140022
 31
0.0
  0
ARC
  5
ADFD
  8
0
 10
-33.9747217265488928
 20
-85.7162202843076386
 30
0.0
 40
0.1711687562151356
 50
219.964116996485501
 51
310.0213407043170264
  0
LINE
  5
ADFE
  8
0
 10
-33.8646477397671575
 20
-85.8473021691667242
 30
0.0
 11
-33.8344786264799566
 21
-85.8219916536126561
 31
0.0
  0
ARC
  5
ADFF
  8
0
 10
-33.944805311200561
 20
-85.6906700137522535
 30
0.0
 40
0.1715149130214949
 50
310.0351770870234986
 51
359.9608397952566179
  0
LINE
  5
AE00
  8
0
 10
-33.7732904382395773
 20
-85.6907872398090973
 30
0.0
 11
-33.773290441355492
 21
-85.6325655729275041
 31
0.0
  0
LINE
  5
AE01
  8
0
 10
-34.2400640081164696
 20
-85.6325655729275041
 30
0.0
 11
-34.0893201754428574
 21
-85.8122458137807769
 31
0.0
  0
ARC
  5
AE02
  8
0
 10
-33.9747066538030182
 20
-85.7160901015769241
 30
0.0
 40
0.1496067522945356
 50
219.9951735062047931
 51
309.9945504082579077
  0
LINE
  5
AE03
  8
0
 10
-33.8785521880395777
 20
-85.8307046689140094
 30
0.0
 11
-33.8483905502528231
 21
-85.8054009380243059
 31
0.0
  0
ARC
  5
AE04
  8
0
 10
-33.94454362102217
 20
-85.6907880334976113
 30
0.0
 40
0.1496045818229592
 50
309.994550408258192
 51
22.9032157413676316
  0
LINE
  5
AE05
  8
0
 10
-32.6497391463351789
 20
-85.6325655729275041
 30
0.0
 11
-32.6547897440395829
 21
-85.0538243926140041
 31
0.0
  0
LINE
  5
AE06
  8
0
 10
-32.6547897440395829
 20
-85.0538243926140041
 30
0.0
 11
-33.2689629704599028
 21
-85.0538246129140134
 31
0.0
  0
LINE
  5
AE07
  8
0
 10
-33.2689629704599028
 20
-85.0538246129140134
 30
0.0
 11
-33.2740135663639975
 21
-85.6325655729275041
 31
0.0
  0
ARC
  5
AE08
  8
0
 10
-33.2370363529775403
 20
-85.6128262698607472
 30
0.0
 40
0.0197822454617794
 50
193.2487546875983924
 51
266.2240906287033795
  0
ARC
  5
AE09
  8
0
 10
-33.2320064703356977
 20
-85.6123602313713832
 30
0.0
 40
0.0247949182082449
 50
178.1801151635135056
 51
191.6330458135381889
  0
LINE
  5
AE0A
  8
0
 10
-33.2567888819595225
 20
-85.6115728032406338
 30
0.0
 11
-33.2477002249522684
 21
-85.0908839945974904
 31
0.0
  0
ARC
  5
AE0B
  8
0
 10
-33.2280168016254507
 20
-85.0912275700313785
 30
0.0
 40
0.0196864216642273
 50
90.003953557327435
 51
178.9999999950339031
  0
LINE
  5
AE0C
  8
0
 10
-33.2280181600395821
 20
-85.0715411484140134
 30
0.0
 11
-32.6929924612528495
 21
-85.0715042302536659
 31
0.0
  0
ARC
  5
AE0D
  8
0
 10
-32.6929911030695379
 20
-85.091187306714275
 30
0.0
 40
0.0196830765074704
 50
0.8869047597104188
 51
90.0039535573270371
  0
LINE
  5
AE0E
  8
0
 10
-32.6733103846664221
 20
-85.0908826365056541
 30
0.0
 11
-32.6642018981301021
 21
-85.6128975783700383
 31
0.0
  0
ARC
  5
AE0F
  8
0
 10
-32.6838869294395806
 20
-85.6128797311140062
 30
0.0
 40
0.0196850394000039
 50
315.4999999988207264
 51
359.9480533121624717
  0
ARC
  5
AE10
  8
0
 10
-32.6841419370221615
 20
-85.612562762276923
 30
0.0
 40
0.0200891458478962
 50
275.3138157963903154
 51
315.3649797566127972
  0
LINE
  5
AE11
  8
0
 10
-33.2733264059395779
 20
-85.5538247961140144
 30
0.0
 11
-33.2557808867144828
 21
-85.5538247946140018
 31
0.0
  0
LINE
  5
AE12
  8
0
 10
-32.6652297002193777
 20
-85.5538247406140044
 30
0.0
 11
-32.6504263071706475
 21
-85.5538247394140114
 31
0.0
  0
LINE
  5
AE13
  8
0
 10
-32.6681846937437186
 20
-85.3845332744139967
 30
0.0
 11
-32.6519036913395766
 21
-85.3845332744139967
 31
0.0
  0
LINE
  5
AE14
  8
0
 10
-32.6582502691395788
 20
-85.3846440542139931
 30
0.0
 11
-32.6577024372395783
 21
-85.4160293374139883
 31
0.0
  0
LINE
  5
AE15
  8
0
 10
-32.6516288294115
 20
-85.4160293374139883
 30
0.0
 11
-32.6676338703987099
 21
-85.4160899228212571
 31
0.0
  0
LINE
  5
AE16
  8
0
 10
-31.9074246143425206
 20
-85.6719348492140256
 30
0.0
 11
-31.9074245117895785
 21
-85.9790218273640079
 31
0.0
  0
LINE
  5
AE17
  8
0
 10
-31.9074245117895785
 20
-85.9790218273640079
 30
0.0
 11
-31.8601805837896812
 21
-86.0262657168640033
 31
0.0
  0
LINE
  5
AE18
  8
0
 10
-31.8601805837896812
 20
-86.0262657168640033
 30
0.0
 11
-31.8601803855905317
 21
-86.0459505070140125
 31
0.0
  0
LINE
  5
AE19
  8
0
 10
-31.1278971377895708
 20
-86.0459505070140125
 30
0.0
 11
-31.1278970749895301
 21
-86.0262657168640033
 31
0.0
  0
LINE
  5
AE1A
  8
0
 10
-31.1278970749895301
 20
-86.0262657168640033
 30
0.0
 11
-31.0806530562895809
 21
-85.9790215513639993
 31
0.0
  0
LINE
  5
AE1B
  8
0
 10
-31.0806530562895809
 20
-85.9790215513639993
 30
0.0
 11
-31.0806531588420292
 21
-85.6719348492140256
 31
0.0
  0
LINE
  5
AE1C
  8
0
 10
-29.1626671091395799
 20
-85.2073679200517233
 30
0.0
 11
-29.1627467041190904
 21
-85.3074932231298675
 31
0.0
  0
ARC
  5
AE1D
  8
0
 10
-29.1823492767017783
 20
-85.3058022565883647
 30
0.0
 40
0.0196753708911469
 50
269.9916373237343237
 51
355.0697288164553242
  0
LINE
  5
AE1E
  8
0
 10
-29.1823521484448314
 20
-85.3254776272699473
 30
0.0
 11
-29.5785759525584702
 21
-85.3254781563140057
 31
0.0
  0
LINE
  5
AE1F
  8
0
 10
-29.969753723239581
 20
-85.6325613358007445
 30
0.0
 11
-29.969753723239581
 21
-85.6719348492140256
 31
0.0
  0
LINE
  5
AE20
  8
0
 10
-29.969753723239581
 20
-85.6719348492140256
 30
0.0
 11
-31.9382576603395698
 21
-85.6719348492140256
 31
0.0
  0
LINE
  5
AE21
  8
0
 10
-31.9382576603395698
 20
-85.6719348492140256
 30
0.0
 11
-31.9382576603395698
 21
-85.6325407842691959
 31
0.0
  0
ARC
  5
AE22
  8
0
 10
-36.9867980932872698
 20
933.7245298023136684
 30
0.0
 40
1018.672234226080036
 50
269.3567402720407244
 51
269.4083423735017959
  0
ARC
  5
AE23
  8
0
 10
-14.0783706545747496
 20
2974.1150637132809607
 30
0.0
 40
3059.1913659475148961
 50
269.3508479942503868
 51
269.3567402720407244
  0
ARC
  5
AE24
  8
0
 10
-48.2153164486199586
 20
-38.7682231337203831
 30
0.0
 40
46.1146939675047207
 50
269.1089467049844757
 51
269.3508479942498752
  0
ARC
  5
AE25
  8
0
 10
-48.9788307030185806
 20
-83.7231387784305099
 30
0.0
 40
1.1510844245291421
 50
267.0375682577973748
 51
267.7059505169377189
  0
ARC
  5
AE26
  8
0
 10
-49.5349744539196735
 20
-97.6058648175371957
 30
0.0
 40
12.7427767432152894
 50
87.2898593824390048
 51
87.7059505169376763
  0
LINE
  5
AE27
  8
0
 10
-48.7377773543209969
 20
-84.8799573704475989
 30
0.0
 11
-48.746318823039573
 21
-85.0353863739139939
 31
0.0
  0
ARC
  5
AE28
  8
0
 10
-48.6867324992385804
 20
-85.0386608896700835
 30
0.0
 40
0.0596762300883148
 50
176.8545230149777865
 51
196.8119699852178996
  0
ARC
  5
AE29
  8
0
 10
-48.7120757611549777
 20
-85.046318249156883
 30
0.0
 40
0.0332014103746053
 50
196.8119699852178996
 51
231.8862570565815133
  0
ARC
  5
AE2A
  8
0
 10
-48.7193744666504713
 20
-85.0556220365885167
 30
0.0
 40
0.0213763707348225
 50
231.8862570565844123
 51
276.1554046980845101
  0
LINE
  5
AE2B
  8
0
 10
-48.7170823737395722
 20
-85.076875166614002
 30
0.0
 11
-46.3898209430722872
 21
-85.1192364232230148
 31
0.0
  0
ARC
  5
AE2C
  8
0
 10
-35.5166219876315807
 20
495.7176457959474192
 30
0.0
 40
580.9386458152108617
 50
268.9275549260011076
 51
269.1028020283725937
  0
ARC
  5
AE2D
  8
0
 10
-43.2993554966736482
 20
-1.2533119988663941
 30
0.0
 40
83.906751635001001
 50
269.1028020283725937
 51
269.8124541660558862
  0
ARC
  5
AE2E
  8
0
 10
-43.3814035557277293
 20
-26.319135177175621
 30
0.0
 40
58.8407941729318793
 50
269.8124541660558862
 51
270.8284852316277238
  0
ARC
  5
AE2F
  8
0
 10
-43.1824655555256882
 20
-40.0761859278096892
 30
0.0
 40
45.0823050958767126
 50
270.8284852316277238
 51
271.9442453931251862
  0
ARC
  5
AE30
  8
0
 10
-42.8760488151074668
 20
-49.1026426323262015
 30
0.0
 40
36.0506489987193675
 50
271.9442453931251862
 51
272.4616694801596282
  0
ARC
  5
AE31
  8
0
 10
-43.1969950057535925
 20
-73.6457444188674657
 30
0.0
 40
11.5273815014226297
 50
273.3220880390392153
 51
275.8915155721541055
  0
ARC
  5
AE32
  8
0
 10
-43.599968179414347
 20
-57.9221640561934876
 30
0.0
 40
27.2363029337614684
 50
273.3387148235576092
 51
274.7806119567738961
  0
ARC
  5
AE33
  8
0
 10
-43.6053202653167205
 20
-57.7388492975309191
 30
0.0
 40
27.4194278113862211
 50
274.759832707385101
 51
277.0151002739779074
  0
ARC
  5
AE34
  8
0
 10
-43.6245248716083225
 20
-57.5713855772697372
 30
0.0
 40
27.5879834094137095
 50
277.0122100246766763
 51
280.3337123243525184
  0
ARC
  5
AE35
  8
0
 10
-41.8106300599905367
 20
-67.5193282056978035
 30
0.0
 40
17.476021338375741
 50
280.3337123243525184
 51
284.0187946050137953
  0
LINE
  5
AE36
  8
0
 10
-40.2565602054161289
 20
-84.953015233032886
 30
0.0
 11
-40.2668301316420312
 21
-85.3239634340843196
 31
0.0
  0
ARC
  5
AE37
  8
0
 10
-40.384868418964821
 20
-85.3198414458386907
 30
0.0
 40
0.1181102369026373
 50
313.5000000946891987
 51
357.9999997950100123
  0
ARC
  5
AE38
  8
0
 10
-40.3848684179922728
 20
-85.3198414468635633
 30
0.0
 40
0.1181102354897614
 50
282.7658568629361753
 51
313.5000000946901082
  0
ARC
  5
AE39
  8
0
 10
-40.3866698754133893
 20
-85.3118903739654542
 30
0.0
 40
0.1262628307250899
 50
265.5099195664907938
 51
282.7658568629370848
  0
LINE
  5
AE3A
  8
0
 10
-40.3965545504044314
 20
-85.4377656917328068
 30
0.0
 11
-41.2140539040175398
 21
-85.4234961873853251
 31
0.0
  0
ARC
  5
AE3B
  8
0
 10
-41.2134974768305185
 20
-85.3053648979738028
 30
0.0
 40
0.1181325998581552
 50
180.0060063164607982
 51
269.7301248994787102
  0
LINE
  5
AE3C
  8
0
 10
-41.3316300760395734
 20
-85.3053772818140033
 30
0.0
 11
-41.330569076239577
 21
-85.1200718425139939
 31
0.0
  0
LINE
  5
AE3D
  8
0
 10
-41.3279180657187695
 20
-85.0635852087729063
 30
0.0
 11
-41.3280347849076293
 21
-85.0702720466199338
 31
0.0
  0
LINE
  5
AE3E
  8
0
 10
-41.3280347849076293
 20
-85.0702720466199338
 30
0.0
 11
-41.3275987491395682
 21
-85.1200217279140077
 31
0.0
  0
ARC
  5
AE3F
  8
0
 10
-41.2100291363820332
 20
-85.1085866274445237
 30
0.0
 40
0.1181244063126056
 50
185.5552504073262128
 51
271.6285886687153948
  0
LINE
  5
AE40
  8
0
 10
-41.2066719926678999
 20
-85.2266633184245279
 30
0.0
 11
-40.3814329052395706
 21
-85.2411312699140069
 31
0.0
  0
ARC
  5
AE41
  8
0
 10
-40.3814329052395706
 20
-85.123021033714025
 30
0.0
 40
0.1181102361999917
 50
269.9999999999984084
 51
331.1118094443421001
  0
ARC
  5
AE42
  8
0
 10
-40.3978110441829799
 20
-85.1139842192529557
 30
0.0
 40
0.1368160494903384
 50
331.1118094443421001
 51
356.527936804657088
  0
LINE
  5
AE43
  8
0
 10
-46.3898209430728485
 20
-85.1192364232231284
 30
0.0
 11
-46.3921850908395683
 21
-85.3942373070139951
 31
0.0
  0
ARC
  5
AE44
  8
0
 10
-46.2740748546395722
 20
-85.3942373070139951
 30
0.0
 40
0.1181102361999997
 50
180.0000000000121929
 51
268.9999999999993747
  0
LINE
  5
AE45
  8
0
 10
-46.2761361624861394
 20
-85.5123295544529611
 30
0.0
 11
-45.2052532811346381
 21
-85.5310218846774717
 31
0.0
  0
ARC
  5
AE46
  8
0
 10
-45.2032282619958821
 20
-85.4150086159162214
 30
0.0
 40
0.1160309408355489
 50
268.9999999999993747
 51
359.0088821601119093
  0
LINE
  5
AE47
  8
0
 10
-45.0872146807042284
 20
-85.4170156503128766
 30
0.0
 11
-45.078940022794562
 21
-85.142296251535754
 31
0.0
  0
ARC
  5
AE48
  8
0
 10
-46.2713126677729392
 20
-85.1188075150559484
 30
0.0
 40
0.1160621840442077
 50
180.2343489792899049
 51
197.4088291969418094
  0
ARC
  5
AE49
  8
0
 10
-46.2661637650429967
 20
-85.1171930753463784
 30
0.0
 40
0.1214582580705832
 50
197.4088291969426052
 51
259.6815391430193927
  0
LINE
  5
AE4A
  8
0
 10
-46.2879192730395701
 20
-85.2366870347139951
 30
0.0
 11
-45.2564188377369092
 21
-85.2544962552665169
 31
0.0
  0
ARC
  5
AE4B
  8
0
 10
-45.2286677801432404
 20
-85.0140639122209762
 30
0.0
 40
0.2420285784364716
 50
263.4159707486205093
 51
290.8997128448135072
  0
ARC
  5
AE4C
  8
0
 10
-45.2001527809437889
 20
-85.1376935454994168
 30
0.0
 40
0.1176639822533627
 50
299.4352004968424126
 51
340.9473169948029181
  0
ARC
  5
AE4D
  8
0
 10
-45.1978084765529502
 20
-85.137650064028179
 30
0.0
 40
0.1154651113371632
 50
340.5471799517436011
 51
357.7224337654658939
  0
LINE
  5
AE4E
  8
0
 10
-49.044022982894667
 20
-84.6653538497128437
 30
0.0
 11
-45.2598071675762768
 21
-84.6946067314143249
 31
0.0
  0
ARC
  5
AE4F
  8
0
 10
-43.8747985785950902
 20
94.4730889594238334
 30
0.0
 40
179.173048832563893
 50
269.5570989188345834
 51
270.5026708039462164
  0
ARC
  5
AE50
  8
0
 10
-42.1397034393240304
 20
-61.9647585762072524
 30
0.0
 40
22.7288916576272406
 50
269.5886379380140738
 51
279.2652199107897104
  0
ARC
  5
AE51
  8
0
 10
-42.0986047365166485
 20
-63.8365097773516723
 30
0.0
 40
20.8765719852962803
 50
279.9809998300156053
 51
285.752113267594325
  0
ARC
  5
AE52
  8
0
 10
-46.2721344558073611
 20
-49.8890476154207434
 30
0.0
 40
35.4340022910955383
 50
286.1246552263730223
 51
290.6270746453205902
  0
ARC
  5
AE53
  8
0
 10
-27.3367422286906105
 20
-100.0521926865116029
 30
0.0
 40
18.1840454309906008
 50
103.7097082707142022
 51
110.7840961462890021
  0
ARC
  5
AE54
  8
0
 10
-26.6877938674751114
 20
-105.6758784413686953
 30
0.0
 40
23.8116702876994886
 50
96.1205000125628146
 51
102.0194165485893052
  0
ARC
  5
AE55
  8
0
 10
-25.3371407761041887
 20
-111.9445500966652958
 30
0.0
 40
30.197319010516761
 50
95.8397944393789061
 51
97.3025546400191246
  0
ARC
  5
AE56
  8
0
 10
-34.2345276914946695
 20
-85.8641183339714047
 30
0.0
 40
0.3936296468149037
 50
249.9992229059882902
 51
270.0028067512022858
  0
ARC
  5
AE58
  8
0
 10
-46.0287943907025081
 20
-85.1230162087930893
 30
0.0
 40
0.1680119410901147
 50
338.876892197849827
 51
357.9940701748673746
  0
ARC
  5
AE59
  8
0
 10
-45.9724002908346989
 20
-85.1456389365769013
 30
0.0
 40
0.1072572714798613
 50
305.6620024561157152
 51
339.2934327800169854
  0
ARC
  5
AE5A
  8
0
 10
-45.9408112094259522
 20
-85.1896613734395203
 30
0.0
 40
0.0530738329439805
 50
271.8056800090018896
 51
305.6620024561190121
  0
LINE
  5
AE5B
  8
0
 10
-40.8777649881395675
 20
-85.0222212515140114
 30
0.0
 11
-40.8787406085201468
 21
-85.0781145056459138
 31
0.0
  0
ARC
  5
AE5C
  8
0
 10
-40.6099036097292583
 20
-85.0828070729180581
 30
0.0
 40
0.2688779502050993
 50
178.9999999993295887
 51
198.9901685024319988
  0
ARC
  5
AE5D
  8
0
 10
-40.774546983352927
 20
-85.1394667336435589
 30
0.0
 40
0.094757998356632
 50
198.9901685024310893
 51
268.9478965389520795
  0
LINE
  5
AE5E
  8
0
 10
-31.1278971377899687
 20
-86.0459506292639844
 30
0.0
 11
-31.8601803855892989
 21
-86.0459506292639844
 31
0.0
  0
LINE
  5
AE5F
  8
0
 10
-31.1278970749895407
 20
-86.0262657168140237
 30
0.0
 11
-31.8601805838396714
 21
-86.0262657168140237
 31
0.0
  0
LINE
  5
AE60
  8
0
 10
-31.0806530562895382
 20
-85.9790216203140147
 30
0.0
 11
-31.9074247188397493
 21
-85.9790216203140147
 31
0.0
  0
ENDSEC
  0
EOF
