  0
SECTION
  2
HEADER
  9
$ACADVER
  1
AC1009
  9
$INSBASE
 10
-42.0858044530381221
 20
-55.300429338724669
 30
0.0
  9
$EXTMIN
 10
-51.2915613012430001
 20
-75.9815192323641355
 30
-0.0000000000112498
  9
$EXTMAX
 10
-34.3327610795363682
 20
-55.2913631703839599
 30
0.0000000000002956
  9
$LIMMIN
 10
0.0
 20
0.0
  9
$LIMMAX
 10
11.6929133858000007
 20
8.2677165353999982
  9
$ORTHOMODE
 70
     0
  9
$REGENMODE
 70
     1
  9
$FILLMODE
 70
     1
  9
$QTEXTMODE
 70
     0
  9
$MIRRTEXT
 70
     0
  9
$DRAGMODE
 70
     2
  9
$LTSCALE
 40
0.6431102362
  9
$OSMODE
 70
   575
  9
$ATTMODE
 70
     1
  9
$TEXTSIZE
 40
0.2
  9
$TRACEWID
 40
0.05
  9
$TEXTSTYLE
  7
STANDARD
  9
$CLAYER
  8
0
  9
$CELTYPE
  6
BYLAYER
  9
$CECOLOR
 62
   256
  9
$DIMSCALE
 40
1.0
  9
$DIMASZ
 40
0.1875
  9
$DIMEXO
 40
0.0625
  9
$DIMDLI
 40
0.4443307087
  9
$DIMRND
 40
0.0
  9
$DIMDLE
 40
0.0
  9
$DIMEXE
 40
0.125
  9
$DIMTP
 40
0.01
  9
$DIMTM
 40
0.01
  9
$DIMTXT
 40
1.0
  9
$DIMCEN
 40
0.1052362205
  9
$DIMTSZ
 40
0.0
  9
$DIMTOL
 70
     1
  9
$DIMLIM
 70
     0
  9
$DIMTIH
 70
     1
  9
$DIMTOH
 70
     1
  9
$DIMSE1
 70
     0
  9
$DIMSE2
 70
     0
  9
$DIMTAD
 70
     0
  9
$DIMZIN
 70
     0
  9
$DIMBLK
  1

  9
$DIMASO
 70
     1
  9
$DIMSHO
 70
     1
  9
$DIMPOST
  1
\X
  9
$DIMAPOST
  1

  9
$DIMALT
 70
     1
  9
$DIMALTD
 70
     2
  9
$DIMALTF
 40
25.3999999999999986
  9
$DIMLFAC
 40
1.0
  9
$DIMTOFL
 70
     0
  9
$DIMTVP
 40
0.0
  9
$DIMTIX
 70
     0
  9
$DIMSOXD
 70
     0
  9
$DIMSAH
 70
     0
  9
$DIMBLK1
  1

  9
$DIMBLK2
  1

  9
$DIMSTYLE
  2
STANDARD
  9
$DIMCLRD
 70
     0
  9
$DIMCLRE
 70
     0
  9
$DIMCLRT
 70
     0
  9
$DIMTFAC
 40
1.0
  9
$DIMGAP
 40
0.09
  9
$LUNITS
 70
     2
  9
$LUPREC
 70
     4
  9
$SKETCHINC
 40
0.1
  9
$FILLETRAD
 40
0.0
  9
$AUNITS
 70
     0
  9
$AUPREC
 70
     0
  9
$MENU
  1
.
  9
$ELEVATION
 40
0.0
  9
$PELEVATION
 40
0.0
  9
$THICKNESS
 40
0.0
  9
$LIMCHECK
 70
     0
  9
$BLIPMODE
 70
     0
  9
$CHAMFERA
 40
0.0
  9
$CHAMFERB
 40
0.0
  9
$SKPOLY
 70
     0
  9
$TDCREATE
 40
2458172.4620254631154239
  9
$TDUPDATE
 40
2459383.8048148150555789
  9
$TDINDWG
 40
0.165862419
  9
$TDUSRTIMER
 40
0.165862419
  9
$USRTIMER
 70
     1
  9
$ANGBASE
 50
0.0
  9
$ANGDIR
 70
     0
  9
$PDMODE
 70
     0
  9
$PDSIZE
 40
0.3125
  9
$PLINEWID
 40
0.0
  9
$COORDS
 70
     2
  9
$SPLFRAME
 70
     0
  9
$SPLINETYPE
 70
     6
  9
$SPLINESEGS
 70
     8
  9
$ATTDIA
 70
     1
  9
$ATTREQ
 70
     1
  9
$HANDLING
 70
     1
  9
$HANDSEED
  5
B28A
  9
$SURFTAB1
 70
     6
  9
$SURFTAB2
 70
     6
  9
$SURFTYPE
 70
     6
  9
$SURFU
 70
     6
  9
$SURFV
 70
     6
  9
$UCSNAME
  2

  9
$UCSORG
 10
0.0
 20
0.0
 30
0.0
  9
$UCSXDIR
 10
1.0
 20
0.0
 30
0.0
  9
$UCSYDIR
 10
0.0
 20
1.0
 30
0.0
  9
$PUCSNAME
  2

  9
$PUCSORG
 10
0.0
 20
0.0
 30
0.0
  9
$PUCSXDIR
 10
1.0
 20
0.0
 30
0.0
  9
$PUCSYDIR
 10
0.0
 20
1.0
 30
0.0
  9
$USERI1
 70
     0
  9
$USERI2
 70
     0
  9
$USERI3
 70
     0
  9
$USERI4
 70
     0
  9
$USERI5
 70
     0
  9
$USERR1
 40
0.0
  9
$USERR2
 40
0.0
  9
$USERR3
 40
0.0
  9
$USERR4
 40
0.0
  9
$USERR5
 40
0.0
  9
$WORLDVIEW
 70
     1
  9
$SHADEDGE
 70
     3
  9
$SHADEDIF
 70
    70
  9
$TILEMODE
 70
     1
  9
$MAXACTVP
 70
    64
  9
$PLIMCHECK
 70
     0
  9
$PEXTMIN
 10
1.0000000000000000E+20
 20
1.0000000000000000E+20
 30
1.0000000000000000E+20
  9
$PEXTMAX
 10
-1.0000000000000000E+20
 20
-1.0000000000000000E+20
 30
-1.0000000000000000E+20
  9
$PLIMMIN
 10
0.0
 20
0.0
  9
$PLIMMAX
 10
12.0
 20
9.0
  9
$UNITMODE
 70
     0
  9
$VISRETAIN
 70
     1
  9
$PLINEGEN
 70
     0
  9
$PSLTSCALE
 70
     1
  0
ENDSEC
  0
SECTION
  2
TABLES
  0
TABLE
  2
VPORT
 70
     1
  0
VPORT
  2
*ACTIVE
 70
     0
 10
0.0
 20
0.0
 11
1.0
 21
1.0
 12
-165.9461558649329049
 22
-68.9574351058689956
 13
0.0
 23
0.0
 14
1.0
 24
1.0
 15
0.0
 25
0.0
 16
0.0
 26
0.0
 36
30.6214257250603907
 17
124.6111586000725993
 27
5.3122741703778242
 37
0.0
 40
29.2817512038392884
 41
2.4038155802861678
 42
50.0
 43
0.0
 44
0.0
 50
0.0
 51
0.0
 71
     0
 72
   100
 73
     1
 74
     1
 75
     0
 76
     0
 77
     0
 78
     0
  0
ENDTAB
  0
TABLE
  2
LTYPE
 70
     2
  0
LTYPE
  2
CONTINUOUS
 70
     0
  3
Solid line
 72
    65
 73
     0
 40
0.0
  0
LTYPE
  2
PHANTOM2
 70
     0
  3
___ _ _ ___ _ _ ___ _ _ ___ _ _
 72
    65
 73
     6
 40
1.25
 49
0.625
 49
-0.125
 49
0.125
 49
-0.125
 49
0.125
 49
-0.125
  0
ENDTAB
  0
TABLE
  2
LAYER
 70
     2
  0
LAYER
  2
0
 70
     0
 62
   255
  6
CONTINUOUS
  0
LAYER
  2
DEFPOINTS
 70
     0
 62
     7
  6
CONTINUOUS
  0
ENDTAB
  0
TABLE
  2
STYLE
 70
     1
  0
STYLE
  2
STANDARD
 70
     0
 40
0.0
 41
0.8
 50
0.0
 71
     0
 42
0.2
  3
txt
  4

  0
ENDTAB
  0
TABLE
  2
VIEW
 70
     1
  0
ENDTAB
  0
TABLE
  2
UCS
 70
     0
  0
ENDTAB
  0
TABLE
  2
APPID
 70
     9
  0
APPID
  2
ACAD
 70
     0
  0
APPID
  2
ACAD_MLEADERVER
 70
     0
  0
APPID
  2
ACAD_EXEMPT_FROM_CAD_STANDARDS
 70
     0
  0
APPID
  2
ACAD_DSTYLE_DIMJAG
 70
     0
  0
APPID
  2
ACAD_DSTYLE_DIMTALN
 70
     0
  0
APPID
  2
ACAD_NAV_VCDISPLAY
 70
     0
  0
APPID
  2
ACAECLAYERSTANDARD
 70
     0
  0
APPID
  2
ACCMTRANSPARENCY
 70
     0
  0
APPID
  2
ACDBATTR
 70
     0
  0
ENDTAB
  0
TABLE
  2
DIMSTYLE
 70
     1
  0
DIMSTYLE
  2
STANDARD
 70
     0
  3

  4

  5

  6

  7

 40
1.0
 41
0.1875
 42
0.0625
 43
0.38
 44
0.125
 45
0.0
 46
0.0
 47
0.01
 48
0.01
140
0.15625
141
0.09
142
0.0
143
25.3999999999999986
144
1.0
145
0.0
146
1.0
147
0.09
 71
     1
 72
     0
 73
     1
 74
     1
 75
     0
 76
     0
 77
     0
 78
     4
170
     0
171
     2
172
     0
173
     0
174
     0
175
     0
176
     0
177
     0
178
     0
  0
ENDTAB
  0
ENDSEC
  0
SECTION
  2
BLOCKS
  0
BLOCK
  8
0
  2
$MODEL_SPACE
 70
     0
 10
0.0
 20
0.0
 30
0.0
  3
$MODEL_SPACE
  1

  0
ENDBLK
  5
21
  8
0
  0
BLOCK
 67
     1
  8
0
  2
$PAPER_SPACE
 70
     0
 10
0.0
 20
0.0
 30
0.0
  3
$PAPER_SPACE
  1

  0
ENDBLK
  5
1D
 67
     1
  8
0
  0
BLOCK
  8
0
  2
_FILLED
 70
     0
 10
0.0
 20
0.0
 30
0.0
  3
_FILLED
  1

  0
SOLID
  5
9844
  8
0
  6
BYBLOCK
 62
     0
 10
0.0
 20
0.0
 30
0.0
 11
-1.0
 21
0.1666666667
 31
0.0
 12
-1.0
 22
-0.1666666667
 32
0.0
 13
-1.0
 23
-0.1666666667
 33
0.0
  0
ENDBLK
  5
9845
  8
0
  6
BYBLOCK
 62
     0
  0
ENDSEC
  0
SECTION
  2
ENTITIES
  0
ATTDEF
  5
A8E4
  8
DEFPOINTS
 10
-42.0859249578219234
 20
-55.2968216207846197
 30
0.0
 40
0.001
  1
K-18751TW
  3

  2
MODELNUMBER
 70
     0
1001
ACDBATTR
1070
     0
1070
     1
  0
ATTDEF
  5
A8E5
  8
DEFPOINTS
 10
-42.0859249578219234
 20
-55.298488287451292
 30
0.0
 40
0.001
  1
C3-040
  3

  2
TRADENAME
 70
     0
1001
ACDBATTR
1070
     0
1070
     1
  0
ATTDEF
  5
A8E6
  8
DEFPOINTS
 10
-42.0859249578219234
 20
-55.30015495411795
 30
0.0
 40
0.001
  1
TOILET SEAT
  3

  2
PRODUCT
 70
     0
1001
ACDBATTR
1070
     0
1070
     1
  0
ARC
  5
B13C
  8
0
 10
-42.1954697024465801
 20
-77.082684346502532
 30
0.0
 40
21.7825310671370609
 50
89.7115402946056264
 51
95.6231216407473852
  0
ARC
  5
B13D
  8
0
 10
-43.3627234615894466
 20
-65.2162852177668242
 30
0.0
 40
9.8588610359547335
 50
95.6294359180840843
 51
105.3741521796972052
  0
ARC
  5
B13E
  8
0
 10
-44.4792271761691325
 20
-61.1556898513567901
 30
0.0
 40
5.6475648846040789
 50
105.3741521796972052
 51
117.1055647404872957
  0
ARC
  5
B13F
  8
0
 10
-43.1083431102720596
 20
-61.1624969721369069
 30
0.0
 40
6.7403709815454196
 50
156.2809572979261077
 51
169.3338326894532031
  0
ARC
  5
B140
  8
0
 10
-21.5913693522508083
 20
-63.0392765414794098
 30
0.0
 40
28.3137938987250806
 50
173.6647053073727136
 51
178.9554152700117982
  0
ARC
  5
B141
  8
0
 10
-23.0449332357050913
 20
-62.5448028448030584
 30
0.0
 40
26.855533364521829
 50
179.95370553424371
 51
186.1171805489526037
  0
ARC
  5
B142
  8
0
 10
-28.9564326846108209
 20
-63.0235106977283905
 30
0.0
 40
20.9272479561285785
 50
186.5387057574837968
 51
192.9446579102379928
  0
ARC
  5
B143
  8
0
 10
-31.0458110906308704
 20
-63.6276251010890306
 30
0.0
 40
18.7560281082864293
 50
192.5758785444124044
 51
207.1580936707127876
  0
ARC
  5
B144
  8
0
 10
-37.9613795987810221
 20
-66.6887864608473819
 30
0.0
 40
11.2139988026261292
 50
209.3705792728912911
 51
218.9538175914370868
  0
ARC
  5
B145
  8
0
 10
-41.5078943695285716
 20
-69.5559674291853014
 30
0.0
 40
6.653462241613842
 50
218.9538175914370868
 51
233.768503513153604
  0
ARC
  5
B146
  8
0
 10
-42.24816401697705
 20
-70.5662518805046659
 30
0.0
 40
5.4009951468320327
 50
233.7685035131528934
 51
251.8214986707735932
  0
ARC
  5
B147
  8
0
 10
-42.2708698372940717
 20
-70.635399459473291
 30
0.0
 40
5.3282150537193571
 50
251.8214986707735932
 51
263.192204071140111
  0
ARC
  5
B148
  8
0
 10
-41.9995707839022927
 20
-68.362847308890565
 30
0.0
 40
7.616903860326631
 50
263.192204071140111
 51
267.1474860641520195
  0
ARC
  5
B149
  8
0
 10
-42.1521671796481883
 20
-71.4258001996008147
 30
0.0
 40
4.5501521472012509
 50
267.1472199870058262
 51
270.4165923836532102
  0
ARC
  5
B14A
  8
0
 10
-44.6105102298769296
 20
-60.7445187453349789
 30
0.0
 40
5.1997240349503997
 50
131.7659324845214996
 51
140.6708296145718009
  0
ARC
  5
B14B
  8
0
 10
-43.3743524601210524
 20
-62.1287415063154285
 30
0.0
 40
7.0555685014249336
 50
125.8047081059887944
 51
131.7659324845214996
  0
ARC
  5
B14C
  8
0
 10
-45.3178957848140485
 20
-59.4344189074832983
 30
0.0
 40
3.7334103291615812
 50
117.6842797723636949
 51
125.8047081059887944
  0
ARC
  5
B14D
  8
0
 10
-42.0820801047552493
 20
-82.3922628357524758
 30
0.0
 40
26.5010661343591316
 50
90.0798238822486184
 51
92.9463298719612965
  0
ARC
  5
B14E
  8
0
 10
-42.5575896724019174
 20
-73.1534221287327568
 30
0.0
 40
17.2499966308580106
 50
92.9463298719612965
 51
97.4473167398675457
  0
ARC
  5
B14F
  8
0
 10
-43.7731938998101029
 20
-63.8539233633448333
 30
0.0
 40
7.8713842108278467
 50
97.4473167398675457
 51
107.2352667787611011
  0
ARC
  5
B150
  8
0
 10
-44.2751508527258082
 20
-62.2358887612055511
 30
0.0
 40
6.1772777335660249
 50
107.2352667787611011
 51
115.2935916423543006
  0
LINE
  5
B151
  8
0
 10
-46.9243753949759892
 20
-56.0920565352092879
 30
0.0
 11
-46.9143509288631435
 21
-56.6555169148713489
 31
0.0
  0
LINE
  5
B152
  8
0
 10
-46.9143509288631435
 20
-56.6555169148713489
 30
0.0
 11
-46.9201104464631413
 21
-59.4715217937713518
 31
0.0
  0
ARC
  5
B153
  8
0
 10
-45.8204371032988291
 20
-58.4242939120155071
 30
0.0
 40
2.5803121775481079
 50
115.3300069925460036
 51
120.2092062939633053
  0
ARC
  5
B154
  8
0
 10
-44.3231862713854383
 20
-61.2340981209803203
 30
0.0
 40
5.7631295658821919
 50
119.0174723541557995
 51
126.0102830016682987
  0
ARC
  5
B155
  8
0
 10
-45.9823799565460902
 20
-59.0584042435063523
 30
0.0
 40
3.02835036669275
 50
124.8185490618599971
 51
128.142635769874687
  0
ARC
  5
B156
  8
0
 10
-44.123690656513979
 20
-61.7956826324448372
 30
0.0
 40
6.3480270003577743
 50
117.5860211059245017
 51
120.088377040922893
  0
ARC
  5
B157
  8
0
 10
-45.8615562015374607
 20
-58.4694761481186731
 30
0.0
 40
2.5951845804108249
 50
116.6059752092737938
 51
117.5860211059245017
  0
ARC
  5
B158
  8
0
 10
-47.0138679222757503
 20
-56.1689620827141027
 30
0.0
 40
0.0222121229455118
 50
96.0453445336704021
 51
116.6059752092737938
  0
ARC
  5
B159
  8
0
 10
-47.0004412809933783
 20
-56.2957427847099083
 30
0.0
 40
0.1497018130960313
 50
92.7973426402831336
 51
96.0453445336704021
  0
ARC
  5
B15A
  8
0
 10
-47.0060120372396
 20
-56.1658308051604394
 30
0.0
 40
0.0196880645234917
 50
0.0083169686639373
 51
95.0563253869412961
  0
LINE
  5
B15B
  8
0
 10
-46.9863239729235431
 20
-56.1658279472707918
 30
0.0
 11
-46.9861057109631375
 21
-59.3926197163713567
 31
0.0
  0
ARC
  5
B15C
  8
0
 10
-47.0056052835659912
 20
-56.7126985228778935
 30
0.0
 40
0.0194122898862592
 50
5.644307486130077
 51
118.4512802407796954
  0
ARC
  5
B15D
  8
0
 10
-44.6779596512001476
 20
-61.0083951968961884
 30
0.0
 40
4.9052023084036023
 50
118.4512802407796954
 51
135.2313251978092978
  0
ARC
  5
B15E
  8
0
 10
-45.051882564872372
 20
-60.6552600852610624
 30
0.0
 40
4.3910576373008743
 50
135.0666108306596982
 51
157.092408394404714
  0
ARC
  5
B15F
  8
0
 10
-43.060444280940942
 20
-61.2764176182364935
 30
0.0
 40
6.4704068122525582
 50
158.8901915779694036
 51
177.1591357408208012
  0
ARC
  5
B160
  8
0
 10
-17.8154305957300316
 20
-62.6499783349499566
 30
0.0
 40
31.7527013575146384
 50
176.9413824487963041
 51
180.6272365709548069
  0
ARC
  5
B161
  8
0
 10
-24.3325010431424005
 20
-62.7786783572041287
 30
0.0
 40
25.2346776947757583
 50
180.4970242561718123
 51
185.9456375568211968
  0
ARC
  5
B162
  8
0
 10
-29.6432165893698389
 20
-63.2108500458577467
 30
0.0
 40
19.9081273074001217
 50
186.291756532414098
 51
192.2281465947285994
  0
ARC
  5
B163
  8
0
 10
-31.5673178440948483
 20
-63.6975298073989009
 30
0.0
 40
17.9247283403479898
 50
192.0104545238060041
 51
207.2010965117050034
  0
ARC
  5
B164
  8
0
 10
-40.1027661329991574
 20
-67.9237707280035465
 30
0.0
 40
8.4025716743146415
 50
208.1750788296793075
 51
229.9875483748467104
  0
ARC
  5
B165
  8
0
 10
-42.2370264187591786
 20
-70.2881226125016951
 30
0.0
 40
5.2207271295347057
 50
231.2439242018197945
 51
249.808747280570401
  0
ARC
  5
B166
  8
0
 10
-42.2517949117831222
 20
-70.2545749794556968
 30
0.0
 40
5.2471773704259421
 50
250.0865370960501934
 51
262.1520356277554811
  0
ARC
  5
B167
  8
0
 10
-42.1152663017443203
 20
-69.4047605855052439
 30
0.0
 40
6.1077048052878693
 50
261.971809142917607
 51
269.9649653506928075
  0
ARC
  5
B168
  8
0
 10
-49.1190768729599796
 20
-58.4136445058882074
 30
0.0
 40
0.4133042505057527
 50
78.0972772752843838
 51
206.2575722194864056
  0
LINE
  5
B169
  8
0
 10
-49.469885794317392
 20
-58.6006287422763705
 30
0.0
 11
-50.9283954738693367
 21
-58.2967428303218966
 31
0.0
  0
ARC
  5
B16A
  8
0
 10
-50.9328518233362004
 20
-58.3181312151637385
 30
0.0
 40
0.0218477014057261
 50
78.2305917958488237
 51
102.6808037291677067
  0
ARC
  5
B16B
  8
0
 10
-50.2840531555720389
 20
-58.6610416901835023
 30
0.0
 40
0.7482285937709136
 50
150.8706168425200076
 51
183.2436871596966057
  0
ARC
  5
B16C
  8
0
 10
-51.0093191768340333
 20
-58.7010937969022422
 30
0.0
 40
0.0218834406602306
 50
185.9929134686393866
 51
239.4107658939508099
  0
LINE
  5
B16D
  8
0
 10
-51.0204552149631425
 20
-58.7199318867713487
 30
0.0
 11
-49.732106249163138
 21
-58.9883078614713625
 31
0.0
  0
ARC
  5
B16E
  8
0
 10
-49.079601979511402
 20
-60.8564005260594172
 30
0.0
 40
1.9787703316457641
 50
101.1727197257244057
 51
109.2537479882949043
  0
ARC
  5
B16F
  8
0
 10
-49.1082300447445306
 20
-60.7744395625060534
 30
0.0
 40
1.891953480369132
 50
109.2537479882949043
 51
169.6255843594728958
  0
ARC
  5
B170
  8
0
 10
-21.8372484603536599
 20
-64.7658930011318148
 30
0.0
 40
29.4523566989905703
 50
171.5416567589039119
 51
179.9899588878417944
  0
ARC
  5
B171
  8
0
 10
-50.7145091914121977
 20
-64.7416604525339494
 30
0.0
 40
0.575411640062102
 50
181.899315928584798
 51
232.6093268523698896
  0
ARC
  5
B172
  8
0
 10
-50.7145946219800123
 20
-64.6928181079646833
 30
0.0
 40
0.614884680431884
 50
235.3804292366965001
 51
267.5044419745184996
  0
ARC
  5
B173
  8
0
 10
-49.6364029451759521
 20
-56.888721736950167
 30
0.0
 40
8.4906048458109851
 50
262.5223336753987837
 51
269.2297560862033947
  0
ARC
  5
B174
  8
0
 10
-47.364600318222422
 20
-61.0912758596385501
 30
0.0
 40
2.6437744630633802
 50
153.580291935415886
 51
170.8805636296615944
  0
ARC
  5
B175
  8
0
 10
-31.4585749777962214
 20
-63.6445428516985601
 30
0.0
 40
18.7534241942966595
 50
170.8805636296615944
 51
175.3547601634182058
  0
ARC
  5
B176
  8
0
 10
-14.4068446597613598
 20
-65.030044294418758
 30
0.0
 40
35.8613498747164883
 50
175.3547601634182058
 51
178.165926310528306
  0
ARC
  5
B177
  8
0
 10
-4.5485324997846126
 20
-65.345722854760055
 30
0.0
 40
45.7247150001188913
 50
178.165926310528306
 51
179.5611500975815886
  0
ARC
  5
B178
  8
0
 10
-49.6200152813805602
 20
-65.0004966828678903
 30
0.0
 40
0.6519101035800263
 50
179.5611500975807928
 51
199.5227638665697043
  0
ARC
  5
B179
  8
0
 10
-50.0589740674826871
 20
-65.1561364392841256
 30
0.0
 40
0.1861756839012049
 50
199.5227638665697043
 51
251.1928349690242896
  0
ARC
  5
B17A
  8
0
 10
-50.0770694884051082
 20
-65.2092696080753456
 30
0.0
 40
0.1300456751344667
 50
251.1928349690242896
 51
268.1661487862807007
  0
LINE
  5
B17B
  8
0
 10
-50.0812311160992323
 20
-65.3392486774523604
 30
0.0
 11
-49.7542078926190001
 21
-65.3437883028720705
 31
0.0
  0
ARC
  5
B17C
  8
0
 10
-50.6632503819695614
 20
-60.3393072715676695
 30
0.0
 40
0.1159679209639922
 50
132.1403189013092003
 51
155.1794989919131069
  0
ARC
  5
B17D
  8
0
 10
-50.6958437781752309
 20
-60.3032864340888892
 30
0.0
 40
0.0673898373367886
 50
102.867109123001498
 51
132.1403189013092003
  0
ARC
  5
B17E
  8
0
 10
-50.6990726957709725
 20
-60.2891509560546695
 30
0.0
 40
0.0528902632707592
 50
74.268388819263933
 51
102.867109123001498
  0
ARC
  5
B17F
  8
0
 10
-50.701737711476909
 20
-60.2986120108491832
 30
0.0
 40
0.062719498568466
 50
37.8795331112024911
 51
74.2683888192631372
  0
LINE
  5
B180
  8
0
 10
-50.6522329938631373
 20
-60.2601020324713517
 30
0.0
 11
-50.1717387347106225
 21
-60.8332626053409413
 31
0.0
  0
ARC
  5
B181
  8
0
 10
-50.3931292281242023
 20
-61.01911511416818
 30
0.0
 40
0.2890586542750185
 50
352.2064143960981824
 51
40.012728491051611
  0
ARC
  5
B182
  8
0
 10
-29.2303375275264585
 20
-63.9156433329304221
 30
0.0
 40
21.0710356405771115
 50
172.2064143960982108
 51
176.8311164192870137
  0
ARC
  5
B183
  8
0
 10
-10.5859016271060096
 20
-65.2038276444214233
 30
0.0
 40
39.7589941879521618
 50
176.4628264639050883
 51
179.5145221460570042
  0
ARC
  5
B184
  8
0
 10
-50.5302210943056807
 20
-64.8641632666345345
 30
0.0
 40
0.1867732525015752
 50
345.3098730776358138
 51
359.1462321906757893
  0
ARC
  5
B185
  8
0
 10
-50.4155286943502219
 20
-64.883067547548734
 30
0.0
 40
0.0718521193318736
 50
311.456491836751411
 51
336.6661338342731824
  0
ARC
  5
B186
  8
0
 10
-50.423285422993942
 20
-64.8723329506886728
 30
0.0
 40
0.0850424447423676
 50
262.1792712622979025
 51
310.5849834677276249
  0
ARC
  5
B187
  8
0
 10
1504.7865902614089464
 20
11154.2699765342204046
 30
0.0
 40
11326.506892102490383
 50
262.1044237513489179
 51
262.1078910459222016
  0
ARC
  5
B188
  8
0
 10
-51.0868423321712513
 20
-64.7627747428841758
 30
0.0
 40
0.1032533656404076
 50
191.9822532076273944
 51
254.8691001419306019
  0
ARC
  5
B189
  8
0
 10
-10.5370453641472306
 20
-65.1820703878330221
 30
0.0
 40
40.6527475712529025
 50
176.5264876616087122
 51
179.439250070491596
  0
ARC
  5
B18A
  8
0
 10
-29.7556387600638317
 20
-63.9136359922417725
 30
0.0
 40
21.3928513825971791
 50
171.9065536699658026
 51
176.7988828624557129
  0
ARC
  5
B18B
  8
0
 10
-47.5413019156616627
 20
-61.4860223603827691
 30
0.0
 40
3.4440275254218742
 50
162.7875622987355086
 51
170.2331441132579073
  0
ARC
  5
B18C
  8
0
 10
-47.5941526531371935
 20
-61.5169248020289814
 30
0.0
 40
3.4029878982362418
 50
158.877739311600692
 51
162.0272224981310956
  0
LINE
  5
B18D
  8
0
 10
-49.4090109540805997
 20
-58.7678809923070276
 30
0.0
 11
-49.4888998818269812
 21
-58.5483879684453967
 31
0.0
  0
ARC
  5
B18E
  8
0
 10
-49.1189422716737383
 20
-58.4137341839147766
 30
0.0
 40
0.393700742949152
 50
79.1534747849194957
 51
200.0000309741955959
  0
LINE
  5
B18F
  8
0
 10
-49.2020763977806723
 20
-58.3008993121962504
 30
0.0
 11
-49.2836718276873427
 21
-58.0762539922169907
 31
0.0
  0
ARC
  5
B190
  8
0
 10
-49.265078518565808
 20
-58.0695005506082325
 30
0.0
 40
0.0197818127999292
 50
117.1737199549346968
 51
199.9619791116309955
  0
ARC
  5
B191
  8
0
 10
-49.2230000198658075
 20
-58.0730690992222591
 30
0.0
 40
0.0375109359414208
 50
20.0021814995794287
 51
105.3762252046938954
  0
LINE
  5
B192
  8
0
 10
-49.1877517586631399
 20
-58.0602382614713619
 30
0.0
 11
-49.1417465215958416
 21
-58.1912287326861133
 31
0.0
  0
ARC
  5
B193
  8
0
 10
-49.2856894392146074
 20
-58.12200508250789
 30
0.0
 40
0.0177834237850444
 50
292.161842036414896
 51
10.0066172919138108
  0
LINE
  5
B194
  8
0
 10
-49.2789811033631366
 20
-58.1384747027713473
 30
0.0
 11
-49.4492035162387182
 21
-58.2004305931922516
 31
0.0
  0
ARC
  5
B195
  8
0
 10
-49.4092412013529696
 20
-58.2248162028634511
 30
0.0
 40
0.0468150037086429
 50
148.6078189043192879
 51
184.411706239423296
  0
LINE
  5
B196
  8
0
 10
-49.4559174948631508
 20
-58.2284173410713635
 30
0.0
 11
-49.4544263031605524
 21
-58.2495601204981313
 31
0.0
  0
ARC
  5
B197
  8
0
 10
-49.1189187443356801
 20
-58.4137316672376983
 30
0.0
 40
0.3735205734460765
 50
153.926436026610105
 51
197.0037505626187055
  0
ARC
  5
B198
  8
0
 10
-49.4414451816777927
 20
-58.5501210010397486
 30
0.0
 40
0.0440379675676389
 50
141.922978817593588
 51
202.3762488305434886
  0
LINE
  5
B199
  8
0
 10
-49.4821672629869482
 20
-58.5668856865822391
 30
0.0
 11
-49.3009759852045306
 21
-58.5009374583996973
 31
0.0
  0
LINE
  5
B19A
  8
0
 10
-49.4544263031605524
 20
-58.2495601204981313
 30
0.0
 11
-49.3556849119657528
 21
-58.5208498781872706
 31
0.0
  0
ARC
  5
B19B
  8
0
 10
-44.6019233261157098
 20
-60.7600182615454472
 30
0.0
 40
5.2161934674431683
 50
140.5989161042548972
 51
153.7278825659776942
  0
ARC
  5
B19C
  8
0
 10
-46.9080612895236584
 20
-59.3943927259826481
 30
0.0
 40
0.0780645584174139
 50
178.698580949892488
 51
261.1209796295040064
  0
ARC
  5
B19D
  8
0
 10
-46.9065351666722492
 20
-59.3846237078305634
 30
0.0
 40
0.0879520639983808
 50
261.1209796295040064
 51
278.2242989975920864
  0
ARC
  5
B19E
  8
0
 10
-42.261246612584678
 20
-91.5241353461042166
 30
0.0
 40
32.3855281020920032
 50
89.7481948757980348
 51
98.2242989975920437
  0
ARC
  5
B19F
  8
0
 10
-42.0356968225517704
 20
-76.9888662480369419
 30
0.0
 40
21.6884947920285995
 50
84.370564081915532
 51
90.132372408957977
  0
ARC
  5
B1A0
  8
0
 10
-40.8752784977368293
 20
-65.2162852177668242
 30
0.0
 40
9.8588610359547335
 50
74.6258478203027806
 51
84.3705640819159157
  0
ARC
  5
B1A1
  8
0
 10
-39.7587747831571505
 20
-61.1556898513567901
 30
0.0
 40
5.6475648846040789
 50
62.8944352595126475
 51
74.6258478203027806
  0
ARC
  5
B1A2
  8
0
 10
-41.1296588490542305
 20
-61.1624969721369069
 30
0.0
 40
6.7403709815454196
 50
10.6661673105467401
 51
23.7190427020738603
  0
ARC
  5
B1A3
  8
0
 10
-62.6466326070754675
 20
-63.0392765414794098
 30
0.0
 40
28.3137938987250806
 50
1.0445847299881399
 51
6.3352946926272757
  0
ARC
  5
B1A4
  8
0
 10
-61.1930687236212094
 20
-62.5448028448030584
 30
0.0
 40
26.855533364521829
 50
353.8828194510473963
 51
0.0462944657562871
  0
ARC
  5
B1A5
  8
0
 10
-55.2815692747154586
 20
-63.0235106977283905
 30
0.0
 40
20.9272479561285785
 50
347.0553420897612114
 51
353.4612942425160895
  0
ARC
  5
B1A6
  8
0
 10
-53.1921908686954197
 20
-63.6276251010890306
 30
0.0
 40
18.7560281082864293
 50
332.8419063292864735
 51
347.424121455587624
  0
ARC
  5
B1A7
  8
0
 10
-46.2766223605452609
 20
-66.6887864608473819
 30
0.0
 40
11.2139988026261292
 50
321.0461824085621174
 51
330.6294207271087089
  0
ARC
  5
B1A8
  8
0
 10
-42.7301075897977114
 20
-69.5559674291853014
 30
0.0
 40
6.653462241613842
 50
306.2314964868464244
 51
321.0461824085621174
  0
ARC
  5
B1A9
  8
0
 10
-41.9898379423492187
 20
-70.5662518805046659
 30
0.0
 40
5.4009951468320327
 50
288.1785013292263784
 51
306.2314964868464244
  0
ARC
  5
B1AA
  8
0
 10
-41.9671321220322113
 20
-70.635399459473291
 30
0.0
 40
5.3282150537193571
 50
276.807795928859889
 51
288.1785013292263784
  0
ARC
  5
B1AB
  8
0
 10
-42.2384311754239832
 20
-68.362847308890565
 30
0.0
 40
7.616903860326631
 50
272.8525139358480942
 51
276.807795928859889
  0
ARC
  5
B1AC
  8
0
 10
-42.0858873621381235
 20
-71.4243202926325296
 30
0.0
 40
4.551632837210783
 50
269.5821216883231841
 51
272.8525139358480942
  0
ARC
  5
B1AD
  8
0
 10
-39.6274917294493605
 20
-60.7445187453349789
 30
0.0
 40
5.1997240349503997
 50
39.3291703854272612
 51
48.2340675154785217
  0
ARC
  5
B1AE
  8
0
 10
-40.8636494992052235
 20
-62.1287415063154285
 30
0.0
 40
7.0555685014249336
 50
48.2340675154785217
 51
54.1952918940111701
  0
ARC
  5
B1AF
  8
0
 10
-38.9201061745122274
 20
-59.4344189074832983
 30
0.0
 40
3.7334103291615812
 50
54.1952918940111701
 51
62.3157202276362412
  0
ARC
  5
B1B0
  8
0
 10
-42.155921833432842
 20
-82.3922622928502761
 30
0.0
 40
26.5010655910880786
 50
87.0536701133478061
 51
89.920176689349617
  0
ARC
  5
B1B1
  8
0
 10
-41.6804122869243727
 20
-73.1534221287327568
 30
0.0
 40
17.2499966308580106
 50
82.5526832601324401
 51
87.0536701280387177
  0
ARC
  5
B1B2
  8
0
 10
-40.4648080595161872
 20
-63.8539233633448333
 30
0.0
 40
7.8713842108278467
 50
72.7647332212388847
 51
82.5526832601324401
  0
ARC
  5
B1B3
  8
0
 10
-39.9628511066004677
 20
-62.2358887612055511
 30
0.0
 40
6.1772777335660249
 50
64.7064062097393276
 51
72.7647332212388847
  0
LINE
  5
B1B4
  8
0
 10
-37.3136265643503009
 20
-56.0920565352092879
 30
0.0
 11
-37.3236510304631395
 21
-56.6555169148713489
 31
0.0
  0
LINE
  5
B1B5
  8
0
 10
-37.3236510304631395
 20
-56.6555169148713489
 30
0.0
 11
-37.3178915128631417
 21
-59.4715217937713518
 31
0.0
  0
ARC
  5
B1B6
  8
0
 10
-38.417564856027461
 20
-58.4242939120155071
 30
0.0
 40
2.5803121775481079
 50
59.7907937060366521
 51
64.6699930074540248
  0
ARC
  5
B1B7
  8
0
 10
-39.9148156879408589
 20
-61.2340981209803203
 30
0.0
 40
5.7631295658821919
 50
53.9897169983316587
 51
60.9825276458442005
  0
ARC
  5
B1B8
  8
0
 10
-38.2556220027801928
 20
-59.0584042435063523
 30
0.0
 40
3.02835036669275
 50
51.8573642301252704
 51
55.1814509381399674
  0
ARC
  5
B1B9
  8
0
 10
-40.1143113028122968
 20
-61.7956826324448372
 30
0.0
 40
6.3480270003577743
 50
59.9116229590782297
 51
62.4139788940754698
  0
ARC
  5
B1BA
  8
0
 10
-38.3764457577888081
 20
-58.4694761481186731
 30
0.0
 40
2.5951845804108249
 50
62.4139788940754698
 51
63.3940247907261707
  0
ARC
  5
B1BB
  8
0
 10
-37.2241340370505327
 20
-56.1689620827141027
 30
0.0
 40
0.0222121229455118
 50
63.3940247907261707
 51
83.9546554663295836
  0
ARC
  5
B1BC
  8
0
 10
-37.2375606783328976
 20
-56.2957427847099083
 30
0.0
 40
0.1497018130960313
 50
83.9546554663295836
 51
87.2026573597168664
  0
ARC
  5
B1BD
  8
0
 10
-37.2319899220866901
 20
-56.1658308051604394
 30
0.0
 40
0.0196880645234917
 50
84.9436746130586755
 51
179.9916830313360094
  0
LINE
  5
B1BE
  8
0
 10
-37.2516779864027399
 20
-56.1658279472707918
 30
0.0
 11
-37.2518962483631526
 21
-59.3926197163713567
 31
0.0
  0
ARC
  5
B1BF
  8
0
 10
-37.2323966757602918
 20
-56.7126985228778935
 30
0.0
 40
0.0194122898862592
 50
61.5487197592203117
 51
174.3556925138699114
  0
ARC
  5
B1C0
  8
0
 10
-39.5600423081261283
 20
-61.0083951968961884
 30
0.0
 40
4.9052023084036023
 50
44.7686748021907093
 51
61.5487197592203117
  0
ARC
  5
B1C1
  8
0
 10
-39.1861193944539323
 20
-60.6552600852610624
 30
0.0
 40
4.3910576373008743
 50
22.9075916055952895
 51
44.9333891693402734
  0
ARC
  5
B1C2
  8
0
 10
-41.1775576783853268
 20
-61.2764176182364935
 30
0.0
 40
6.4704068122525582
 50
2.8408642591791309
 51
21.1098084220305786
  0
ARC
  5
B1C3
  8
0
 10
-66.4225713635962336
 20
-62.6499783349499566
 30
0.0
 40
31.7527013575146384
 50
359.372763429044312
 51
3.0586175512037208
  0
ARC
  5
B1C4
  8
0
 10
-59.9055009161838825
 20
-62.7786783572041287
 30
0.0
 40
25.2346776947757583
 50
354.0543624431787748
 51
359.502975743828074
  0
ARC
  5
B1C5
  8
0
 10
-54.5947853699564405
 20
-63.2108500458577467
 30
0.0
 40
19.9081273074001217
 50
347.7718534052705763
 51
353.7082434675858167
  0
ARC
  5
B1C6
  8
0
 10
-52.6706841152314382
 20
-63.6975298073989009
 30
0.0
 40
17.9247283403479898
 50
332.798903488295025
 51
347.9895454761939959
  0
ARC
  5
B1C7
  8
0
 10
-44.1352358263271185
 20
-67.9237707280035465
 30
0.0
 40
8.4025716743146415
 50
310.0124516251534033
 51
331.8249211703206925
  0
ARC
  5
B1C8
  8
0
 10
-42.0009755405671115
 20
-70.2881226125016951
 30
0.0
 40
5.2207271295347057
 50
290.191252719429599
 51
308.7560757981801771
  0
ARC
  5
B1C9
  8
0
 10
-41.9862070475431608
 20
-70.2545749794556968
 30
0.0
 40
5.2471773704259421
 50
277.8479643722445189
 51
289.9134629039497781
  0
ARC
  5
B1CA
  8
0
 10
-42.1227356575819485
 20
-69.4047605855052439
 30
0.0
 40
6.1077048052878693
 50
270.0350346493071925
 51
278.028190857082393
  0
ARC
  5
B1CB
  8
0
 10
-39.6360786332105732
 20
-60.7600182615454472
 30
0.0
 40
5.2161934674431683
 50
26.2721174340222916
 51
39.4010838957451526
  0
ARC
  5
B1CC
  8
0
 10
-37.3299406698026317
 20
-59.3943927259826481
 30
0.0
 40
0.0780645584174139
 50
278.8790203704950272
 51
1.3014190501074701
  0
ARC
  5
B1CD
  8
0
 10
-37.3314667926540267
 20
-59.3846237078305634
 30
0.0
 40
0.0879520639983808
 50
261.7757010024079136
 51
278.8790203704950272
  0
ARC
  5
B1CE
  8
0
 10
-41.9767553467415979
 20
-91.5241353461042166
 30
0.0
 40
32.3855281020920032
 50
81.7757010024079563
 51
90.2518051242019652
  0
LINE
  5
B1CF
  8
0
 10
-46.9863239748631401
 20
-56.5470847403713606
 30
0.0
 11
-46.9615208233631378
 21
-56.5470847403713606
 31
0.0
  0
ARC
  5
B1D0
  8
0
 10
-46.9615208233631378
 20
-56.5667857059966721
 30
0.0
 40
0.019700965625308
 50
357.6960225804754145
 51
89.9999999999934914
  0
LINE
  5
B1D1
  8
0
 10
-46.941835783864569
 20
-56.5675777075808028
 30
0.0
 11
-46.9419153644932834
 21
-57.1453747158028023
 31
0.0
  0
ARC
  5
B1D2
  8
0
 10
-46.96227471480708
 20
-57.1439399027158501
 30
0.0
 40
0.0204098464912027
 50
272.1168520997701989
 51
355.9687791255785214
  0
LINE
  5
B1D3
  8
0
 10
-46.9615208233631378
 20
-57.1643358209713526
 30
0.0
 11
-46.9862564547457424
 21
-57.1640188367095092
 31
0.0
  0
LINE
  5
B1D4
  8
0
 10
-46.9143522379877211
 20
-56.6579916135518076
 30
0.0
 11
-46.9418357839631426
 21
-56.6980710201713407
 31
0.0
  0
LINE
  5
B1D5
  8
0
 10
-46.9418971357952373
 20
-57.0130248291159702
 30
0.0
 11
-46.9151637229073586
 21
-57.0529168627576411
 31
0.0
  0
LINE
  5
B1D6
  8
0
 10
-37.2516783036631409
 20
-56.4871472211713481
 30
0.0
 11
-37.3209471786919735
 21
-56.4871472211713623
 31
0.0
  0
LINE
  5
B1D7
  8
0
 10
-37.2517099930948206
 20
-56.6390159015713479
 30
0.0
 11
-37.3233783043199594
 21
-56.6390159015713479
 31
0.0
  0
LINE
  5
B1D8
  8
0
 10
-37.2517392862451118
 20
-57.0720867677713599
 30
0.0
 11
-37.3232350044814183
 21
-57.0720867677713599
 31
0.0
  0
LINE
  5
B1D9
  8
0
 10
-37.251800159053488
 20
-57.9720323041713499
 30
0.0
 11
-37.3220867480350194
 21
-57.9720323041713499
 31
0.0
  0
ARC
  5
B1DA
  8
0
 10
-42.8596237790325176
 20
-84.3882257514317757
 30
0.0
 40
25.6639921255389289
 50
93.4775930915545814
 51
99.1014735483569495
  0
ARC
  5
B1DB
  8
0
 10
-42.4454429512924207
 20
-91.2037630084338673
 30
0.0
 40
32.49210268847294
 50
89.4243507082601354
 51
93.4775930915545814
  0
ARC
  5
B1DC
  8
0
 10
-42.7002142472923083
 20
-116.5609189165824944
 30
0.0
 40
57.8505384478691198
 50
86.5978410640336875
 51
89.4243507082601354
  0
ARC
  5
B1DD
  8
0
 10
-40.2300059818617228
 20
-75.0090305893609468
 30
0.0
 40
16.2252894704456594
 50
79.6636452581917354
 51
86.5978410640328917
  0
ENDSEC
  0
EOF
