  0
SECTION
  2
HEADER
  9
$ACADVER
  1
AC1009
  9
$INSBASE
 10
4381.8407208648886808
 20
299.0259247672370861
 30
0.0
  9
$EXTMIN
 10
4360.3756284169940045
 20
280.1153064551833722
 30
-0.0000000000112498
  9
$EXTMAX
 10
4403.1890303261880035
 20
300.2611704292440891
 30
0.0000000000002956
  9
$LIMMIN
 10
0.0
 20
0.0
  9
$LIMMAX
 10
11.6929133858000007
 20
8.2677165353999982
  9
$ORTHOMODE
 70
     0
  9
$REGENMODE
 70
     1
  9
$FILLMODE
 70
     1
  9
$QTEXTMODE
 70
     0
  9
$MIRRTEXT
 70
     0
  9
$DRAGMODE
 70
     2
  9
$LTSCALE
 40
0.6431102362
  9
$OSMODE
 70
   575
  9
$ATTMODE
 70
     1
  9
$TEXTSIZE
 40
0.2
  9
$TRACEWID
 40
0.05
  9
$TEXTSTYLE
  7
STANDARD
  9
$CLAYER
  8
0
  9
$CELTYPE
  6
BYLAYER
  9
$CECOLOR
 62
   256
  9
$DIMSCALE
 40
1.0
  9
$DIMASZ
 40
0.1875
  9
$DIMEXO
 40
0.0625
  9
$DIMDLI
 40
0.4443307087
  9
$DIMRND
 40
0.0
  9
$DIMDLE
 40
0.0
  9
$DIMEXE
 40
0.125
  9
$DIMTP
 40
0.01
  9
$DIMTM
 40
0.01
  9
$DIMTXT
 40
2.0
  9
$DIMCEN
 40
0.1052362205
  9
$DIMTSZ
 40
0.0
  9
$DIMTOL
 70
     1
  9
$DIMLIM
 70
     0
  9
$DIMTIH
 70
     1
  9
$DIMTOH
 70
     1
  9
$DIMSE1
 70
     0
  9
$DIMSE2
 70
     0
  9
$DIMTAD
 70
     0
  9
$DIMZIN
 70
     0
  9
$DIMBLK
  1

  9
$DIMASO
 70
     1
  9
$DIMSHO
 70
     1
  9
$DIMPOST
  1
\X
  9
$DIMAPOST
  1

  9
$DIMALT
 70
     1
  9
$DIMALTD
 70
     2
  9
$DIMALTF
 40
25.3999999999999986
  9
$DIMLFAC
 40
1.0
  9
$DIMTOFL
 70
     0
  9
$DIMTVP
 40
0.0
  9
$DIMTIX
 70
     0
  9
$DIMSOXD
 70
     0
  9
$DIMSAH
 70
     0
  9
$DIMBLK1
  1

  9
$DIMBLK2
  1

  9
$DIMSTYLE
  2
STANDARD
  9
$DIMCLRD
 70
     0
  9
$DIMCLRE
 70
     0
  9
$DIMCLRT
 70
     0
  9
$DIMTFAC
 40
1.0
  9
$DIMGAP
 40
0.09
  9
$LUNITS
 70
     2
  9
$LUPREC
 70
     4
  9
$SKETCHINC
 40
0.1
  9
$FILLETRAD
 40
0.0
  9
$AUNITS
 70
     0
  9
$AUPREC
 70
     0
  9
$MENU
  1
.
  9
$ELEVATION
 40
0.0
  9
$PELEVATION
 40
0.0
  9
$THICKNESS
 40
0.0
  9
$LIMCHECK
 70
     0
  9
$BLIPMODE
 70
     0
  9
$CHAMFERA
 40
0.0
  9
$CHAMFERB
 40
0.0
  9
$SKPOLY
 70
     0
  9
$TDCREATE
 40
2458060.468368056230247
  9
$TDUPDATE
 40
2459389.5244907410815358
  9
$TDINDWG
 40
0.5318010417
  9
$TDUSRTIMER
 40
0.5318010417
  9
$USRTIMER
 70
     1
  9
$ANGBASE
 50
0.0
  9
$ANGDIR
 70
     0
  9
$PDMODE
 70
     0
  9
$PDSIZE
 40
0.3125
  9
$PLINEWID
 40
0.0
  9
$COORDS
 70
     2
  9
$SPLFRAME
 70
     0
  9
$SPLINETYPE
 70
     6
  9
$SPLINESEGS
 70
     8
  9
$ATTDIA
 70
     1
  9
$ATTREQ
 70
     1
  9
$HANDLING
 70
     1
  9
$HANDSEED
  5
216DB
  9
$SURFTAB1
 70
     6
  9
$SURFTAB2
 70
     6
  9
$SURFTYPE
 70
     6
  9
$SURFU
 70
     6
  9
$SURFV
 70
     6
  9
$UCSNAME
  2

  9
$UCSORG
 10
0.0
 20
0.0
 30
0.0
  9
$UCSXDIR
 10
1.0
 20
0.0
 30
0.0
  9
$UCSYDIR
 10
0.0
 20
1.0
 30
0.0
  9
$PUCSNAME
  2

  9
$PUCSORG
 10
0.0
 20
0.0
 30
0.0
  9
$PUCSXDIR
 10
1.0
 20
0.0
 30
0.0
  9
$PUCSYDIR
 10
0.0
 20
1.0
 30
0.0
  9
$USERI1
 70
     0
  9
$USERI2
 70
     0
  9
$USERI3
 70
     0
  9
$USERI4
 70
     0
  9
$USERI5
 70
     0
  9
$USERR1
 40
0.0
  9
$USERR2
 40
0.0
  9
$USERR3
 40
0.0
  9
$USERR4
 40
0.0
  9
$USERR5
 40
0.0
  9
$WORLDVIEW
 70
     1
  9
$SHADEDGE
 70
     3
  9
$SHADEDIF
 70
    70
  9
$TILEMODE
 70
     1
  9
$MAXACTVP
 70
    64
  9
$PLIMCHECK
 70
     0
  9
$PEXTMIN
 10
1.0000000000000000E+20
 20
1.0000000000000000E+20
 30
1.0000000000000000E+20
  9
$PEXTMAX
 10
-1.0000000000000000E+20
 20
-1.0000000000000000E+20
 30
-1.0000000000000000E+20
  9
$PLIMMIN
 10
0.0
 20
0.0
  9
$PLIMMAX
 10
12.0
 20
9.0
  9
$UNITMODE
 70
     0
  9
$VISRETAIN
 70
     1
  9
$PLINEGEN
 70
     0
  9
$PSLTSCALE
 70
     1
  0
ENDSEC
  0
SECTION
  2
TABLES
  0
TABLE
  2
VPORT
 70
     1
  0
VPORT
  2
*ACTIVE
 70
     0
 10
0.0
 20
0.0
 11
1.0
 21
1.0
 12
470.4169729751640716
 22
157.6086332330972937
 13
0.0
 23
0.0
 14
1.0
 24
1.0
 15
0.0
 25
0.0
 16
0.0
 26
0.0
 36
60.4960186965801583
 17
3911.3653564453120453
 27
132.5796051025390057
 37
0.0
 40
30.3032168336486407
 41
2.5405405405405399
 42
50.0
 43
0.0
 44
0.0
 50
0.0
 51
0.0
 71
     0
 72
   100
 73
     1
 74
     1
 75
     0
 76
     0
 77
     0
 78
     0
  0
ENDTAB
  0
TABLE
  2
LTYPE
 70
     2
  0
LTYPE
  2
CONTINUOUS
 70
     0
  3
Solid line
 72
    65
 73
     0
 40
0.0
  0
LTYPE
  2
PHANTOM2
 70
     0
  3
___ _ _ ___ _ _ ___ _ _ ___ _ _
 72
    65
 73
     6
 40
1.25
 49
0.625
 49
-0.125
 49
0.125
 49
-0.125
 49
0.125
 49
-0.125
  0
ENDTAB
  0
TABLE
  2
LAYER
 70
     2
  0
LAYER
  2
0
 70
     0
 62
   255
  6
CONTINUOUS
  0
LAYER
  2
DEFPOINTS
 70
     0
 62
     7
  6
CONTINUOUS
  0
ENDTAB
  0
TABLE
  2
STYLE
 70
     1
  0
STYLE
  2
STANDARD
 70
     0
 40
0.0
 41
0.8
 50
0.0
 71
     0
 42
0.2
  3
txt
  4

  0
ENDTAB
  0
TABLE
  2
VIEW
 70
     1
  0
ENDTAB
  0
TABLE
  2
UCS
 70
     0
  0
ENDTAB
  0
TABLE
  2
APPID
 70
    11
  0
APPID
  2
ACAD
 70
     0
  0
APPID
  2
ACAD_MLEADERVER
 70
     0
  0
APPID
  2
ACAD_EXEMPT_FROM_CAD_STANDARDS
 70
     0
  0
APPID
  2
ACAD_NAV_VCDISPLAY
 70
     0
  0
APPID
  2
ACAECLAYERSTANDARD
 70
     0
  0
APPID
  2
ACCMTRANSPARENCY
 70
     0
  0
APPID
  2
ACAD_DSTYLE_DIMJAG
 70
     0
  0
APPID
  2
ACAD_DSTYLE_DIMTALN
 70
     0
  0
APPID
  2
ACDBATTR
 70
     0
  0
APPID
  2
ACADANNOTATIVE
 70
     0
  0
APPID
  2
DCO15
 70
     0
  0
ENDTAB
  0
TABLE
  2
DIMSTYLE
 70
     1
  0
DIMSTYLE
  2
STANDARD
 70
     0
  3

  4

  5

  6

  7

 40
1.0
 41
0.1875
 42
0.0625
 43
0.38
 44
0.125
 45
0.0
 46
0.0
 47
0.01
 48
0.01
140
0.15625
141
0.09
142
0.0
143
25.3999999999999986
144
1.0
145
0.0
146
1.0
147
0.09
 71
     1
 72
     0
 73
     1
 74
     1
 75
     0
 76
     0
 77
     0
 78
     4
170
     0
171
     2
172
     0
173
     0
174
     0
175
     0
176
     0
177
     0
178
     0
  0
ENDTAB
  0
ENDSEC
  0
SECTION
  2
BLOCKS
  0
BLOCK
  8
0
  2
$MODEL_SPACE
 70
     0
 10
0.0
 20
0.0
 30
0.0
  3
$MODEL_SPACE
  1

  0
ENDBLK
  5
21
  8
0
  0
BLOCK
 67
     1
  8
0
  2
$PAPER_SPACE
 70
     0
 10
0.0
 20
0.0
 30
0.0
  3
$PAPER_SPACE
  1

  0
ENDBLK
  5
1D
 67
     1
  8
0
  0
BLOCK
  8
0
  2
_FILLED
 70
     0
 10
0.0
 20
0.0
 30
0.0
  3
_FILLED
  1

  0
SOLID
  5
211DD
  8
0
  6
BYBLOCK
 62
     0
 10
0.0
 20
0.0
 30
0.0
 11
-1.0
 21
0.1666666667
 31
0.0
 12
-1.0
 22
-0.1666666667
 32
0.0
 13
-1.0
 23
-0.1666666667
 33
0.0
  0
ENDBLK
  5
211DE
  8
0
  6
BYBLOCK
 62
     0
  0
ENDSEC
  0
SECTION
  2
ENTITIES
  0
ATTDEF
  5
20106
  8
DEFPOINTS
 10
4381.8406426856263352
 20
299.0247355686423134
 30
0.0
 40
0.001
  1
K-18775T
  3

  2
MODELNUMBER
 70
     0
1001
ACDBATTR
1070
     0
1070
     1
  0
ATTDEF
  5
20107
  8
DEFPOINTS
 10
4381.8405168759700246
 20
299.0230687282631834
 30
0.0
 40
0.001
  1
SERIF
  3

  2
TRADENAME
 70
     0
1001
ACDBATTR
1070
     0
1070
     1
  0
ATTDEF
  5
20108
  8
DEFPOINTS
 10
4381.8406426856263352
 20
299.0214022353089831
 30
0.0
 40
0.001
  1
BATH
  3

  2
PRODUCT
 70
     0
1001
ACDBATTR
1070
     0
1070
     1
  0
LINE
  5
21510
  8
0
 10
4360.7140208648888802
 20
299.0259247672370861
 30
0.0
 11
4402.9674208648893909
 21
299.0259247672370861
 31
0.0
  0
LINE
  5
21511
  8
0
 10
4364.6852645363087504
 20
293.962980279591477
 30
0.0
 11
4398.9961771934704302
 21
293.962980279591477
 31
0.0
  0
ARC
  5
21512
  8
0
 10
4363.705553952037917
 20
298.7863879830397877
 30
0.0
 40
3.0011078092080492
 50
163.3300145947277997
 51
175.4220035498065897
  0
ARC
  5
21513
  8
0
 10
4362.2902694513340975
 20
299.2157237059699924
 30
0.0
 40
1.522154163048919
 50
144.4873480992256987
 51
163.5297124994723958
  0
ARC
  5
21514
  8
0
 10
4361.3324638243157096
 20
299.8915356354597179
 30
0.0
 40
0.3500012827801596
 50
89.5637727221237441
 51
143.4608146449971002
  0
ARC
  5
21515
  8
0
 10
4381.8407208648777669
 20
-170874.0662649773876183
 30
0.0
 40
171174.3090199712023605
 50
89.9931363304218763
 51
90.0068636695781237
  0
ARC
  5
21516
  8
0
 10
4343.4633967431627752
 20
287.9432096556258216
 30
0.0
 40
21.7106982235460393
 50
16.8654040503145701
 51
30.6953100428664811
  0
ARC
  5
21517
  8
0
 10
4364.5498959283549993
 20
294.3115471015955791
 30
0.0
 40
0.3173134697224402
 50
192.6581542978190953
 51
259.385651169661287
  0
ARC
  5
21518
  8
0
 10
4364.80268466950929
 20
295.7314746537275028
 30
0.0
 40
1.7595566979865109
 50
259.8116971759271223
 51
264.7869826550888774
  0
ARC
  5
21519
  8
0
 10
4364.6323875508323908
 20
293.8882271368777879
 30
0.0
 40
0.0915642284881049
 50
34.2654235226427417
 51
83.4619111105682947
  0
ARC
  5
2151A
  8
0
 10
4364.3934549765581323
 20
293.7567618043914877
 30
0.0
 40
0.3639669252275923
 50
17.5975502223724405
 51
30.1883218414986203
  0
ARC
  5
2151B
  8
0
 10
4001.8867739721790713
 20
163.4051227616139101
 30
0.0
 40
385.5943405575408178
 50
19.7543821913256501
 51
19.7757208141888903
  0
ARC
  5
2151C
  8
0
 10
4365.2696113516722107
 20
293.8542743724473212
 30
0.0
 40
0.4960536435773407
 50
194.3114834533396049
 51
259.4142427562367743
  0
ARC
  5
2151D
  8
0
 10
4365.1164246516746061
 20
292.8719106125079747
 30
0.0
 40
0.4986293053379319
 50
14.7986614247590893
 51
82.850570131757479
  0
ARC
  5
2151E
  8
0
 10
4320.5319176438861177
 20
280.9630010479373254
 30
0.0
 40
46.646221035834472
 50
2.7196077904404921
 51
14.9533877800075903
  0
ARC
  5
2151F
  8
0
 10
4369.3610800668975571
 20
283.384083204509011
 30
0.0
 40
2.2451164154612808
 50
185.3106641064887867
 51
266.5790745592203734
  0
ARC
  5
21520
  8
0
 10
4380.4207139203390398
 20
280.4659247672371976
 30
0.0
 40
0.2899999999999943
 50
226.9630864342009033
 51
270.0
  0
ARC
  5
21521
  8
0
 10
4399.9758877777376256
 20
298.7863879830393898
 30
0.0
 40
3.0011078092099068
 50
4.5779964501998549
 51
16.6699854052690917
  0
ARC
  5
21522
  8
0
 10
4401.3911722784432641
 20
299.2157237059699924
 30
0.0
 40
1.522154163048919
 50
16.4702875005275509
 51
35.51265190077428
  0
ARC
  5
21523
  8
0
 10
4402.3489779054607425
 20
299.8915356354597179
 30
0.0
 40
0.3500012827801596
 50
36.5391853550029211
 51
90.4362272779283529
  0
ARC
  5
21524
  8
0
 10
4420.2180449866136769
 20
287.9432096556258216
 30
0.0
 40
21.7106982235460393
 50
149.3046899571334905
 51
163.134595949682307
  0
ARC
  5
21525
  8
0
 10
4399.1315458014232718
 20
294.3115471015955791
 30
0.0
 40
0.3173134697224402
 50
280.614348830338713
 51
347.3418457021808194
  0
ARC
  5
21526
  8
0
 10
4398.8787570602689811
 20
295.7314746537275028
 30
0.0
 40
1.7595566979865109
 50
275.2130173448592245
 51
280.1883028240728777
  0
ARC
  5
21527
  8
0
 10
4399.0490541789458803
 20
293.8882271368777879
 30
0.0
 40
0.0915642284881049
 50
96.5380888894317053
 51
145.734576477357308
  0
ARC
  5
21528
  8
0
 10
4399.2879867532201388
 20
293.7567618043914877
 30
0.0
 40
0.3639669252275923
 50
149.8116781585013086
 51
162.4024497776275098
  0
ARC
  5
21529
  8
0
 10
4761.7946677575991998
 20
163.4051227616139101
 30
0.0
 40
385.5943405575408178
 50
160.2242791858110991
 51
160.2456178086742966
  0
ARC
  5
2152A
  8
0
 10
4398.4118303781060604
 20
293.8542743724473212
 30
0.0
 40
0.4960536435773407
 50
280.5857572437632257
 51
345.6885165466603098
  0
ARC
  5
2152B
  8
0
 10
4398.5650170781027555
 20
292.8719106125079747
 30
0.0
 40
0.4986293053379319
 50
97.1494298682425352
 51
165.2013385752408965
  0
ARC
  5
2152C
  8
0
 10
4443.1495240858921534
 20
280.9630010479373254
 30
0.0
 40
46.646221035834472
 50
165.0466122199923973
 51
177.2803922095594942
  0
ARC
  5
2152D
  8
0
 10
4394.3105406020613373
 20
283.3942336468612098
 30
0.0
 40
2.2558535542250322
 50
273.6545402654888903
 51
354.455721068845321
  0
ARC
  5
2152E
  8
0
 10
4383.2607278094392314
 20
280.4659247672371976
 30
0.0
 40
0.2899999999999943
 50
270.0
 51
313.036990382016711
  0
LINE
  5
2152F
  8
0
 10
4380.4207139203390398
 20
280.1759247672371771
 30
0.0
 11
4383.2607278094392314
 21
280.1759247672371771
 31
0.0
  0
ARC
  5
21530
  8
0
 10
4381.841309452315727
 20
297.0171621099256072
 30
0.0
 40
0.1960482344476256
 50
314.9493366711952831
 51
61.1980209231864265
  0
ARC
  5
21531
  8
0
 10
4381.8414089617235732
 20
297.0262782166618081
 30
0.0
 40
0.196267267797201
 50
299.5962419745123952
 51
356.6670899319225896
  0
ARC
  5
21532
  8
0
 10
4381.8401322774616347
 20
297.0171621099256072
 30
0.0
 40
0.1960482344476256
 50
118.8019790768135948
 51
225.0506633288046885
  0
ARC
  5
21533
  8
0
 10
4381.840032768052879
 20
297.0262782166618081
 30
0.0
 40
0.196267267797201
 50
183.3329100680774104
 51
240.4037580254423858
  0
ARC
  5
21534
  8
0
 10
4381.8407208648886808
 20
297.016218735535972
 30
0.0
 40
0.1971584855202571
 50
61.1802151935621481
 51
118.8197848064377951
  0
ARC
  5
21535
  8
0
 10
4381.8407208648886808
 20
297.0185671987927094
 30
0.0
 40
0.1974593268702419
 50
225.2178296145021079
 51
314.7821703854979205
  0
ARC
  5
21536
  8
0
 10
4381.8407208648886808
 20
297.0314860772872976
 30
0.0
 40
0.2011451696584072
 50
240.965989692552796
 51
299.0340103074016156
  0
ARC
  5
21537
  8
0
 10
4382.0439799229907294
 20
296.5949098968853264
 30
0.0
 40
2.2495379538456719
 50
29.4163655368570787
 51
72.0526879370346904
  0
ARC
  5
21538
  8
0
 10
4382.1898691680644333
 20
296.7697562650095051
 30
0.0
 40
2.038177723546343
 50
331.3290780897185073
 51
27.14859420456186
  0
ARC
  5
21539
  8
0
 10
4382.5327086370143661
 20
296.6582852710160978
 30
0.0
 40
1.68521235970904
 50
282.8926031356817816
 51
329.0613067574163892
  0
ARC
  5
2153A
  8
0
 10
4381.6375248824506343
 20
296.5949098968853264
 30
0.0
 40
2.2495379538456719
 50
107.9473120629652954
 51
150.5836344631428858
  0
ARC
  5
2153B
  8
0
 10
4381.4916356373760209
 20
296.7697562650095051
 30
0.0
 40
2.038177723546343
 50
152.8514057954380974
 51
208.6709219102814927
  0
ARC
  5
2153C
  8
0
 10
4381.1487961684269976
 20
296.6582852710160978
 30
0.0
 40
1.68521235970904
 50
210.9386932425834971
 51
257.1073968643181047
  0
ARC
  5
2153D
  8
0
 10
4381.8407524027197724
 20
299.5772111472957135
 30
0.0
 40
4.6850019543584844
 50
256.8233162598597232
 51
283.1766837401397083
  0
ARC
  5
2153E
  8
0
 10
4381.8407524027197724
 20
296.2581785548111952
 30
0.0
 40
2.6340306382122232
 50
70.1038137348819816
 51
109.8961862651180041
  0
LINE
  5
2153F
  8
0
 10
4369.5907523785390367
 20
281.1133082716306149
 30
0.0
 11
4369.5907523785390367
 21
280.6551103530371734
 31
0.0
  0
ARC
  5
21540
  8
0
 10
4383.2015862539337832
 20
439.9288765691853769
 30
0.0
 40
159.854269268793189
 50
265.1156218633614117
 51
268.526411583363199
  0
LINE
  5
21541
  8
0
 10
4379.0907523785390367
 20
280.1274734204371839
 30
0.0
 11
4379.0907523785390367
 21
280.6195326070791793
 31
0.0
  0
ARC
  5
21542
  8
0
 10
4517.4726924168999176
 20
417.8557929761169021
 30
0.0
 40
194.3496799743273016
 50
224.9765184484205065
 51
225.0733653409550925
  0
ARC
  5
21543
  8
0
 10
4379.7006748317671736
 20
280.1966554545592203
 30
0.0
 40
0.4095739076313062
 50
44.976518448420471
 51
88.0234815502146262
  0
ARC
  5
21544
  8
0
 10
4383.0426694738926017
 20
448.2870090602689856
 30
0.0
 40
167.71404326683421
 50
265.2748672124872087
 51
268.863032999837003
  0
LINE
  5
21545
  8
0
 10
4394.0906893512392344
 20
281.1133082716306149
 30
0.0
 11
4394.0906893512392344
 21
280.6551103530371734
 31
0.0
  0
ARC
  5
21546
  8
0
 10
4380.479855475842669
 20
439.9288765691853769
 30
0.0
 40
159.854269268793189
 50
271.4735884166369146
 51
274.884378136638702
  0
LINE
  5
21547
  8
0
 10
4384.5906893512392344
 20
280.1274734204371839
 30
0.0
 11
4384.5906893512392344
 21
280.6195326070791793
 31
0.0
  0
ARC
  5
21548
  8
0
 10
4246.1960561500518452
 20
417.8684864625680007
 30
0.0
 40
194.3676310445814863
 50
314.9266414818960129
 51
315.0234793154393174
  0
ARC
  5
21549
  8
0
 10
4383.9807668980110975
 20
280.1966554545592203
 30
0.0
 40
0.4095739076313062
 50
91.9765184497853454
 51
135.0234815515794935
  0
ARC
  5
2154A
  8
0
 10
4380.6387722558838504
 20
448.2870090602689856
 30
0.0
 40
167.71404326683421
 50
271.1369670001108716
 51
274.7251327875127913
  0
ARC
  5
2154B
  8
0
 10
4367.054377158956413
 20
285.0681587241526245
 30
0.0
 40
0.0046456858153844
 50
42.6293046621932987
 51
140.855608445238687
  0
ARC
  5
2154C
  8
0
 10
4366.9662625120809025
 20
285.0121217706810057
 30
0.0
 40
0.1089995202237535
 50
343.3380804140833789
 51
32.8859152568113089
  0
ARC
  5
2154D
  8
0
 10
4367.0672441784536204
 20
284.9825776913116897
 30
0.0
 40
0.0038421722592666
 50
224.1957672444029015
 51
333.5946910087101855
  0
ARC
  5
2154E
  8
0
 10
4367.1549295246368274
 20
285.0401289494519119
 30
0.0
 40
0.1086600902578418
 50
163.4442523278854082
 51
213.6621307849113975
  0
ARC
  5
2154F
  8
0
 10
4367.0875530748016899
 20
284.4462940287438073
 30
0.0
 40
0.0015145405609357
 50
17.2669698732592387
 51
167.0973557396893057
  0
ARC
  5
21550
  8
0
 10
4366.8822189311349575
 20
284.3615699869613991
 30
0.0
 40
0.2236351631211462
 50
358.8433358101955832
 51
22.3869372143698406
  0
ARC
  5
21551
  8
0
 10
4367.1032880513375858
 20
284.3577320883351831
 30
0.0
 40
0.0026096701142001
 50
231.9015548894932124
 51
344.9768309320717776
  0
ARC
  5
21552
  8
0
 10
4367.292645726531191
 20
284.4352495419435058
 30
0.0
 40
0.2068823265499997
 50
176.845990579446493
 51
202.6201687321866132
  0
ARC
  5
21553
  8
0
 10
4367.3011680041527143
 20
283.818201982634605
 30
0.0
 40
0.0048589272799947
 50
29.0984985669723315
 51
174.0195916636430979
  0
ARC
  5
21554
  8
0
 10
4367.1975990363443998
 20
283.7273391233580924
 30
0.0
 40
0.1425308607761554
 50
1.6384001087317019
 51
40.8495186935210697
  0
ARC
  5
21555
  8
0
 10
4367.337349087126313
 20
283.7319338699409741
 30
0.0
 40
0.00277167308418
 50
243.8564634919484035
 51
349.1956982307851263
  0
ARC
  5
21556
  8
0
 10
4367.4216027883749121
 20
283.8210503713386856
 30
0.0
 40
0.1252891610186779
 50
181.0711448076417014
 51
226.9825160129632877
  0
ARC
  5
21557
  8
0
 10
4367.4751659981757257
 20
284.4380856766363195
 30
0.0
 40
0.0095640914325712
 50
47.6428193840526006
 51
145.7994662042927985
  0
ARC
  5
21558
  8
0
 10
4367.4135239468778309
 20
284.3883127086381251
 30
0.0
 40
0.088693405024275
 50
340.3428359173718718
 51
39.85630105894991
  0
ARC
  5
21559
  8
0
 10
4367.4891248551111858
 20
284.3633335372609281
 30
0.0
 40
0.0092935454692163
 50
224.2105862575276092
 51
328.4952724715598151
  0
ARC
  5
2155A
  8
0
 10
4367.5475479525503033
 20
284.4129207757254107
 30
0.0
 40
0.0859044461763106
 50
159.1746521764436864
 51
220.7435204122373023
  0
ARC
  5
2155B
  8
0
 10
4367.744199485559875
 20
285.0584483233877791
 30
0.0
 40
0.0143623462776116
 50
48.5407594149718733
 51
135.0135738846385891
  0
ARC
  5
2155C
  8
0
 10
4367.7038474582241179
 20
285.020173722082518
 30
0.0
 40
0.0699347739854067
 50
327.6377252949515082
 51
44.5232063114847278
  0
ARC
  5
2155D
  8
0
 10
4367.7535061917187704
 20
284.9928567138626931
 30
0.0
 40
0.0138193385927348
 50
238.3995283548933912
 51
312.9379182227812066
  0
ARC
  5
2155E
  8
0
 10
4367.7935475390531792
 20
285.032301854151001
 30
0.0
 40
0.0697040756199065
 50
148.6160996866113919
 51
227.2864761606392108
  0
ARC
  5
2155F
  8
0
 10
4367.9481064759547735
 20
283.8103214021807048
 30
0.0
 40
0.0128765293183217
 50
49.7744211185429108
 51
161.5160972070138996
  0
ARC
  5
21560
  8
0
 10
4367.9036489040036031
 20
283.7508712597528984
 30
0.0
 40
0.0870915317022604
 50
350.5547968145763207
 51
52.702680600430007
  0
ARC
  5
21561
  8
0
 10
4367.9772275711220573
 20
283.7423691613038272
 30
0.0
 40
0.0136237404798742
 50
222.8244899117563875
 51
334.8497855010405146
  0
ARC
  5
21562
  8
0
 10
4368.0212683411346006
 20
283.8006283124818765
 30
0.0
 40
0.0864783490455959
 50
170.8341073953814089
 51
231.3313997953599142
  0
ARC
  5
21563
  8
0
 10
4368.3257047437491565
 20
284.4288956483794095
 30
0.0
 40
0.0188607249728025
 50
45.6358971275469685
 51
147.3002435097386069
  0
ARC
  5
21564
  8
0
 10
4368.2945756465924205
 20
284.39341357609959
 30
0.0
 40
0.0660426390771523
 50
332.1724242715088735
 51
47.8531348184974021
  0
ARC
  5
21565
  8
0
 10
4368.3372973259893115
 20
284.372843937009975
 30
0.0
 40
0.0187413687383301
 50
246.8586254439418894
 51
326.8080577643785887
  0
ARC
  5
21566
  8
0
 10
4368.3659440119263309
 20
284.4084382788603875
 30
0.0
 40
0.0639346482316757
 50
151.3574988184928998
 51
235.7181932169835079
  0
ARC
  5
21567
  8
0
 10
4368.8170514081557485
 20
285.0471185545816866
 30
0.0
 40
0.0257244371352844
 50
36.0194214610127688
 51
154.166048162905895
  0
ARC
  5
21568
  8
0
 10
4368.7909428590983225
 20
285.0221361875372281
 30
0.0
 40
0.061723673700467
 50
329.9674016893820863
 51
40.528749814040232
  0
ARC
  5
21569
  8
0
 10
4368.8229823337351263
 20
285.0038887927174756
 30
0.0
 40
0.0248542463970408
 50
227.0685780617999114
 51
329.4187218748567147
  0
ARC
  5
2156A
  8
0
 10
4368.8488183112203842
 20
285.0301835415339156
 30
0.0
 40
0.0617121306228556
 50
152.8664505744557118
 51
226.1341873950669026
  0
ARC
  5
2156B
  8
0
 10
4368.974657342690989
 20
283.8001336343564276
 30
0.0
 40
0.0228541778803153
 50
50.0114905002805372
 51
159.0440389763651865
  0
ARC
  5
2156C
  8
0
 10
4368.9487671873293948
 20
283.7593359973924976
 30
0.0
 40
0.071037357222183
 50
346.8824682694194053
 51
55.1655726575950567
  0
ARC
  5
2156D
  8
0
 10
4368.9974813798571631
 20
283.7503884699009973
 30
0.0
 40
0.0216904142415655
 50
235.2899384411743995
 51
340.6850022721783944
  0
ARC
  5
2156E
  8
0
 10
4369.0212285793149931
 20
283.7922757340725184
 30
0.0
 40
0.0697803081424918
 50
166.7179185204074088
 51
238.8478353764984092
  0
ARC
  5
2156F
  8
0
 10
4369.491557849023593
 20
284.4168127753935096
 30
0.0
 40
0.0309700883465874
 50
29.2965003786837705
 51
151.2485440366399132
  0
ARC
  5
21570
  8
0
 10
4369.4735887937977168
 20
284.3970408357629935
 30
0.0
 40
0.0569463372214564
 50
324.2298074366547098
 51
37.8301791852073634
  0
ARC
  5
21571
  8
0
 10
4369.4973580540872717
 20
284.3856346840216816
 30
0.0
 40
0.0313387279931498
 50
229.5066737553958092
 51
315.7164341232752918
  0
ARC
  5
21572
  8
0
 10
4369.5174817909673948
 20
284.4051879085326959
 30
0.0
 40
0.0593334208557098
 50
153.4488655659461074
 51
226.9887216287181104
  0
ARC
  5
21573
  8
0
 10
4369.5840006159733093
 20
284.4064475293200758
 30
0.0
 40
0.0599849010806439
 50
166.7465712355663925
 51
202.9927024817750976
  0
ARC
  5
21574
  8
0
 10
4370.0587511049943714
 20
285.0378231422093904
 30
0.0
 40
0.035201854764668
 50
38.0364369944278522
 51
148.2968744650189024
  0
ARC
  5
21575
  8
0
 10
4370.0469783074167935
 20
285.0242103132353009
 30
0.0
 40
0.0529756703300062
 50
322.5890957677536903
 51
41.7896808732140101
  0
ARC
  5
21576
  8
0
 10
4370.0614882430072612
 20
285.0155227075437097
 30
0.0
 40
0.0362231229448884
 50
232.5280892400978985
 51
319.5592393454958824
  0
ARC
  5
21577
  8
0
 10
4370.0758475651873596
 20
285.0279365166391017
 30
0.0
 40
0.0549458124582342
 50
148.8945286252171059
 51
228.5163239468618883
  0
ARC
  5
21578
  8
0
 10
4370.1301626376971399
 20
285.0273905037710733
 30
0.0
 40
0.0542247551398279
 50
143.6725529814318918
 51
220.7062236595475895
  0
ARC
  5
21579
  8
0
 10
4370.1692590370157632
 20
283.7865414154417749
 30
0.0
 40
0.035201854764668
 50
38.0364369944278522
 51
148.2968744650189024
  0
ARC
  5
2157A
  8
0
 10
4370.1574862394409138
 20
283.7729285864676854
 30
0.0
 40
0.0529756703300062
 50
322.5890957677536903
 51
41.7896808732140101
  0
ARC
  5
2157B
  8
0
 10
4370.1719961750295624
 20
283.7642409807759805
 30
0.0
 40
0.0362231229448884
 50
232.5280892400978985
 51
319.5592393454958824
  0
ARC
  5
2157C
  8
0
 10
4370.1863554972096608
 20
283.7766547898713725
 30
0.0
 40
0.0549458124582342
 50
148.8945286252171059
 51
228.5163239468618883
  0
ARC
  5
2157D
  8
0
 10
4370.2406705697203506
 20
283.7761087770035147
 30
0.0
 40
0.0542247551398279
 50
143.6725529814318918
 51
220.7062236595475895
  0
ARC
  5
2157E
  8
0
 10
4370.9354743804233294
 20
284.4130358033855828
 30
0.0
 40
0.035201854764668
 50
38.0364369944278522
 51
148.2968744650189024
  0
ARC
  5
2157F
  8
0
 10
4370.9237015828475705
 20
284.3994229744114932
 30
0.0
 40
0.0529756703300062
 50
322.5890957677536903
 51
41.7896808732140101
  0
ARC
  5
21580
  8
0
 10
4370.9382115184362192
 20
284.3907353687197883
 30
0.0
 40
0.0362231229448884
 50
232.5280892400978985
 51
319.5592393454958824
  0
ARC
  5
21581
  8
0
 10
4370.9525708406163176
 20
284.403149177815294
 30
0.0
 40
0.0549458124582342
 50
148.8945286252171059
 51
228.5163239468618883
  0
ARC
  5
21582
  8
0
 10
4371.0068859131260979
 20
284.4026031649473225
 30
0.0
 40
0.0542247551398279
 50
143.6725529814318918
 51
220.7062236595475895
  0
ARC
  5
21583
  8
0
 10
4371.6977093213081389
 20
285.0362577902826047
 30
0.0
 40
0.035201854764668
 50
38.0364369944278522
 51
148.2968744650189024
  0
ARC
  5
21584
  8
0
 10
4371.6859365237332895
 20
285.0226449613085151
 30
0.0
 40
0.0529756703300062
 50
322.5890957677536903
 51
41.7896808732140101
  0
ARC
  5
21585
  8
0
 10
4371.7004464593219382
 20
285.0139573556169239
 30
0.0
 40
0.0362231229448884
 50
232.5280892400978985
 51
319.5592393454958824
  0
ARC
  5
21586
  8
0
 10
4371.7148057815020366
 20
285.0263711647123159
 30
0.0
 40
0.0549458124582342
 50
148.8945286252171059
 51
228.5163239468618883
  0
ARC
  5
21587
  8
0
 10
4371.7691208540109074
 20
285.0258251518442876
 30
0.0
 40
0.0542247551398279
 50
143.6725529814318918
 51
220.7062236595475895
  0
ARC
  5
21588
  8
0
 10
4371.7433802597179238
 20
283.7894572336006718
 30
0.0
 40
0.035201854764668
 50
38.0364369944278522
 51
148.2968744650189024
  0
ARC
  5
21589
  8
0
 10
4371.7316074621430744
 20
283.7758444046265822
 30
0.0
 40
0.0529756703300062
 50
322.5890957677536903
 51
41.7896808732140101
  0
ARC
  5
2158A
  8
0
 10
4371.746117397731723
 20
283.767156798934991
 30
0.0
 40
0.0362231229448884
 50
232.5280892400978985
 51
319.5592393454958824
  0
ARC
  5
2158B
  8
0
 10
4371.7604767199118214
 20
283.779570608030383
 30
0.0
 40
0.0549458124582342
 50
148.8945286252171059
 51
228.5163239468618883
  0
ARC
  5
2158C
  8
0
 10
4371.8147917924216017
 20
283.7790245951624115
 30
0.0
 40
0.0542247551398279
 50
143.6725529814318918
 51
220.7062236595475895
  0
ARC
  5
2158D
  8
0
 10
4377.5285090770303214
 20
284.4140118612169204
 30
0.0
 40
0.035201854764668
 50
38.0364369944278522
 51
148.2968744650189024
  0
ARC
  5
2158E
  8
0
 10
4377.5167362794563815
 20
284.4003990322427171
 30
0.0
 40
0.0529756703300062
 50
322.5890957677536903
 51
41.7896808732140101
  0
ARC
  5
2158F
  8
0
 10
4377.5312462150450301
 20
284.3917114265511259
 30
0.0
 40
0.0362231229448884
 50
232.5280892400978985
 51
319.5592393454958824
  0
ARC
  5
21590
  8
0
 10
4377.545605537224219
 20
284.4041252356465179
 30
0.0
 40
0.0549458124582342
 50
148.8945286252171059
 51
228.5163239468618883
  0
ARC
  5
21591
  8
0
 10
4377.5999206097339993
 20
284.4035792227784896
 30
0.0
 40
0.0542247551398279
 50
143.6725529814318918
 51
220.7062236595475895
  0
ARC
  5
21592
  8
0
 10
4378.9694098126428798
 20
285.0346679667555918
 30
0.0
 40
0.035201854764668
 50
38.0364369944278522
 51
148.2968744650189024
  0
ARC
  5
21593
  8
0
 10
4378.9576370150680305
 20
285.0210551377815023
 30
0.0
 40
0.0529756703300062
 50
322.5890957677536903
 51
41.7896808732140101
  0
ARC
  5
21594
  8
0
 10
4378.9721469506566791
 20
285.012367532089911
 30
0.0
 40
0.0362231229448884
 50
232.5280892400978985
 51
319.5592393454958824
  0
ARC
  5
21595
  8
0
 10
4378.9865062728367775
 20
285.0247813411853031
 30
0.0
 40
0.0549458124582342
 50
148.8945286252171059
 51
228.5163239468618883
  0
ARC
  5
21596
  8
0
 10
4379.0408213453465578
 20
285.0242353283172747
 30
0.0
 40
0.0542247551398279
 50
143.6725529814318918
 51
220.7062236595475895
  0
ARC
  5
21597
  8
0
 10
4378.9947061269776896
 20
283.7871168286105217
 30
0.0
 40
0.035201854764668
 50
38.0364369944278522
 51
148.2968744650189024
  0
ARC
  5
21598
  8
0
 10
4378.9829333294019307
 20
283.7735039996363753
 30
0.0
 40
0.0529756703300062
 50
322.5890957677536903
 51
41.7896808732140101
  0
ARC
  5
21599
  8
0
 10
4378.9974432649905793
 20
283.7648163939447841
 30
0.0
 40
0.0362231229448884
 50
232.5280892400978985
 51
319.5592393454958824
  0
ARC
  5
2159A
  8
0
 10
4379.0118025871715872
 20
283.7772302030401761
 30
0.0
 40
0.0549458124582342
 50
148.8945286252171059
 51
228.5163239468618883
  0
ARC
  5
2159B
  8
0
 10
4379.0661176596813675
 20
283.7766841901722046
 30
0.0
 40
0.0542247551398279
 50
143.6725529814318918
 51
220.7062236595475895
  0
ARC
  5
2159C
  8
0
 10
4380.4335530535399812
 20
284.4131587231207732
 30
0.0
 40
0.035201854764668
 50
38.0364369944278522
 51
148.2968744650189024
  0
ARC
  5
2159D
  8
0
 10
4380.4217802559651318
 20
284.3995458941466836
 30
0.0
 40
0.0529756703300062
 50
322.5890957677536903
 51
41.7896808732140101
  0
ARC
  5
2159E
  8
0
 10
4380.436290191552871
 20
284.3908582884549787
 30
0.0
 40
0.0362231229448884
 50
232.5280892400978985
 51
319.5592393454958824
  0
ARC
  5
2159F
  8
0
 10
4380.4506495137338788
 20
284.4032720975504844
 30
0.0
 40
0.0549458124582342
 50
148.8945286252171059
 51
228.5163239468618883
  0
ARC
  5
215A0
  8
0
 10
4380.5049645862427496
 20
284.4027260846825129
 30
0.0
 40
0.0542247551398279
 50
143.6725529814318918
 51
220.7062236595475895
  0
ARC
  5
215A1
  8
0
 10
4381.8803246093102643
 20
285.0383566783169726
 30
0.0
 40
0.035201854764668
 50
38.0364369944278522
 51
148.2968744650189024
  0
ARC
  5
215A2
  8
0
 10
4381.868551811735415
 20
285.0247438493428831
 30
0.0
 40
0.0529756703300062
 50
322.5890957677536903
 51
41.7896808732140101
  0
ARC
  5
215A3
  8
0
 10
4381.8830617473231541
 20
285.0160562436511782
 30
0.0
 40
0.0362231229448884
 50
232.5280892400978985
 51
319.5592393454958824
  0
ARC
  5
215A4
  8
0
 10
4381.897421069504162
 20
285.0284700527466839
 30
0.0
 40
0.0549458124582342
 50
148.8945286252171059
 51
228.5163239468618883
  0
ARC
  5
215A5
  8
0
 10
4381.9517361420130328
 20
285.0279240398787124
 30
0.0
 40
0.0542247551398279
 50
143.6725529814318918
 51
220.7062236595475895
  0
ARC
  5
215A6
  8
0
 10
4381.9017806267220294
 20
283.7835459397455793
 30
0.0
 40
0.035201854764668
 50
38.0364369944278522
 51
148.2968744650189024
  0
ARC
  5
215A7
  8
0
 10
4381.8900078291462705
 20
283.7699331107713761
 30
0.0
 40
0.0529756703300062
 50
322.5890957677536903
 51
41.7896808732140101
  0
ARC
  5
215A8
  8
0
 10
4381.9045177647340097
 20
283.7612455050797848
 30
0.0
 40
0.0362231229448884
 50
232.5280892400978985
 51
319.5592393454958824
  0
ARC
  5
215A9
  8
0
 10
4381.9188770869159271
 20
283.7736593141751769
 30
0.0
 40
0.0549458124582342
 50
148.8945286252171059
 51
228.5163239468618883
  0
ARC
  5
215AA
  8
0
 10
4381.9731921594257074
 20
283.773113301307319
 30
0.0
 40
0.0542247551398279
 50
143.6725529814318918
 51
220.7062236595475895
  0
ARC
  5
215AB
  8
0
 10
4383.3384279750189307
 20
284.4120345145353781
 30
0.0
 40
0.035201854764668
 50
38.0364369944278522
 51
148.2968744650189024
  0
ARC
  5
215AC
  8
0
 10
4383.3266551774440813
 20
284.3984216855612885
 30
0.0
 40
0.0529756703300062
 50
322.5890957677536903
 51
41.7896808732140101
  0
ARC
  5
215AD
  8
0
 10
4383.3411651130318205
 20
284.3897340798695836
 30
0.0
 40
0.0362231229448884
 50
232.5280892400978985
 51
319.5592393454958824
  0
ARC
  5
215AE
  8
0
 10
4383.3555244352119189
 20
284.4021478889650894
 30
0.0
 40
0.0549458124582342
 50
148.8945286252171059
 51
228.5163239468618883
  0
ARC
  5
215AF
  8
0
 10
4383.4098395077226087
 20
284.4016018760971178
 30
0.0
 40
0.0542247551398279
 50
143.6725529814318918
 51
220.7062236595475895
  0
ARC
  5
215B0
  8
0
 10
4372.753255131192418
 20
284.4130358033855828
 30
0.0
 40
0.035201854764668
 50
38.0364369944278522
 51
148.2968744650189024
  0
ARC
  5
215B1
  8
0
 10
4372.7414823336166592
 20
284.3994229744114932
 30
0.0
 40
0.0529756703300062
 50
322.5890957677536903
 51
41.7896808732140101
  0
ARC
  5
215B2
  8
0
 10
4372.7559922692053078
 20
284.3907353687197883
 30
0.0
 40
0.0362231229448884
 50
232.5280892400978985
 51
319.5592393454958824
  0
ARC
  5
215B3
  8
0
 10
4372.7703515913854062
 20
284.403149177815294
 30
0.0
 40
0.0549458124582342
 50
148.8945286252171059
 51
228.5163239468618883
  0
ARC
  5
215B4
  8
0
 10
4372.8246666638951865
 20
284.4026031649473225
 30
0.0
 40
0.0542247551398279
 50
143.6725529814318918
 51
220.7062236595475895
  0
ARC
  5
215B5
  8
0
 10
4373.5154900720772275
 20
285.0362577902826047
 30
0.0
 40
0.035201854764668
 50
38.0364369944278522
 51
148.2968744650189024
  0
ARC
  5
215B6
  8
0
 10
4373.5037172745005591
 20
285.0226449613085151
 30
0.0
 40
0.0529756703300062
 50
322.5890957677536903
 51
41.7896808732140101
  0
ARC
  5
215B7
  8
0
 10
4373.5182272100901173
 20
285.0139573556169239
 30
0.0
 40
0.0362231229448884
 50
232.5280892400978985
 51
319.5592393454958824
  0
ARC
  5
215B8
  8
0
 10
4373.5325865322711252
 20
285.0263711647123159
 30
0.0
 40
0.0549458124582342
 50
148.8945286252171059
 51
228.5163239468618883
  0
ARC
  5
215B9
  8
0
 10
4373.586901604779996
 20
285.0258251518442876
 30
0.0
 40
0.0542247551398279
 50
143.6725529814318918
 51
220.7062236595475895
  0
ARC
  5
215BA
  8
0
 10
4373.5611610104870124
 20
283.7894572336006718
 30
0.0
 40
0.035201854764668
 50
38.0364369944278522
 51
148.2968744650189024
  0
ARC
  5
215BB
  8
0
 10
4373.5493882129112535
 20
283.7758444046265822
 30
0.0
 40
0.0529756703300062
 50
322.5890957677536903
 51
41.7896808732140101
  0
ARC
  5
215BC
  8
0
 10
4373.5638981485008117
 20
283.767156798934991
 30
0.0
 40
0.0362231229448884
 50
232.5280892400978985
 51
319.5592393454958824
  0
ARC
  5
215BD
  8
0
 10
4373.57825747068091
 20
283.779570608030383
 30
0.0
 40
0.0549458124582342
 50
148.8945286252171059
 51
228.5163239468618883
  0
ARC
  5
215BE
  8
0
 10
4373.6325725431906903
 20
283.7790245951624115
 30
0.0
 40
0.0542247551398279
 50
143.6725529814318918
 51
220.7062236595475895
  0
ARC
  5
215BF
  8
0
 10
4374.9573140528191288
 20
284.4130358033855828
 30
0.0
 40
0.035201854764668
 50
38.0364369944278522
 51
148.2968744650189024
  0
ARC
  5
215C0
  8
0
 10
4374.9455412552442795
 20
284.3994229744114932
 30
0.0
 40
0.0529756703300062
 50
322.5890957677536903
 51
41.7896808732140101
  0
ARC
  5
215C1
  8
0
 10
4374.9600511908329281
 20
284.3907353687197883
 30
0.0
 40
0.0362231229448884
 50
232.5280892400978985
 51
319.5592393454958824
  0
ARC
  5
215C2
  8
0
 10
4374.9744105130130265
 20
284.403149177815294
 30
0.0
 40
0.0549458124582342
 50
148.8945286252171059
 51
228.5163239468618883
  0
ARC
  5
215C3
  8
0
 10
4375.0287255855218973
 20
284.4026031649473225
 30
0.0
 40
0.0542247551398279
 50
143.6725529814318918
 51
220.7062236595475895
  0
ARC
  5
215C4
  8
0
 10
4375.7195489937039383
 20
285.0362577902826047
 30
0.0
 40
0.035201854764668
 50
38.0364369944278522
 51
148.2968744650189024
  0
ARC
  5
215C5
  8
0
 10
4375.7077761961281794
 20
285.0226449613085151
 30
0.0
 40
0.0529756703300062
 50
322.5890957677536903
 51
41.7896808732140101
  0
ARC
  5
215C6
  8
0
 10
4375.7222861317177376
 20
285.0139573556169239
 30
0.0
 40
0.0362231229448884
 50
232.5280892400978985
 51
319.5592393454958824
  0
ARC
  5
215C7
  8
0
 10
4375.7366454538987455
 20
285.0263711647123159
 30
0.0
 40
0.0549458124582342
 50
148.8945286252171059
 51
228.5163239468618883
  0
ARC
  5
215C8
  8
0
 10
4375.7909605264076163
 20
285.0258251518442876
 30
0.0
 40
0.0542247551398279
 50
143.6725529814318918
 51
220.7062236595475895
  0
ARC
  5
215C9
  8
0
 10
4375.7652199321146327
 20
283.7894572336006718
 30
0.0
 40
0.035201854764668
 50
38.0364369944278522
 51
148.2968744650189024
  0
ARC
  5
215CA
  8
0
 10
4375.7534471345397833
 20
283.7758444046265822
 30
0.0
 40
0.0529756703300062
 50
322.5890957677536903
 51
41.7896808732140101
  0
ARC
  5
215CB
  8
0
 10
4375.767957070128432
 20
283.767156798934991
 30
0.0
 40
0.0362231229448884
 50
232.5280892400978985
 51
319.5592393454958824
  0
ARC
  5
215CC
  8
0
 10
4375.7823163923076208
 20
283.779570608030383
 30
0.0
 40
0.0549458124582342
 50
148.8945286252171059
 51
228.5163239468618883
  0
ARC
  5
215CD
  8
0
 10
4375.8366314648183106
 20
283.7790245951624115
 30
0.0
 40
0.0542247551398279
 50
143.6725529814318918
 51
220.7062236595475895
  0
ARC
  5
215CE
  8
0
 10
4396.6270645708218581
 20
285.0681587241526245
 30
0.0
 40
0.0046456858153844
 50
39.1443915547612633
 51
137.3706953378066942
  0
ARC
  5
215CF
  8
0
 10
4396.7151792176973686
 20
285.0121217706810057
 30
0.0
 40
0.1089995202237535
 50
147.1140847431913983
 51
196.6619195859165075
  0
ARC
  5
215D0
  8
0
 10
4396.6141975513237412
 20
284.9825776913116897
 30
0.0
 40
0.0038421722592666
 50
206.405308991289786
 51
315.8042327555970132
  0
ARC
  5
215D1
  8
0
 10
4396.5265122051414437
 20
285.0401289494519119
 30
0.0
 40
0.1086600902578418
 50
326.3378692150860161
 51
16.5557476721145989
  0
ARC
  5
215D2
  8
0
 10
4396.5938886549747622
 20
284.4462940287438073
 30
0.0
 40
0.0015145405609357
 50
12.9026442603106997
 51
162.7330301267406867
  0
ARC
  5
215D3
  8
0
 10
4396.7992227986424041
 20
284.3615699869613991
 30
0.0
 40
0.2236351631211462
 50
157.6130627856302056
 51
181.1566641898043883
  0
ARC
  5
215D4
  8
0
 10
4396.5781536784397758
 20
284.3577320883351831
 30
0.0
 40
0.0026096701142001
 50
195.0231690679281087
 51
308.098445110506816
  0
ARC
  5
215D5
  8
0
 10
4396.3887960032461706
 20
284.4352495419435058
 30
0.0
 40
0.2068823265499997
 50
337.3798312678133016
 51
3.1540094205535412
  0
ARC
  5
215D6
  8
0
 10
4396.3802737256246473
 20
283.818201982634605
 30
0.0
 40
0.0048589272799947
 50
5.980408336356839
 51
150.901501433027704
  0
ARC
  5
215D7
  8
0
 10
4396.4838426934338713
 20
283.7273391233580924
 30
0.0
 40
0.1425308607761554
 50
139.1504813064788948
 51
178.3615998912682983
  0
ARC
  5
215D8
  8
0
 10
4396.3440926426519582
 20
283.7319338699409741
 30
0.0
 40
0.00277167308418
 50
190.8043017692149022
 51
296.1435365080515112
  0
ARC
  5
215D9
  8
0
 10
4396.2598389414033591
 20
283.8210503713386856
 30
0.0
 40
0.1252891610186779
 50
313.017483987036826
 51
358.9288551923582986
  0
ARC
  5
215DA
  8
0
 10
4396.2062757316016359
 20
284.4380856766363195
 30
0.0
 40
0.0095640914325712
 50
34.2005337957071518
 51
132.3571806159474136
  0
ARC
  5
215DB
  8
0
 10
4396.2679177828986212
 20
284.3883127086381251
 30
0.0
 40
0.088693405024275
 50
140.1436989410501042
 51
199.6571640826250018
  0
ARC
  5
215DC
  8
0
 10
4396.1923168746670854
 20
284.3633335372609281
 30
0.0
 40
0.0092935454692163
 50
211.5047275284402133
 51
315.7894137424725045
  0
ARC
  5
215DD
  8
0
 10
4396.1338937772279678
 20
284.4129207757254107
 30
0.0
 40
0.0859044461763106
 50
319.2564795877627262
 51
20.8253478235563314
  0
ARC
  5
215DE
  8
0
 10
4395.9372422442183961
 20
285.0584483233877791
 30
0.0
 40
0.0143623462776116
 50
44.9864261153613469
 51
131.4592405850281125
  0
ARC
  5
215DF
  8
0
 10
4395.9775942715541532
 20
285.020173722082518
 30
0.0
 40
0.0699347739854067
 50
135.4767936885153006
 51
212.3622747050484918
  0
ARC
  5
215E0
  8
0
 10
4395.9279355380585912
 20
284.9928567138626931
 30
0.0
 40
0.0138193385927348
 50
227.0620817772187934
 51
301.6004716451066088
  0
ARC
  5
215E1
  8
0
 10
4395.8878941907241824
 20
285.032301854151001
 30
0.0
 40
0.0697040756199065
 50
312.7135238393607892
 51
31.3839003133886187
  0
ARC
  5
215E2
  8
0
 10
4395.7333352538225881
 20
283.8103214021807048
 30
0.0
 40
0.0128765293183217
 50
18.4839027929860613
 51
130.2255788814570963
  0
ARC
  5
215E3
  8
0
 10
4395.7777928257737585
 20
283.7508712597528984
 30
0.0
 40
0.0870915317022604
 50
127.2973193995700001
 51
189.4452031854237077
  0
ARC
  5
215E4
  8
0
 10
4395.7042141586562138
 20
283.7423691613038272
 30
0.0
 40
0.0136237404798742
 50
205.1502144989594001
 51
317.1755100882435841
  0
ARC
  5
215E5
  8
0
 10
4395.660173388642761
 20
283.8006283124818765
 30
0.0
 40
0.0864783490455959
 50
308.6686002046399722
 51
9.1658926046185591
  0
ARC
  5
215E6
  8
0
 10
4395.3557369860282051
 20
284.4288956483794095
 30
0.0
 40
0.0188607249728025
 50
32.6997564902613576
 51
134.3641028724530031
  0
ARC
  5
215E7
  8
0
 10
4395.3868660831858506
 20
284.39341357609959
 30
0.0
 40
0.0660426390771523
 50
132.1468651815025908
 51
207.8275757284910981
  0
ARC
  5
215E8
  8
0
 10
4395.3441444037889596
 20
284.372843937009975
 30
0.0
 40
0.0187413687383301
 50
213.1919422355929044
 51
293.1413745560579969
  0
ARC
  5
215E9
  8
0
 10
4395.3154977178510308
 20
284.4084382788603875
 30
0.0
 40
0.0639346482316757
 50
304.2818067830165205
 51
28.6425011815070789
  0
ARC
  5
215EA
  8
0
 10
4394.8643903216207036
 20
285.0471185545816866
 30
0.0
 40
0.0257244371352844
 50
25.8339518370940517
 51
143.9805785389872028
  0
ARC
  5
215EB
  8
0
 10
4394.8904988706799486
 20
285.0221361875372281
 30
0.0
 40
0.061723673700467
 50
139.4712501859598035
 51
210.0325983106179137
  0
ARC
  5
215EC
  8
0
 10
4394.8584593960431448
 20
285.0038887927174756
 30
0.0
 40
0.0248542463970408
 50
210.5812781251433137
 51
312.9314219382000033
  0
ARC
  5
215ED
  8
0
 10
4394.8326234185569774
 20
285.0301835415339156
 30
0.0
 40
0.0617121306228556
 50
313.8658126049331258
 51
27.1335494255443201
  0
ARC
  5
215EE
  8
0
 10
4394.7067843870872821
 20
283.8001336343564276
 30
0.0
 40
0.0228541778803153
 50
20.9559610236348206
 51
129.988509499719413
  0
ARC
  5
215EF
  8
0
 10
4394.7326745424488763
 20
283.7593359973924976
 30
0.0
 40
0.071037357222183
 50
124.8344273424048936
 51
193.1175317305805095
  0
ARC
  5
215F0
  8
0
 10
4394.6839603499201985
 20
283.7503884699009973
 30
0.0
 40
0.0216904142415655
 50
199.3149977278216056
 51
304.7100615587826837
  0
ARC
  5
215F1
  8
0
 10
4394.660213150463278
 20
283.7922757340725184
 30
0.0
 40
0.0697803081424918
 50
301.1521646234568834
 51
13.2820814795926001
  0
ARC
  5
215F2
  8
0
 10
4394.1898838807537686
 20
284.4168127753935096
 30
0.0
 40
0.0309700883465874
 50
28.7514559633600406
 51
150.7034996213133979
  0
ARC
  5
215F3
  8
0
 10
4394.2078529359796448
 20
284.3970408357629935
 30
0.0
 40
0.0569463372214564
 50
142.1698208147925868
 51
215.7701925633452902
  0
ARC
  5
215F4
  8
0
 10
4394.1840836756909994
 20
284.3856346840216816
 30
0.0
 40
0.0313387279931498
 50
224.2835658767245945
 51
310.4933262446043045
  0
ARC
  5
215F5
  8
0
 10
4394.1639599388108763
 20
284.4051879085326959
 30
0.0
 40
0.0593334208557098
 50
313.0112783712818896
 51
26.5511344340538891
  0
ARC
  5
215F6
  8
0
 10
4394.0974411138049618
 20
284.4064475293200758
 30
0.0
 40
0.0599849010806439
 50
337.0072975182249024
 51
13.2534287644335596
  0
ARC
  5
215F7
  8
0
 10
4393.6226906247838997
 20
285.0378231422093904
 30
0.0
 40
0.035201854764668
 50
31.7031255349810905
 51
141.9635630055720981
  0
ARC
  5
215F8
  8
0
 10
4393.6344634223605681
 20
285.0242103132353009
 30
0.0
 40
0.0529756703300062
 50
138.2103191267860041
 51
217.4109042322463097
  0
ARC
  5
215F9
  8
0
 10
4393.6199534867710099
 20
285.0155227075437097
 30
0.0
 40
0.0362231229448884
 50
220.4407606545040039
 51
307.4719107599020731
  0
ARC
  5
215FA
  8
0
 10
4393.6055941645909115
 20
285.0279365166391017
 30
0.0
 40
0.0549458124582342
 50
311.4836760530990887
 51
31.1054713747829403
  0
ARC
  5
215FB
  8
0
 10
4393.5512790920811312
 20
285.0273905037710733
 30
0.0
 40
0.0542247551398279
 50
319.2937763404524958
 51
36.3274470185680372
  0
ARC
  5
215FC
  8
0
 10
4393.5121826927615984
 20
283.7865414154417749
 30
0.0
 40
0.035201854764668
 50
31.7031255349810905
 51
141.9635630055720981
  0
ARC
  5
215FD
  8
0
 10
4393.5239554903373573
 20
283.7729285864676854
 30
0.0
 40
0.0529756703300062
 50
138.2103191267860041
 51
217.4109042322463097
  0
ARC
  5
215FE
  8
0
 10
4393.5094455547468897
 20
283.7642409807759805
 30
0.0
 40
0.0362231229448884
 50
220.4407606545040039
 51
307.4719107599020731
  0
ARC
  5
215FF
  8
0
 10
4393.4950862325677008
 20
283.7766547898713725
 30
0.0
 40
0.0549458124582342
 50
311.4836760530990887
 51
31.1054713747829403
  0
ARC
  5
21600
  8
0
 10
4393.440771160057011
 20
283.7761087770035147
 30
0.0
 40
0.0542247551398279
 50
319.2937763404524958
 51
36.3274470185680372
  0
ARC
  5
21601
  8
0
 10
4392.7459673493549417
 20
284.4130358033855828
 30
0.0
 40
0.035201854764668
 50
31.7031255349810905
 51
141.9635630055720981
  0
ARC
  5
21602
  8
0
 10
4392.7577401469297911
 20
284.3994229744114932
 30
0.0
 40
0.0529756703300062
 50
138.2103191267860041
 51
217.4109042322463097
  0
ARC
  5
21603
  8
0
 10
4392.7432302113420519
 20
284.3907353687197883
 30
0.0
 40
0.0362231229448884
 50
220.4407606545040039
 51
307.4719107599020731
  0
ARC
  5
21604
  8
0
 10
4392.7288708891619535
 20
284.403149177815294
 30
0.0
 40
0.0549458124582342
 50
311.4836760530990887
 51
31.1054713747829403
  0
ARC
  5
21605
  8
0
 10
4392.6745558166521732
 20
284.4026031649473225
 30
0.0
 40
0.0542247551398279
 50
319.2937763404524958
 51
36.3274470185680372
  0
ARC
  5
21606
  8
0
 10
4391.9837324084701322
 20
285.0362577902826047
 30
0.0
 40
0.035201854764668
 50
31.7031255349810905
 51
141.9635630055720981
  0
ARC
  5
21607
  8
0
 10
4391.9955052060458911
 20
285.0226449613085151
 30
0.0
 40
0.0529756703300062
 50
138.2103191267860041
 51
217.4109042322463097
  0
ARC
  5
21608
  8
0
 10
4391.9809952704563329
 20
285.0139573556169239
 30
0.0
 40
0.0362231229448884
 50
220.4407606545040039
 51
307.4719107599020731
  0
ARC
  5
21609
  8
0
 10
4391.9666359482762346
 20
285.0263711647123159
 30
0.0
 40
0.0549458124582342
 50
311.4836760530990887
 51
31.1054713747829403
  0
ARC
  5
2160A
  8
0
 10
4391.9123208757673638
 20
285.0258251518442876
 30
0.0
 40
0.0542247551398279
 50
319.2937763404524958
 51
36.3274470185680372
  0
ARC
  5
2160B
  8
0
 10
4391.9380614700603473
 20
283.7894572336006718
 30
0.0
 40
0.035201854764668
 50
31.7031255349810905
 51
141.9635630055720981
  0
ARC
  5
2160C
  8
0
 10
4391.9498342676351967
 20
283.7758444046265822
 30
0.0
 40
0.0529756703300062
 50
138.2103191267860041
 51
217.4109042322463097
  0
ARC
  5
2160D
  8
0
 10
4391.9353243320456386
 20
283.767156798934991
 30
0.0
 40
0.0362231229448884
 50
220.4407606545040039
 51
307.4719107599020731
  0
ARC
  5
2160E
  8
0
 10
4391.9209650098664497
 20
283.779570608030383
 30
0.0
 40
0.0549458124582342
 50
311.4836760530990887
 51
31.1054713747829403
  0
ARC
  5
2160F
  8
0
 10
4391.8666499373557599
 20
283.7790245951624115
 30
0.0
 40
0.0542247551398279
 50
319.2937763404524958
 51
36.3274470185680372
  0
ARC
  5
21610
  8
0
 10
4390.9281865985858531
 20
284.4130358033855828
 30
0.0
 40
0.035201854764668
 50
31.7031255349810905
 51
141.9635630055720981
  0
ARC
  5
21611
  8
0
 10
4390.9399593961616119
 20
284.3994229744114932
 30
0.0
 40
0.0529756703300062
 50
138.2103191267860041
 51
217.4109042322463097
  0
ARC
  5
21612
  8
0
 10
4390.9254494605729633
 20
284.3907353687197883
 30
0.0
 40
0.0362231229448884
 50
220.4407606545040039
 51
307.4719107599020731
  0
ARC
  5
21613
  8
0
 10
4390.9110901383928649
 20
284.403149177815294
 30
0.0
 40
0.0549458124582342
 50
311.4836760530990887
 51
31.1054713747829403
  0
ARC
  5
21614
  8
0
 10
4390.8567750658830846
 20
284.4026031649473225
 30
0.0
 40
0.0542247551398279
 50
319.2937763404524958
 51
36.3274470185680372
  0
ARC
  5
21615
  8
0
 10
4390.1659516577010436
 20
285.0362577902826047
 30
0.0
 40
0.035201854764668
 50
31.7031255349810905
 51
141.9635630055720981
  0
ARC
  5
21616
  8
0
 10
4390.177724455275893
 20
285.0226449613085151
 30
0.0
 40
0.0529756703300062
 50
138.2103191267860041
 51
217.4109042322463097
  0
ARC
  5
21617
  8
0
 10
4390.1632145196881538
 20
285.0139573556169239
 30
0.0
 40
0.0362231229448884
 50
220.4407606545040039
 51
307.4719107599020731
  0
ARC
  5
21618
  8
0
 10
4390.1488551975071459
 20
285.0263711647123159
 30
0.0
 40
0.0549458124582342
 50
311.4836760530990887
 51
31.1054713747829403
  0
ARC
  5
21619
  8
0
 10
4390.0945401249982751
 20
285.0258251518442876
 30
0.0
 40
0.0542247551398279
 50
319.2937763404524958
 51
36.3274470185680372
  0
ARC
  5
2161A
  8
0
 10
4390.1202807192912587
 20
283.7894572336006718
 30
0.0
 40
0.035201854764668
 50
31.7031255349810905
 51
141.9635630055720981
  0
ARC
  5
2161B
  8
0
 10
4390.1320535168670176
 20
283.7758444046265822
 30
0.0
 40
0.0529756703300062
 50
138.2103191267860041
 51
217.4109042322463097
  0
ARC
  5
2161C
  8
0
 10
4390.11754358127655
 20
283.767156798934991
 30
0.0
 40
0.0362231229448884
 50
220.4407606545040039
 51
307.4719107599020731
  0
ARC
  5
2161D
  8
0
 10
4390.1031842590973611
 20
283.779570608030383
 30
0.0
 40
0.0549458124582342
 50
311.4836760530990887
 51
31.1054713747829403
  0
ARC
  5
2161E
  8
0
 10
4390.0488691865866713
 20
283.7790245951624115
 30
0.0
 40
0.0542247551398279
 50
319.2937763404524958
 51
36.3274470185680372
  0
ARC
  5
2161F
  8
0
 10
4388.7241276769591423
 20
284.4130358033855828
 30
0.0
 40
0.035201854764668
 50
31.7031255349810905
 51
141.9635630055720981
  0
ARC
  5
21620
  8
0
 10
4388.7359004745339917
 20
284.3994229744114932
 30
0.0
 40
0.0529756703300062
 50
138.2103191267860041
 51
217.4109042322463097
  0
ARC
  5
21621
  8
0
 10
4388.721390538945343
 20
284.3907353687197883
 30
0.0
 40
0.0362231229448884
 50
220.4407606545040039
 51
307.4719107599020731
  0
ARC
  5
21622
  8
0
 10
4388.7070312167652446
 20
284.403149177815294
 30
0.0
 40
0.0549458124582342
 50
311.4836760530990887
 51
31.1054713747829403
  0
ARC
  5
21623
  8
0
 10
4388.6527161442563738
 20
284.4026031649473225
 30
0.0
 40
0.0542247551398279
 50
319.2937763404524958
 51
36.3274470185680372
  0
ARC
  5
21624
  8
0
 10
4387.5005643773338306
 20
285.0362577902826047
 30
0.0
 40
0.035201854764668
 50
31.7031255349810905
 51
141.9635630055720981
  0
ARC
  5
21625
  8
0
 10
4387.51233717490868
 20
285.0226449613085151
 30
0.0
 40
0.0529756703300062
 50
138.2103191267860041
 51
217.4109042322463097
  0
ARC
  5
21626
  8
0
 10
4387.4978272393200314
 20
285.0139573556169239
 30
0.0
 40
0.0362231229448884
 50
220.4407606545040039
 51
307.4719107599020731
  0
ARC
  5
21627
  8
0
 10
4387.483467917139933
 20
285.0263711647123159
 30
0.0
 40
0.0549458124582342
 50
311.4836760530990887
 51
31.1054713747829403
  0
ARC
  5
21628
  8
0
 10
4387.4291528446301527
 20
285.0258251518442876
 30
0.0
 40
0.0542247551398279
 50
319.2937763404524958
 51
36.3274470185680372
  0
ARC
  5
21629
  8
0
 10
4387.4548934389231363
 20
283.7894572336006718
 30
0.0
 40
0.035201854764668
 50
31.7031255349810905
 51
141.9635630055720981
  0
ARC
  5
2162A
  8
0
 10
4387.4666662364979857
 20
283.7758444046265822
 30
0.0
 40
0.0529756703300062
 50
138.2103191267860041
 51
217.4109042322463097
  0
ARC
  5
2162B
  8
0
 10
4387.4521563009102465
 20
283.767156798934991
 30
0.0
 40
0.0362231229448884
 50
220.4407606545040039
 51
307.4719107599020731
  0
ARC
  5
2162C
  8
0
 10
4387.4377969787301481
 20
283.779570608030383
 30
0.0
 40
0.0549458124582342
 50
311.4836760530990887
 51
31.1054713747829403
  0
ARC
  5
2162D
  8
0
 10
4387.3834819062203678
 20
283.7790245951624115
 30
0.0
 40
0.0542247551398279
 50
319.2937763404524958
 51
36.3274470185680372
  0
ARC
  5
2162E
  8
0
 10
4384.8036735664882144
 20
285.0383566783169726
 30
0.0
 40
0.035201854764668
 50
38.0364369944278522
 51
148.2968744650189024
  0
ARC
  5
2162F
  8
0
 10
4384.791900768911546
 20
285.0247438493428831
 30
0.0
 40
0.0529756703300062
 50
322.5890957677536903
 51
41.7896808732140101
  0
ARC
  5
21630
  8
0
 10
4384.8064107045011042
 20
285.0160562436511782
 30
0.0
 40
0.0362231229448884
 50
232.5280892400978985
 51
319.5592393454958824
  0
ARC
  5
21631
  8
0
 10
4384.8207700266812026
 20
285.0284700527466839
 30
0.0
 40
0.0549458124582342
 50
148.8945286252171059
 51
228.5163239468618883
  0
ARC
  5
21632
  8
0
 10
4384.8750850991909829
 20
285.0279240398787124
 30
0.0
 40
0.0542247551398279
 50
143.6725529814318918
 51
220.7062236595475895
  0
ARC
  5
21633
  8
0
 10
4384.82512958389907
 20
283.7835459397455793
 30
0.0
 40
0.035201854764668
 50
38.0364369944278522
 51
148.2968744650189024
  0
ARC
  5
21634
  8
0
 10
4384.8133567863242206
 20
283.7699331107713761
 30
0.0
 40
0.0529756703300062
 50
322.5890957677536903
 51
41.7896808732140101
  0
ARC
  5
21635
  8
0
 10
4384.8278667219119598
 20
283.7612455050797848
 30
0.0
 40
0.0362231229448884
 50
232.5280892400978985
 51
319.5592393454958824
  0
ARC
  5
21636
  8
0
 10
4384.8422260440929676
 20
283.7736593141751769
 30
0.0
 40
0.0549458124582342
 50
148.8945286252171059
 51
228.5163239468618883
  0
ARC
  5
21637
  8
0
 10
4384.8965411166018384
 20
283.773113301307319
 30
0.0
 40
0.0542247551398279
 50
143.6725529814318918
 51
220.7062236595475895
  0
ARC
  5
21638
  8
0
 10
4386.2617769321959713
 20
284.4120345145353781
 30
0.0
 40
0.035201854764668
 50
38.0364369944278522
 51
148.2968744650189024
  0
ARC
  5
21639
  8
0
 10
4386.2500041346211219
 20
284.3984216855612885
 30
0.0
 40
0.0529756703300062
 50
322.5890957677536903
 51
41.7896808732140101
  0
ARC
  5
2163A
  8
0
 10
4386.2645140702097706
 20
284.3897340798695836
 30
0.0
 40
0.0362231229448884
 50
232.5280892400978985
 51
319.5592393454958824
  0
ARC
  5
2163B
  8
0
 10
4386.278873392389869
 20
284.4021478889650894
 30
0.0
 40
0.0549458124582342
 50
148.8945286252171059
 51
228.5163239468618883
  0
ARC
  5
2163C
  8
0
 10
4386.3331884648996493
 20
284.4016018760971178
 30
0.0
 40
0.0542247551398279
 50
143.6725529814318918
 51
220.7062236595475895
  0
ARC
  5
2163D
  8
0
 10
4381.8462277571234154
 20
366.1924800734374799
 30
0.0
 40
86.0734553139459138
 50
268.165472874471277
 51
271.8271919292978964
  0
ENDSEC
  0
EOF
