  0
SECTION
  2
HEADER
  9
$ACADVER
  1
AC1009
  9
$INSBASE
 10
4896.3056178764391007
 20
582.9596890795246509
 30
0.0
  9
$EXTMIN
 10
4881.1980839948428184
 20
568.7533971477042769
 30
-0.0015258207003583
  9
$EXTMAX
 10
4911.5495931680834474
 20
584.7707227940007897
 30
0.0000000349246037
  9
$LIMMIN
 10
0.0
 20
0.0
  9
$LIMMAX
 10
11.6929133858000007
 20
8.2677165353999982
  9
$ORTHOMODE
 70
     0
  9
$REGENMODE
 70
     1
  9
$FILLMODE
 70
     1
  9
$QTEXTMODE
 70
     0
  9
$MIRRTEXT
 70
     0
  9
$DRAGMODE
 70
     2
  9
$LTSCALE
 40
0.6431102362
  9
$OSMODE
 70
     7
  9
$ATTMODE
 70
     1
  9
$TEXTSIZE
 40
0.2
  9
$TRACEWID
 40
0.05
  9
$TEXTSTYLE
  7
STANDARD
  9
$CLAYER
  8
0
  9
$CELTYPE
  6
BYLAYER
  9
$CECOLOR
 62
   256
  9
$DIMSCALE
 40
1.0
  9
$DIMASZ
 40
0.1875
  9
$DIMEXO
 40
0.0625
  9
$DIMDLI
 40
0.4443307087
  9
$DIMRND
 40
0.0
  9
$DIMDLE
 40
0.0
  9
$DIMEXE
 40
0.125
  9
$DIMTP
 40
0.01
  9
$DIMTM
 40
0.01
  9
$DIMTXT
 40
2.0
  9
$DIMCEN
 40
0.1052362205
  9
$DIMTSZ
 40
0.0
  9
$DIMTOL
 70
     1
  9
$DIMLIM
 70
     0
  9
$DIMTIH
 70
     1
  9
$DIMTOH
 70
     1
  9
$DIMSE1
 70
     0
  9
$DIMSE2
 70
     0
  9
$DIMTAD
 70
     0
  9
$DIMZIN
 70
     0
  9
$DIMBLK
  1

  9
$DIMASO
 70
     1
  9
$DIMSHO
 70
     1
  9
$DIMPOST
  1
\X
  9
$DIMAPOST
  1

  9
$DIMALT
 70
     1
  9
$DIMALTD
 70
     2
  9
$DIMALTF
 40
25.3999999999999986
  9
$DIMLFAC
 40
1.0
  9
$DIMTOFL
 70
     0
  9
$DIMTVP
 40
0.0
  9
$DIMTIX
 70
     0
  9
$DIMSOXD
 70
     0
  9
$DIMSAH
 70
     0
  9
$DIMBLK1
  1

  9
$DIMBLK2
  1

  9
$DIMSTYLE
  2
STANDARD
  9
$DIMCLRD
 70
     0
  9
$DIMCLRE
 70
     0
  9
$DIMCLRT
 70
     0
  9
$DIMTFAC
 40
1.0
  9
$DIMGAP
 40
0.09
  9
$LUNITS
 70
     2
  9
$LUPREC
 70
     4
  9
$SKETCHINC
 40
0.1
  9
$FILLETRAD
 40
0.0
  9
$AUNITS
 70
     0
  9
$AUPREC
 70
     0
  9
$MENU
  1
.
  9
$ELEVATION
 40
0.0
  9
$PELEVATION
 40
0.0
  9
$THICKNESS
 40
0.0
  9
$LIMCHECK
 70
     0
  9
$BLIPMODE
 70
     0
  9
$CHAMFERA
 40
0.0
  9
$CHAMFERB
 40
0.0
  9
$SKPOLY
 70
     0
  9
$TDCREATE
 40
2458060.468368056230247
  9
$TDUPDATE
 40
2459563.6148726851679385
  9
$TDINDWG
 40
1.6770802546000001
  9
$TDUSRTIMER
 40
1.6770802546000001
  9
$USRTIMER
 70
     1
  9
$ANGBASE
 50
0.0
  9
$ANGDIR
 70
     0
  9
$PDMODE
 70
     0
  9
$PDSIZE
 40
0.3125
  9
$PLINEWID
 40
0.0
  9
$COORDS
 70
     1
  9
$SPLFRAME
 70
     0
  9
$SPLINETYPE
 70
     6
  9
$SPLINESEGS
 70
     8
  9
$ATTDIA
 70
     1
  9
$ATTREQ
 70
     1
  9
$HANDLING
 70
     1
  9
$HANDSEED
  5
1EEC3
  9
$SURFTAB1
 70
     6
  9
$SURFTAB2
 70
     6
  9
$SURFTYPE
 70
     6
  9
$SURFU
 70
     6
  9
$SURFV
 70
     6
  9
$UCSNAME
  2

  9
$UCSORG
 10
0.0
 20
0.0
 30
0.0
  9
$UCSXDIR
 10
1.0
 20
0.0
 30
0.0
  9
$UCSYDIR
 10
0.0
 20
1.0
 30
0.0
  9
$PUCSNAME
  2

  9
$PUCSORG
 10
0.0
 20
0.0
 30
0.0
  9
$PUCSXDIR
 10
1.0
 20
0.0
 30
0.0
  9
$PUCSYDIR
 10
0.0
 20
1.0
 30
0.0
  9
$USERI1
 70
     0
  9
$USERI2
 70
     0
  9
$USERI3
 70
     0
  9
$USERI4
 70
     0
  9
$USERI5
 70
     0
  9
$USERR1
 40
0.0
  9
$USERR2
 40
0.0
  9
$USERR3
 40
0.0
  9
$USERR4
 40
0.0
  9
$USERR5
 40
0.0
  9
$WORLDVIEW
 70
     1
  9
$SHADEDGE
 70
     3
  9
$SHADEDIF
 70
    70
  9
$TILEMODE
 70
     1
  9
$MAXACTVP
 70
    64
  9
$PLIMCHECK
 70
     0
  9
$PEXTMIN
 10
1.0000000000000000E+20
 20
1.0000000000000000E+20
 30
1.0000000000000000E+20
  9
$PEXTMAX
 10
-1.0000000000000000E+20
 20
-1.0000000000000000E+20
 30
-1.0000000000000000E+20
  9
$PLIMMIN
 10
0.0
 20
0.0
  9
$PLIMMAX
 10
12.0
 20
9.0
  9
$UNITMODE
 70
     0
  9
$VISRETAIN
 70
     1
  9
$PLINEGEN
 70
     0
  9
$PSLTSCALE
 70
     1
  0
ENDSEC
  0
SECTION
  2
TABLES
  0
TABLE
  2
VPORT
 70
     1
  0
VPORT
  2
*ACTIVE
 70
     0
 10
0.0
 20
0.0
 11
1.0
 21
1.0
 12
985.0084821361505192
 22
444.1824548683135276
 13
0.0
 23
0.0
 14
1.0
 24
1.0
 15
0.0
 25
0.0
 16
0.0
 26
0.0
 36
60.4960186965801583
 17
3911.3653564453120453
 27
132.5796051025390057
 37
0.0
 40
16.1396011090252607
 41
1.8876941457586609
 42
50.0
 43
0.0
 44
0.0
 50
0.0
 51
0.0
 71
     0
 72
   100
 73
     1
 74
     1
 75
     0
 76
     0
 77
     0
 78
     0
  0
ENDTAB
  0
TABLE
  2
LTYPE
 70
     2
  0
LTYPE
  2
CONTINUOUS
 70
     0
  3
Solid line
 72
    65
 73
     0
 40
0.0
  0
LTYPE
  2
PHANTOM2
 70
     0
  3
___ _ _ ___ _ _ ___ _ _ ___ _ _
 72
    65
 73
     6
 40
1.25
 49
0.625
 49
-0.125
 49
0.125
 49
-0.125
 49
0.125
 49
-0.125
  0
ENDTAB
  0
TABLE
  2
LAYER
 70
     2
  0
LAYER
  2
0
 70
     0
 62
   255
  6
CONTINUOUS
  0
LAYER
  2
DEFPOINTS
 70
     0
 62
     7
  6
CONTINUOUS
  0
ENDTAB
  0
TABLE
  2
STYLE
 70
     1
  0
STYLE
  2
STANDARD
 70
     0
 40
0.0
 41
0.8
 50
0.0
 71
     0
 42
0.2
  3
txt
  4

  0
ENDTAB
  0
TABLE
  2
VIEW
 70
     0
  0
ENDTAB
  0
TABLE
  2
UCS
 70
     0
  0
ENDTAB
  0
TABLE
  2
APPID
 70
    11
  0
APPID
  2
ACAD
 70
     0
  0
APPID
  2
ACAD_MLEADERVER
 70
     0
  0
APPID
  2
ACAD_EXEMPT_FROM_CAD_STANDARDS
 70
     0
  0
APPID
  2
ACAD_NAV_VCDISPLAY
 70
     0
  0
APPID
  2
ACAECLAYERSTANDARD
 70
     0
  0
APPID
  2
ACCMTRANSPARENCY
 70
     0
  0
APPID
  2
ACAD_DSTYLE_DIMJAG
 70
     0
  0
APPID
  2
ACAD_DSTYLE_DIMTALN
 70
     0
  0
APPID
  2
ACDBATTR
 70
     0
  0
APPID
  2
ACADANNOTATIVE
 70
     0
  0
APPID
  2
DCO15
 70
     0
  0
ENDTAB
  0
TABLE
  2
DIMSTYLE
 70
     1
  0
DIMSTYLE
  2
STANDARD
 70
     0
  3

  4

  5

  6

  7

 40
1.0
 41
0.1875
 42
0.0625
 43
0.38
 44
0.125
 45
0.0
 46
0.0
 47
0.01
 48
0.01
140
0.15625
141
0.09
142
0.0
143
25.3999999999999986
144
1.0
145
0.0
146
1.0
147
0.09
 71
     1
 72
     0
 73
     1
 74
     1
 75
     0
 76
     0
 77
     0
 78
     4
170
     0
171
     2
172
     0
173
     0
174
     0
175
     0
176
     0
177
     0
178
     0
  0
ENDTAB
  0
ENDSEC
  0
SECTION
  2
BLOCKS
  0
BLOCK
  8
0
  2
$MODEL_SPACE
 70
     0
 10
0.0
 20
0.0
 30
0.0
  3
$MODEL_SPACE
  1

  0
ENDBLK
  5
21
  8
0
  0
BLOCK
 67
     1
  8
0
  2
$PAPER_SPACE
 70
     0
 10
0.0
 20
0.0
 30
0.0
  3
$PAPER_SPACE
  1

  0
ENDBLK
  5
1D
 67
     1
  8
0
  0
ENDSEC
  0
SECTION
  2
ENTITIES
  0
ATTDEF
  5
159BF
  8
DEFPOINTS
 10
4896.3056227311590192
 20
582.9630283338689196
 30
0.0
 40
0.001
  1
K-18776T
  3

  2
MODELNUMBER
 70
     0
1001
ACDBATTR
1070
     0
1070
     1
  0
ATTDEF
  5
159C0
  8
DEFPOINTS
 10
4896.3056227311590192
 20
582.9613614934896759
 30
0.0
 40
0.001
  1
DUO
  3

  2
TRADENAME
 70
     0
1001
ACDBATTR
1070
     0
1070
     1
  0
ATTDEF
  5
159C1
  8
DEFPOINTS
 10
4896.3056227311590192
 20
582.9596950005354756
 30
0.0
 40
0.001
  1
BATH
  3

  2
PRODUCT
 70
     0
1001
ACDBATTR
1070
     0
1070
     1
  0
LINE
  5
1EDE7
  8
0
 10
4911.1875076401893239
 20
584.7707127016246886
 30
0.0
 11
4881.4237281126888774
 21
584.7707127016246886
 31
0.0
  0
LINE
  5
1EDE8
  8
0
 10
4881.3449879551890263
 20
582.9596890795246509
 30
0.0
 11
4911.2662477976891751
 21
582.9596890795246509
 31
0.0
  0
LINE
  5
1EDE9
  8
0
 10
4897.4867202496889149
 20
568.7770119142246585
 30
0.0
 11
4895.1245155031892864
 21
568.7770119142246585
 31
0.0
  0
ARC
  5
1EDEA
  8
0
 10
4894.2683841234020292
 20
569.1094153524447847
 30
0.0
 40
0.0182070342074605
 50
45.5296197964500635
 51
87.8360539212141447
  0
ARC
  5
1EDEB
  8
0
 10
4895.1245155252890982
 20
569.9793741189248522
 30
0.0
 40
1.202362204700042
 50
225.4579055115040944
 51
269.9999989421107216
  0
ARC
  5
1EDEC
  8
0
 10
4898.3428910239490506
 20
569.1093240733659968
 30
0.0
 40
0.0182997891714093
 50
92.2763400965617251
 51
134.3581393434450035
  0
ARC
  5
1EDED
  8
0
 10
4897.4867202496889149
 20
569.9793741189247385
 30
0.0
 40
1.202362204700016
 50
270.0
 51
314.5420945219038913
  0
ARC
  5
1EDEE
  8
0
 10
4894.9508134713851177
 20
590.6721188236693934
 30
0.0
 40
21.5570739426923588
 50
268.7600857467015771
 51
271.2919444683384995
  0
ARC
  5
1EDEF
  8
0
 10
4896.3055717750039548
 20
515.764634146812341
 30
0.0
 40
53.3629623208055008
 50
89.0671516275001807
 51
90.9327808506602508
  0
ARC
  5
1EDF0
  8
0
 10
4897.6604402986304194
 20
590.6816855709902256
 30
0.0
 40
21.56664034963174
 50
268.7085028993413971
 51
271.2388586123511232
  0
LINE
  5
1EDF1
  8
0
 10
4898.1267213502887898
 20
569.1200864199247462
 30
0.0
 11
4904.9689113425893083
 21
569.3590073930247399
 31
0.0
  0
ARC
  5
1EDF2
  8
0
 10
4904.9035947530283011
 20
571.2295129784639585
 30
0.0
 40
1.871645640080255
 50
271.9999111302730057
 51
349.6479192198298165
  0
LINE
  5
1EDF3
  8
0
 10
4906.7447739393892334
 20
570.8931848563247513
 30
0.0
 11
4909.0761676662878017
 21
582.9596890795246509
 31
0.0
  0
LINE
  5
1EDF4
  8
0
 10
4911.2662477976891751
 20
582.9596890795246509
 30
0.0
 11
4911.2662477976891751
 21
584.6919725441247238
 31
0.0
  0
ARC
  5
1EDF5
  8
0
 10
4911.1875076401893239
 20
584.6919725441247238
 30
0.0
 40
0.0787401574999933
 50
0.0000000000162844
 51
90.0
  0
CIRCLE
  5
1EDF6
  8
0
 10
4896.3056178763890784
 20
581.0707127016247568
 30
0.0
 40
1.0234999999999981
  0
ARC
  5
1EDF7
  8
0
 10
4894.2683447289291507
 20
569.1093240733659968
 30
0.0
 40
0.0182997891714093
 50
45.6418606565549965
 51
87.7236599034382749
  0
LINE
  5
1EDF8
  8
0
 10
4894.4843421665600545
 20
569.1200924341979999
 30
0.0
 11
4887.642324410288893
 21
569.3590073930247399
 31
0.0
  0
ARC
  5
1EDF9
  8
0
 10
4887.7076409998499003
 20
571.2295129784639585
 30
0.0
 40
1.871645640080255
 50
190.3520807801702119
 51
268.000088869727108
  0
LINE
  5
1EDFA
  8
0
 10
4885.8664618134880584
 20
570.8931848563247513
 30
0.0
 11
4883.5350680865876711
 21
582.9596890795246509
 31
0.0
  0
LINE
  5
1EDFB
  8
0
 10
4881.3449879551890263
 20
582.9596890795246509
 30
0.0
 11
4881.3449879551890263
 21
584.6919725441247238
 31
0.0
  0
ARC
  5
1EDFC
  8
0
 10
4881.4237281126888774
 20
584.6919725441247238
 30
0.0
 40
0.0787401574999933
 50
90.0
 51
179.9999999999836859
  0
ENDSEC
  0
EOF
