  0
SECTION
  2
HEADER
  9
$ACADVER
  1
AC1009
  9
$INSBASE
 10
5709.8689967503632943
 20
330.9078314902861848
 30
0.0
  9
$EXTMIN
 10
5697.1332382893488102
 20
317.1874377631150992
 30
-0.0000000000000058
  9
$EXTMAX
 10
5722.4565404149871028
 20
330.9226486974816908
 30
0.0000000000000104
  9
$LIMMIN
 10
0.0
 20
0.0
  9
$LIMMAX
 10
11.6929133858000007
 20
8.2677165353999982
  9
$ORTHOMODE
 70
     0
  9
$REGENMODE
 70
     1
  9
$FILLMODE
 70
     1
  9
$QTEXTMODE
 70
     0
  9
$MIRRTEXT
 70
     0
  9
$DRAGMODE
 70
     2
  9
$LTSCALE
 40
0.6431102362
  9
$OSMODE
 70
  4095
  9
$ATTMODE
 70
     1
  9
$TEXTSIZE
 40
0.2
  9
$TRACEWID
 40
0.05
  9
$TEXTSTYLE
  7
STANDARD
  9
$CLAYER
  8
0
  9
$CELTYPE
  6
BYLAYER
  9
$CECOLOR
 62
   256
  9
$DIMSCALE
 40
1.0
  9
$DIMASZ
 40
0.1875
  9
$DIMEXO
 40
0.0625
  9
$DIMDLI
 40
0.4443307087
  9
$DIMRND
 40
0.0
  9
$DIMDLE
 40
0.0
  9
$DIMEXE
 40
0.125
  9
$DIMTP
 40
0.01
  9
$DIMTM
 40
0.01
  9
$DIMTXT
 40
2.0
  9
$DIMCEN
 40
0.1052362205
  9
$DIMTSZ
 40
0.0
  9
$DIMTOL
 70
     1
  9
$DIMLIM
 70
     0
  9
$DIMTIH
 70
     1
  9
$DIMTOH
 70
     1
  9
$DIMSE1
 70
     0
  9
$DIMSE2
 70
     0
  9
$DIMTAD
 70
     0
  9
$DIMZIN
 70
     0
  9
$DIMBLK
  1

  9
$DIMASO
 70
     1
  9
$DIMSHO
 70
     1
  9
$DIMPOST
  1
\X
  9
$DIMAPOST
  1

  9
$DIMALT
 70
     1
  9
$DIMALTD
 70
     2
  9
$DIMALTF
 40
25.3999999999999986
  9
$DIMLFAC
 40
1.0
  9
$DIMTOFL
 70
     0
  9
$DIMTVP
 40
0.0
  9
$DIMTIX
 70
     0
  9
$DIMSOXD
 70
     0
  9
$DIMSAH
 70
     0
  9
$DIMBLK1
  1

  9
$DIMBLK2
  1

  9
$DIMSTYLE
  2
STANDARD
  9
$DIMCLRD
 70
     0
  9
$DIMCLRE
 70
     0
  9
$DIMCLRT
 70
     0
  9
$DIMTFAC
 40
1.0
  9
$DIMGAP
 40
0.09
  9
$LUNITS
 70
     2
  9
$LUPREC
 70
     4
  9
$SKETCHINC
 40
0.1
  9
$FILLETRAD
 40
0.0
  9
$AUNITS
 70
     0
  9
$AUPREC
 70
     0
  9
$MENU
  1
.
  9
$ELEVATION
 40
0.0
  9
$PELEVATION
 40
0.0
  9
$THICKNESS
 40
0.0
  9
$LIMCHECK
 70
     0
  9
$BLIPMODE
 70
     0
  9
$CHAMFERA
 40
0.0
  9
$CHAMFERB
 40
0.0
  9
$SKPOLY
 70
     0
  9
$TDCREATE
 40
2458060.468368056230247
  9
$TDUPDATE
 40
2460812.4376041670329869
  9
$TDINDWG
 40
0.6744283565
  9
$TDUSRTIMER
 40
0.6744283565
  9
$USRTIMER
 70
     1
  9
$ANGBASE
 50
0.0
  9
$ANGDIR
 70
     0
  9
$PDMODE
 70
     0
  9
$PDSIZE
 40
0.3125
  9
$PLINEWID
 40
0.0
  9
$COORDS
 70
     1
  9
$SPLFRAME
 70
     0
  9
$SPLINETYPE
 70
     6
  9
$SPLINESEGS
 70
     8
  9
$ATTDIA
 70
     1
  9
$ATTREQ
 70
     1
  9
$HANDLING
 70
     1
  9
$HANDSEED
  5
3045F
  9
$SURFTAB1
 70
     6
  9
$SURFTAB2
 70
     6
  9
$SURFTYPE
 70
     6
  9
$SURFU
 70
     6
  9
$SURFV
 70
     6
  9
$UCSNAME
  2

  9
$UCSORG
 10
0.0
 20
0.0
 30
0.0
  9
$UCSXDIR
 10
1.0
 20
0.0
 30
0.0
  9
$UCSYDIR
 10
0.0
 20
1.0
 30
0.0
  9
$PUCSNAME
  2

  9
$PUCSORG
 10
0.0
 20
0.0
 30
0.0
  9
$PUCSXDIR
 10
1.0
 20
0.0
 30
0.0
  9
$PUCSYDIR
 10
0.0
 20
1.0
 30
0.0
  9
$USERI1
 70
     0
  9
$USERI2
 70
     0
  9
$USERI3
 70
     0
  9
$USERI4
 70
     0
  9
$USERI5
 70
     0
  9
$USERR1
 40
0.0
  9
$USERR2
 40
0.0
  9
$USERR3
 40
0.0
  9
$USERR4
 40
0.0
  9
$USERR5
 40
0.0
  9
$WORLDVIEW
 70
     1
  9
$SHADEDGE
 70
     3
  9
$SHADEDIF
 70
    70
  9
$TILEMODE
 70
     1
  9
$MAXACTVP
 70
    64
  9
$PLIMCHECK
 70
     0
  9
$PEXTMIN
 10
1.0000000000000000E+20
 20
1.0000000000000000E+20
 30
1.0000000000000000E+20
  9
$PEXTMAX
 10
-1.0000000000000000E+20
 20
-1.0000000000000000E+20
 30
-1.0000000000000000E+20
  9
$PLIMMIN
 10
0.0
 20
0.0
  9
$PLIMMAX
 10
12.0
 20
9.0
  9
$UNITMODE
 70
     0
  9
$VISRETAIN
 70
     1
  9
$PLINEGEN
 70
     0
  9
$PSLTSCALE
 70
     1
  0
ENDSEC
  0
SECTION
  2
TABLES
  0
TABLE
  2
VPORT
 70
     1
  0
VPORT
  2
*ACTIVE
 70
     0
 10
0.0
 20
0.0
 11
1.0
 21
1.0
 12
1798.4295329068550018
 22
191.4754381277593041
 13
0.0
 23
0.0
 14
1.0
 24
1.0
 15
0.0
 25
0.0
 16
0.0
 26
0.0
 36
60.4960186965801583
 17
3911.3653564453120453
 27
132.5796051025390057
 37
0.0
 40
15.1155438399029691
 41
1.682022471910112
 42
50.0
 43
0.0
 44
0.0
 50
0.0
 51
0.0
 71
     0
 72
   100
 73
     1
 74
     1
 75
     0
 76
     0
 77
     0
 78
     0
  0
ENDTAB
  0
TABLE
  2
LTYPE
 70
     2
  0
LTYPE
  2
CONTINUOUS
 70
     0
  3
Solid line
 72
    65
 73
     0
 40
0.0
  0
LTYPE
  2
PHANTOM2
 70
     0
  3
___ _ _ ___ _ _ ___ _ _ ___ _ _
 72
    65
 73
     6
 40
1.25
 49
0.625
 49
-0.125
 49
0.125
 49
-0.125
 49
0.125
 49
-0.125
  0
ENDTAB
  0
TABLE
  2
LAYER
 70
     2
  0
LAYER
  2
0
 70
     0
 62
   255
  6
CONTINUOUS
  0
LAYER
  2
DEFPOINTS
 70
     0
 62
     7
  6
CONTINUOUS
  0
ENDTAB
  0
TABLE
  2
STYLE
 70
     1
  0
STYLE
  2
STANDARD
 70
     0
 40
0.0
 41
0.8
 50
0.0
 71
     0
 42
0.2
  3
txt
  4

  0
ENDTAB
  0
TABLE
  2
VIEW
 70
     0
  0
ENDTAB
  0
TABLE
  2
UCS
 70
     0
  0
ENDTAB
  0
TABLE
  2
APPID
 70
    11
  0
APPID
  2
ACAD
 70
     0
  0
APPID
  2
ACAD_MLEADERVER
 70
     0
  0
APPID
  2
ACAD_EXEMPT_FROM_CAD_STANDARDS
 70
     0
  0
APPID
  2
ACAD_NAV_VCDISPLAY
 70
     0
  0
APPID
  2
ACAECLAYERSTANDARD
 70
     0
  0
APPID
  2
ACCMTRANSPARENCY
 70
     0
  0
APPID
  2
ACAD_DSTYLE_DIMJAG
 70
     0
  0
APPID
  2
ACAD_DSTYLE_DIMTALN
 70
     0
  0
APPID
  2
ACDBATTR
 70
     0
  0
APPID
  2
ACADANNOTATIVE
 70
     0
  0
APPID
  2
DCO15
 70
     0
  0
ENDTAB
  0
TABLE
  2
DIMSTYLE
 70
     1
  0
DIMSTYLE
  2
STANDARD
 70
     0
  3

  4

  5

  6

  7

 40
1.0
 41
0.1875
 42
0.0625
 43
0.38
 44
0.125
 45
0.0
 46
0.0
 47
0.01
 48
0.01
140
0.15625
141
0.09
142
0.0
143
25.3999999999999986
144
1.0
145
0.0
146
1.0
147
0.09
 71
     1
 72
     0
 73
     1
 74
     1
 75
     0
 76
     0
 77
     0
 78
     4
170
     0
171
     2
172
     0
173
     0
174
     0
175
     0
176
     0
177
     0
178
     0
  0
ENDTAB
  0
ENDSEC
  0
SECTION
  2
BLOCKS
  0
BLOCK
  8
0
  2
$MODEL_SPACE
 70
     0
 10
0.0
 20
0.0
 30
0.0
  3
$MODEL_SPACE
  1

  0
ENDBLK
  5
21
  8
0
  0
BLOCK
 67
     1
  8
0
  2
$PAPER_SPACE
 70
     0
 10
0.0
 20
0.0
 30
0.0
  3
$PAPER_SPACE
  1

  0
ENDBLK
  5
1D
 67
     1
  8
0
  0
ENDSEC
  0
SECTION
  2
ENTITIES
  0
ATTDEF
  5
2842F
  8
DEFPOINTS
 10
5709.8662760015522508
 20
330.9112824834368212
 30
0.0
 40
0.001
  1
K-19017-1
  3

  2
MODELNUMBER
 70
     0
1001
ACDBATTR
1070
     0
1070
     1
  0
ATTDEF
  5
28430
  8
DEFPOINTS
 10
5709.8661501918941212
 20
330.9096156430575775
 30
0.0
 40
0.001
  1
GLEN FALLS
  3

  2
TRADENAME
 70
     0
1001
ACDBATTR
1070
     0
1070
     1
  0
ATTDEF
  5
28431
  8
DEFPOINTS
 10
5709.8662760015522508
 20
330.9079491501033772
 30
0.0
 40
0.001
  1
KITCHEN SINK
  3

  2
PRODUCT
 70
     0
1001
ACDBATTR
1070
     0
1070
     1
  0
LINE
  5
3036F
  8
0
 10
5721.7550994800531043
 20
330.9078314902861848
 30
0.0
 11
5697.9828940206725747
 21
330.9078314902861848
 31
0.0
  0
LINE
  5
30370
  8
0
 10
5719.7565025989260903
 20
320.7336444568697971
 30
0.0
 11
5720.9187002751059481
 21
330.1942419610555817
 31
0.0
  0
LINE
  5
30371
  8
0
 10
5717.6640570377230688
 20
317.1878314902863281
 30
0.0
 11
5717.1459588482030085
 21
317.1878314902863281
 31
0.0
  0
ARC
  5
30372
  8
0
 10
5717.1459588482030085
 20
317.2478314902862735
 30
0.0
 40
0.06
 50
184.0000000080418943
 51
270.0
  0
LINE
  5
30373
  8
0
 10
5717.0861050051889833
 20
317.2436461018531872
 30
0.0
 11
5717.0519543254622477
 21
317.732023574083712
 31
0.0
  0
LINE
  5
30374
  8
0
 10
5717.7239107137656902
 20
317.2436437147462129
 30
0.0
 11
5717.77680322078686
 21
317.9996085342863239
 31
0.0
  0
ARC
  5
30375
  8
0
 10
5717.6640570377230688
 20
317.2478314902862735
 30
0.0
 40
0.06
 50
270.0
 51
355.9977149031582826
  0
ARC
  5
30376
  8
0
 10
5717.094449211207575
 20
320.5186870734576132
 30
0.0
 40
2.5662479009887869
 50
285.6198579766248145
 51
343.3559652883541844
  0
ARC
  5
30377
  8
0
 10
5715.3836388122008429
 20
321.1727989129187222
 30
0.0
 40
4.394859990206319
 50
341.5736792650462235
 51
354.2651736062159102
  0
ARC
  5
30378
  8
0
 10
5717.9640772696620843
 20
317.9899177722334116
 30
0.0
 40
0.1876188520506021
 50
138.1945771040520867
 51
177.8212451635762079
  0
ARC
  5
30379
  8
0
 10
5718.1928852617638768
 20
317.7853008446419949
 30
0.0
 40
0.4945735462747976
 50
119.6920186362949039
 51
138.1945771040520867
  0
ARC
  5
3037A
  8
0
 10
5716.776192611562692
 20
317.739077006436105
 30
0.0
 40
0.2758519055114257
 50
358.5348081817309094
 51
88.0371016975092431
  0
ARC
  5
3037B
  8
0
 10
5717.6186118052573875
 20
316.6525797115118053
 30
0.0
 40
1.596682288370129
 50
78.0981670473580465
 51
121.4455725466467015
  0
ARC
  5
3037C
  8
0
 10
5721.7550994800531043
 20
330.2878314952095025
 30
0.0
 40
0.6199999950766545
 50
8.2132099700499221
 51
90.0000000042730335
  0
ARC
  5
3037D
  8
0
 10
5722.3439967503627486
 20
330.3728314902862735
 30
0.0
 40
0.025
 50
270.000000000104194
 51
8.2132102908766331
  0
ARC
  5
3037E
  8
0
 10
5721.2959933628899307
 20
330.1477687589476204
 30
0.0
 40
0.3801444891134441
 50
148.245342890998387
 51
172.9779439278993891
  0
ARC
  5
3037F
  8
0
 10
5603.9594708811318924
 20
2403.1510329635348171
 30
0.0
 40
2088.3255352502660571
 50
272.9944726113068896
 51
273.103159429016614
  0
ARC
  5
30380
  8
0
 10
5713.0987572486137651
 20
316.7983490710278147
 30
0.0
 40
0.8797934367621575
 50
92.9944726113069038
 51
137.679234754790599
  0
ARC
  5
30381
  8
0
 10
5712.3965035018663912
 20
317.4378162092079947
 30
0.0
 40
0.0699847192473726
 50
269.9944726129701849
 51
317.6792347547906274
  0
ARC
  5
30382
  8
0
 10
5709.8689967503632943
 20
-25882.1876064764401235
 30
0.0
 40
26199.555559882090165
 50
89.9944726129702417
 51
90.0
  0
LINE
  5
30383
  8
0
 10
5713.0527971763704045
 20
317.6769412193702919
 30
0.0
 11
5709.8689967503632943
 21
317.6769412193702919
 31
0.0
  0
LINE
  5
30384
  8
0
 10
5722.3439967503627486
 20
330.3478314902862962
 30
0.0
 11
5697.3939967503629305
 21
330.3478314902862962
 31
0.0
  0
LINE
  5
30385
  8
0
 10
5699.9814909018014077
 20
320.7336444568697971
 30
0.0
 11
5698.8192932256197309
 21
330.1942419610555817
 31
0.0
  0
LINE
  5
30386
  8
0
 10
5702.0739364630053387
 20
317.1878314902863281
 30
0.0
 11
5702.5920346525208515
 21
317.1878314902863281
 31
0.0
  0
ARC
  5
30387
  8
0
 10
5702.5920346525208515
 20
317.2478314902862735
 30
0.0
 40
0.06
 50
270.0
 51
355.9999999919547804
  0
LINE
  5
30388
  8
0
 10
5702.6518884955366957
 20
317.2436461018531872
 30
0.0
 11
5702.6860391752634314
 21
317.732023574083712
 31
0.0
  0
LINE
  5
30389
  8
0
 10
5702.0140827869599889
 20
317.2436437147462129
 30
0.0
 11
5701.961190279938819
 21
317.9996085342863239
 31
0.0
  0
ARC
  5
3038A
  8
0
 10
5702.0739364630053387
 20
317.2478314902862735
 30
0.0
 40
0.06
 50
184.002285096841689
 51
270.0
  0
ARC
  5
3038B
  8
0
 10
5702.6435442895190135
 20
320.5186870734576132
 30
0.0
 40
2.5662479009887869
 50
196.6440347116457872
 51
254.3801420233540114
  0
ARC
  5
3038C
  8
0
 10
5704.3543546885248361
 20
321.1727989129187222
 30
0.0
 40
4.394859990206319
 50
185.7348263937840045
 51
198.426320734953805
  0
ARC
  5
3038D
  8
0
 10
5701.7739162310635948
 20
317.9899177722334116
 30
0.0
 40
0.1876188520506021
 50
2.1787548364237419
 51
41.8054228959479275
  0
ARC
  5
3038E
  8
0
 10
5701.5451082389627118
 20
317.7853008446419949
 30
0.0
 40
0.4945735462747976
 50
41.8054228959479275
 51
60.3079813637051174
  0
ARC
  5
3038F
  8
0
 10
5702.961800889162987
 20
317.739077006436105
 30
0.0
 40
0.2758519055114257
 50
91.9628983024907569
 51
181.4651918182692043
  0
ARC
  5
30390
  8
0
 10
5702.1193816954682916
 20
316.6525797115118053
 30
0.0
 40
1.596682288370129
 50
58.5544274533533127
 51
101.9018329526418967
  0
ARC
  5
30391
  8
0
 10
5697.9828940206725747
 20
330.2878314952095025
 30
0.0
 40
0.6199999950766545
 50
89.9999999957269665
 51
171.7867900299499979
  0
ARC
  5
30392
  8
0
 10
5697.3939967503629305
 20
330.3728314902862735
 30
0.0
 40
0.025
 50
171.7867897091234113
 51
269.999999999895806
  0
ARC
  5
30393
  8
0
 10
5698.4420001378366578
 20
330.1477687589476204
 30
0.0
 40
0.3801444891134441
 50
7.0220560721005283
 51
31.7546571090015597
  0
ARC
  5
30394
  8
0
 10
5815.7785226195946962
 20
2403.1510329635348171
 30
0.0
 40
2088.3255352502660571
 50
266.896840570983386
 51
267.0055273886929967
  0
ARC
  5
30395
  8
0
 10
5706.6392362521128234
 20
316.7983490710278147
 30
0.0
 40
0.8797934367621575
 50
42.3207652452094081
 51
87.0055273886930962
  0
ARC
  5
30396
  8
0
 10
5707.3414899988601974
 20
317.4378162092079947
 30
0.0
 40
0.0699847192473726
 50
222.320765245209401
 51
270.0055273870297015
  0
ARC
  5
30397
  8
0
 10
5709.8689967503632943
 20
-25882.1876064764401235
 30
0.0
 40
26199.555559882090165
 50
90.0
 51
90.0055273870297583
  0
LINE
  5
30398
  8
0
 10
5706.6851963243570935
 20
317.6769412193702919
 30
0.0
 11
5709.8689967503632943
 21
317.6769412193702919
 31
0.0
  0
ENDSEC
  0
EOF
