  0
SECTION
  2
HEADER
  9
$ACADVER
  1
AC1009
  9
$INSBASE
 10
4833.4207514083809656
 20
350.0344924943968863
 30
0.0
  9
$EXTMIN
 10
4825.7909627501667273
 20
327.7797419563888184
 30
-0.0000000349181948
  9
$EXTMAX
 10
4840.866268312011016
 20
350.0562420957577956
 30
0.0000000814935746
  9
$LIMMIN
 10
0.0
 20
0.0
  9
$LIMMAX
 10
11.6929133858000007
 20
8.2677165353999982
  9
$ORTHOMODE
 70
     0
  9
$REGENMODE
 70
     1
  9
$FILLMODE
 70
     1
  9
$QTEXTMODE
 70
     0
  9
$MIRRTEXT
 70
     0
  9
$DRAGMODE
 70
     2
  9
$LTSCALE
 40
0.6431102362
  9
$OSMODE
 70
  4095
  9
$ATTMODE
 70
     1
  9
$TEXTSIZE
 40
0.2
  9
$TRACEWID
 40
0.05
  9
$TEXTSTYLE
  7
STANDARD
  9
$CLAYER
  8
0
  9
$CELTYPE
  6
BYLAYER
  9
$CECOLOR
 62
   256
  9
$DIMSCALE
 40
1.0
  9
$DIMASZ
 40
0.1875
  9
$DIMEXO
 40
0.0625
  9
$DIMDLI
 40
0.4443307087
  9
$DIMRND
 40
0.0
  9
$DIMDLE
 40
0.0
  9
$DIMEXE
 40
0.125
  9
$DIMTP
 40
0.01
  9
$DIMTM
 40
0.01
  9
$DIMTXT
 40
2.0
  9
$DIMCEN
 40
0.1052362205
  9
$DIMTSZ
 40
0.0
  9
$DIMTOL
 70
     1
  9
$DIMLIM
 70
     0
  9
$DIMTIH
 70
     1
  9
$DIMTOH
 70
     1
  9
$DIMSE1
 70
     0
  9
$DIMSE2
 70
     0
  9
$DIMTAD
 70
     0
  9
$DIMZIN
 70
     0
  9
$DIMBLK
  1

  9
$DIMASO
 70
     1
  9
$DIMSHO
 70
     1
  9
$DIMPOST
  1
\X
  9
$DIMAPOST
  1

  9
$DIMALT
 70
     1
  9
$DIMALTD
 70
     2
  9
$DIMALTF
 40
25.3999999999999986
  9
$DIMLFAC
 40
1.0
  9
$DIMTOFL
 70
     0
  9
$DIMTVP
 40
0.0
  9
$DIMTIX
 70
     0
  9
$DIMSOXD
 70
     0
  9
$DIMSAH
 70
     0
  9
$DIMBLK1
  1

  9
$DIMBLK2
  1

  9
$DIMSTYLE
  2
STANDARD
  9
$DIMCLRD
 70
     0
  9
$DIMCLRE
 70
     0
  9
$DIMCLRT
 70
     0
  9
$DIMTFAC
 40
1.0
  9
$DIMGAP
 40
0.09
  9
$LUNITS
 70
     2
  9
$LUPREC
 70
     4
  9
$SKETCHINC
 40
0.1
  9
$FILLETRAD
 40
0.0
  9
$AUNITS
 70
     0
  9
$AUPREC
 70
     0
  9
$MENU
  1
.
  9
$ELEVATION
 40
0.0
  9
$PELEVATION
 40
0.0
  9
$THICKNESS
 40
0.0
  9
$LIMCHECK
 70
     0
  9
$BLIPMODE
 70
     0
  9
$CHAMFERA
 40
0.0
  9
$CHAMFERB
 40
0.0
  9
$SKPOLY
 70
     0
  9
$TDCREATE
 40
2458060.468368056230247
  9
$TDUPDATE
 40
2459426.6453819437883794
  9
$TDINDWG
 40
0.5807015046
  9
$TDUSRTIMER
 40
0.5807015046
  9
$USRTIMER
 70
     1
  9
$ANGBASE
 50
0.0
  9
$ANGDIR
 70
     0
  9
$PDMODE
 70
     0
  9
$PDSIZE
 40
0.3125
  9
$PLINEWID
 40
0.0
  9
$COORDS
 70
     1
  9
$SPLFRAME
 70
     0
  9
$SPLINETYPE
 70
     6
  9
$SPLINESEGS
 70
     8
  9
$ATTDIA
 70
     1
  9
$ATTREQ
 70
     1
  9
$HANDLING
 70
     1
  9
$HANDSEED
  5
21E42
  9
$SURFTAB1
 70
     6
  9
$SURFTAB2
 70
     6
  9
$SURFTYPE
 70
     6
  9
$SURFU
 70
     6
  9
$SURFV
 70
     6
  9
$UCSNAME
  2

  9
$UCSORG
 10
0.0
 20
0.0
 30
0.0
  9
$UCSXDIR
 10
1.0
 20
0.0
 30
0.0
  9
$UCSYDIR
 10
0.0
 20
1.0
 30
0.0
  9
$PUCSNAME
  2

  9
$PUCSORG
 10
0.0
 20
0.0
 30
0.0
  9
$PUCSXDIR
 10
1.0
 20
0.0
 30
0.0
  9
$PUCSYDIR
 10
0.0
 20
1.0
 30
0.0
  9
$USERI1
 70
     0
  9
$USERI2
 70
     0
  9
$USERI3
 70
     0
  9
$USERI4
 70
     0
  9
$USERI5
 70
     0
  9
$USERR1
 40
0.0
  9
$USERR2
 40
0.0
  9
$USERR3
 40
0.0
  9
$USERR4
 40
0.0
  9
$USERR5
 40
0.0
  9
$WORLDVIEW
 70
     1
  9
$SHADEDGE
 70
     3
  9
$SHADEDIF
 70
    70
  9
$TILEMODE
 70
     1
  9
$MAXACTVP
 70
    64
  9
$PLIMCHECK
 70
     0
  9
$PEXTMIN
 10
1.0000000000000000E+20
 20
1.0000000000000000E+20
 30
1.0000000000000000E+20
  9
$PEXTMAX
 10
-1.0000000000000000E+20
 20
-1.0000000000000000E+20
 30
-1.0000000000000000E+20
  9
$PLIMMIN
 10
0.0
 20
0.0
  9
$PLIMMAX
 10
12.0
 20
9.0
  9
$UNITMODE
 70
     0
  9
$VISRETAIN
 70
     1
  9
$PLINEGEN
 70
     0
  9
$PSLTSCALE
 70
     1
  0
ENDSEC
  0
SECTION
  2
TABLES
  0
TABLE
  2
VPORT
 70
     1
  0
VPORT
  2
*ACTIVE
 70
     0
 10
0.0
 20
0.0
 11
1.0
 21
1.0
 12
921.963259085776258
 22
206.3383869235341876
 13
0.0
 23
0.0
 14
1.0
 24
1.0
 15
0.0
 25
0.0
 16
0.0
 26
0.0
 36
60.4960186965801583
 17
3911.3653564453120453
 27
132.5796051025390057
 37
0.0
 40
22.4530642091659196
 41
1.67063492063492
 42
50.0
 43
0.0
 44
0.0
 50
0.0
 51
0.0
 71
     0
 72
   100
 73
     1
 74
     1
 75
     0
 76
     0
 77
     0
 78
     0
  0
ENDTAB
  0
TABLE
  2
LTYPE
 70
     2
  0
LTYPE
  2
CONTINUOUS
 70
     0
  3
Solid line
 72
    65
 73
     0
 40
0.0
  0
LTYPE
  2
PHANTOM2
 70
     0
  3
___ _ _ ___ _ _ ___ _ _ ___ _ _
 72
    65
 73
     6
 40
1.25
 49
0.625
 49
-0.125
 49
0.125
 49
-0.125
 49
0.125
 49
-0.125
  0
ENDTAB
  0
TABLE
  2
LAYER
 70
     2
  0
LAYER
  2
0
 70
     0
 62
   255
  6
CONTINUOUS
  0
LAYER
  2
DEFPOINTS
 70
     0
 62
     7
  6
CONTINUOUS
  0
ENDTAB
  0
TABLE
  2
STYLE
 70
     1
  0
STYLE
  2
STANDARD
 70
     0
 40
0.0
 41
0.8
 50
0.0
 71
     0
 42
0.2
  3
txt
  4

  0
ENDTAB
  0
TABLE
  2
VIEW
 70
     0
  0
ENDTAB
  0
TABLE
  2
UCS
 70
     0
  0
ENDTAB
  0
TABLE
  2
APPID
 70
    11
  0
APPID
  2
ACAD
 70
     0
  0
APPID
  2
ACAD_MLEADERVER
 70
     0
  0
APPID
  2
ACAD_EXEMPT_FROM_CAD_STANDARDS
 70
     0
  0
APPID
  2
ACAD_NAV_VCDISPLAY
 70
     0
  0
APPID
  2
ACAECLAYERSTANDARD
 70
     0
  0
APPID
  2
ACCMTRANSPARENCY
 70
     0
  0
APPID
  2
ACAD_DSTYLE_DIMJAG
 70
     0
  0
APPID
  2
ACAD_DSTYLE_DIMTALN
 70
     0
  0
APPID
  2
ACDBATTR
 70
     0
  0
APPID
  2
ACADANNOTATIVE
 70
     0
  0
APPID
  2
DCO15
 70
     0
  0
ENDTAB
  0
TABLE
  2
DIMSTYLE
 70
     1
  0
DIMSTYLE
  2
STANDARD
 70
     0
  3

  4

  5

  6

  7

 40
1.0
 41
0.1875
 42
0.0625
 43
0.38
 44
0.125
 45
0.0
 46
0.0
 47
0.01
 48
0.01
140
0.15625
141
0.09
142
0.0
143
25.3999999999999986
144
1.0
145
0.0
146
1.0
147
0.09
 71
     1
 72
     0
 73
     1
 74
     1
 75
     0
 76
     0
 77
     0
 78
     4
170
     0
171
     2
172
     0
173
     0
174
     0
175
     0
176
     0
177
     0
178
     0
  0
ENDTAB
  0
ENDSEC
  0
SECTION
  2
BLOCKS
  0
BLOCK
  8
0
  2
$MODEL_SPACE
 70
     0
 10
0.0
 20
0.0
 30
0.0
  3
$MODEL_SPACE
  1

  0
ENDBLK
  5
21
  8
0
  0
BLOCK
 67
     1
  8
0
  2
$PAPER_SPACE
 70
     0
 10
0.0
 20
0.0
 30
0.0
  3
$PAPER_SPACE
  1

  0
ENDBLK
  5
1D
 67
     1
  8
0
  0
ENDSEC
  0
SECTION
  2
ENTITIES
  0
ATTDEF
  5
20106
  8
DEFPOINTS
 10
4833.4186331895662079
 20
350.040007310111605
 30
0.0
 40
0.001
  1
K-19037K-S
  3

  2
MODELNUMBER
 70
     0
1001
ACDBATTR
1070
     0
1070
     1
  0
ATTDEF
  5
20107
  8
DEFPOINTS
 10
4833.4185073799089878
 20
350.038340469732475
 30
0.0
 40
0.001
  1
REVE
  3

  2
TRADENAME
 70
     0
1001
ACDBATTR
1070
     0
1070
     1
  0
ATTDEF
  5
20108
  8
DEFPOINTS
 10
4833.4186331895662079
 20
350.0366739767782747
 30
0.0
 40
0.001
  1
TOILET
  3

  2
PRODUCT
 70
     0
1001
ACDBATTR
1070
     0
1070
     1
  0
LINE
  5
21D88
  8
0
 10
4826.3166036511138373
 20
350.0344924943968863
 30
0.0
 11
4840.5249031328157798
 21
350.0344924943968863
 31
0.0
  0
LINE
  5
21D89
  8
0
 10
4827.2195587273363344
 20
327.7975660268932074
 30
0.0
 11
4839.6219440893510182
 21
327.7975660268932074
 31
0.0
  0
LINE
  5
21D8A
  8
0
 10
4826.1194048127335918
 20
328.8976111051969156
 30
0.0
 11
4826.1194048127335918
 21
345.4098682940215781
 31
0.0
  0
LINE
  5
21D8B
  8
0
 10
4826.3166036511138373
 20
345.6068159020284156
 30
0.0
 11
4826.3166036511138373
 21
350.0344924943968863
 31
0.0
  0
LINE
  5
21D8C
  8
0
 10
4828.5362289398099165
 20
345.266954328096574
 30
0.0
 11
4838.3052916320430086
 21
345.266954328096574
 31
0.0
  0
ARC
  5
21D8D
  8
0
 10
4829.5428604060389262
 20
345.6305552634967739
 30
0.0
 40
0.8503937007999979
 50
348.9563344717321911
 51
182.6535308646571139
  0
LINE
  5
21D8E
  8
0
 10
4830.3475060753398793
 20
345.6994529012969224
 30
0.0
 11
4829.0571123745403384
 21
345.6994529012969224
 31
0.0
  0
LINE
  5
21D8F
  8
0
 10
4829.027112374538774
 20
345.6694529012967791
 30
0.0
 11
4829.027112374538774
 21
345.28752307226938
 31
0.0
  0
LINE
  5
21D90
  8
0
 10
4830.3775060753396247
 20
345.6694529012967791
 30
0.0
 11
4830.3775060753396247
 21
345.266954328096574
 31
0.0
  0
ARC
  5
21D91
  8
0
 10
4830.3475060753398793
 20
345.6694529012967791
 30
0.0
 40
0.03
 50
0.0
 51
90.0
  0
ARC
  5
21D92
  8
0
 10
4829.0571123745403384
 20
345.6694529012967791
 30
0.0
 40
0.03
 50
90.0
 51
180.0000000000129887
  0
ARC
  5
21D93
  8
0
 10
4829.1045839550497476
 20
345.3173336310990749
 30
0.0
 40
0.0830091272366143
 50
178.1097287083285039
 51
217.3666125098536952
  0
LINE
  5
21D94
  8
0
 10
4828.482864853240244
 20
345.5911851847969274
 30
0.0
 11
4826.555010137140016
 21
345.5911851847969274
 31
0.0
  0
LINE
  5
21D95
  8
0
 10
4829.0182119371402223
 20
345.4927599878968749
 30
0.0
 11
4829.027112374538774
 21
345.4927599878968749
 31
0.0
  0
ARC
  5
21D96
  8
0
 10
4820.803865760757617
 20
345.2414882802178226
 30
0.0
 40
8.2181299621449497
 50
0.5478823585195314
 51
2.1458710766943341
  0
ARC
  5
21D97
  8
0
 10
4828.9735964005967617
 20
345.5486000815524221
 30
0.0
 40
0.0426405526628962
 50
0.8141554665315416
 51
87.0675642389461473
  0
LINE
  5
21D98
  8
0
 10
4828.5362289398099165
 20
345.266954328096574
 30
0.0
 11
4828.5248691638744276
 21
345.5471687919954888
 31
0.0
  0
ARC
  5
21D99
  8
0
 10
4828.4797073030031243
 20
345.5461216739482211
 30
0.0
 40
0.0451739984228445
 50
1.328215819205552
 51
85.9918991525009488
  0
ARC
  5
21D9A
  8
0
 10
4828.6271939086545899
 20
345.5101169239079013
 30
0.0
 40
0.0808582894931328
 50
90.3476474272478924
 51
183.1153466795599059
  0
LINE
  5
21D9B
  8
0
 10
4828.5515309821112169
 20
345.4127709211967954
 30
0.0
 11
4828.5303175967537754
 21
345.4127709211967954
 31
0.0
  0
LINE
  5
21D9C
  8
0
 10
4828.5594936756979223
 20
345.266954328096574
 30
0.0
 11
4828.5464551156255766
 21
345.5057225775419738
 31
0.0
  0
LINE
  5
21D9D
  8
0
 10
4828.5437569534396971
 20
345.4127709211967954
 30
0.0
 11
4828.5463356191621642
 21
345.5101169239079013
 31
0.0
  0
LINE
  5
21D9E
  8
0
 10
4828.6267032965351973
 20
345.5909737249792784
 30
0.0
 11
4828.9757778195398714
 21
345.5911847987969168
 31
0.0
  0
ARC
  5
21D9F
  8
0
 10
4826.3372725573917705
 20
345.4072356260431889
 30
0.0
 40
0.217883650380146
 50
109.2451181767259953
 51
179.3076835597466072
  0
ARC
  5
21DA0
  8
0
 10
4826.1858181797733778
 20
341.786064127723705
 30
0.0
 40
3.8229895318149452
 50
84.4582220762448657
 51
88.2400906680562684
  0
ARC
  5
21DA1
  8
0
 10
4826.2791218702714104
 20
345.5758811009197871
 30
0.0
 40
0.0395614567995507
 50
52.4596188032296524
 51
111.3645353168442966
  0
ARC
  5
21DA2
  8
0
 10
4827.2194817700192289
 20
328.8976429819479108
 30
0.0
 40
1.1000769577464029
 50
180.0016602504786931
 51
270.0040082009371076
  0
ARC
  5
21DA3
  8
0
 10
4832.8073286071121402
 20
450.6717734893077818
 30
0.0
 40
105.8373333373296958
 50
266.3770318995692037
 51
270.3320825765276254
  0
LINE
  5
21DA4
  8
0
 10
4840.7220980040283393
 20
328.8976111051969156
 30
0.0
 11
4840.7220980040283393
 21
345.4098655366818775
 31
0.0
  0
ARC
  5
21DA5
  8
0
 10
4837.2986602283463071
 20
345.6305537989881032
 30
0.0
 40
0.8503937007999979
 50
357.346447497299323
 51
191.0436438902279974
  0
LINE
  5
21DA6
  8
0
 10
4836.4940145850650879
 20
345.699451740666575
 30
0.0
 11
4837.7844082858664478
 21
345.699451253342886
 31
0.0
  0
LINE
  5
21DA7
  8
0
 10
4837.8144082745347987
 20
345.6694512420132241
 30
0.0
 11
4837.8144081302989434
 21
345.287521412985825
 31
0.0
  0
LINE
  5
21DA8
  8
0
 10
4836.464014573735767
 20
345.6694517519962915
 30
0.0
 11
4836.4640144217300985
 21
345.2669531787960864
 31
0.0
  0
ARC
  5
21DA9
  8
0
 10
4836.4940145737364219
 20
345.6694517406666023
 30
0.0
 40
0.03
 50
89.9999783619657165
 51
179.9999783619558968
  0
ARC
  5
21DAA
  8
0
 10
4837.7844082745359628
 20
345.6694512533429133
 30
0.0
 40
0.03
 50
359.9999783619429081
 51
89.9999783619657165
  0
ARC
  5
21DAB
  8
0
 10
4837.7369365610447858
 20
345.3173320010729981
 30
0.0
 40
0.0830091272366143
 50
322.6333658521093071
 51
1.8902496536259801
  0
LINE
  5
21DAC
  8
0
 10
4838.3586557662783889
 20
345.5911833199754142
 30
0.0
 11
4840.2865104823777074
 21
345.5911825919112061
 31
0.0
  0
LINE
  5
21DAD
  8
0
 10
4837.8233086452064526
 20
345.4927583252518843
 30
0.0
 11
4837.8144082078069914
 21
345.4927583286132062
 31
0.0
  0
ARC
  5
21DAE
  8
0
 10
4846.0376547266932903
 20
345.2414835153829813
 30
0.0
 40
8.2181299621449497
 50
177.8541072852615059
 51
179.4520960034375037
  0
ARC
  5
21DAF
  8
0
 10
4837.8679242028383669
 20
345.5485984020581895
 30
0.0
 40
0.0426405526628962
 50
92.9324141229818963
 51
179.1858228954253889
  0
LINE
  5
21DB0
  8
0
 10
4838.3052916320430086
 20
345.266954328096574
 30
0.0
 11
4838.3166514390195516
 21
345.5471669430372117
 31
0.0
  0
ARC
  5
21DB1
  8
0
 10
4838.3618132994961343
 20
345.5461198079341898
 30
0.0
 40
0.0451739984228445
 50
94.0080792094862261
 51
178.6717625427500877
  0
ARC
  5
21DB2
  8
0
 10
4838.2143266802468133
 20
345.510115113592974
 30
0.0
 40
0.0808582894931328
 50
356.8846316823929783
 51
89.6523309347363693
  0
LINE
  5
21DB3
  8
0
 10
4838.2899895700265915
 20
345.4127690823074772
 30
0.0
 11
4838.311202955384033
 21
345.4127690742960795
 31
0.0
  0
LINE
  5
21DB4
  8
0
 10
4838.2820269216254019
 20
345.266954328096574
 30
0.0
 11
4838.2950654716159988
 21
345.505720736735725
 31
0.0
  0
LINE
  5
21DB5
  8
0
 10
4838.2977635986981113
 20
345.4127690793716283
 30
0.0
 11
4838.295184969741058
 21
345.5101150830565189
 31
0.0
  0
LINE
  5
21DB6
  8
0
 10
4838.2148173229034001
 20
345.590971914479212
 30
0.0
 11
4837.865742799976033
 21
345.5911831201265159
 31
0.0
  0
ARC
  5
21DB7
  8
0
 10
4840.5042786945832631
 20
345.4072740543132909
 30
0.0
 40
0.2178347248433269
 50
0.6816383553308051
 51
70.7589207776695588
  0
ARC
  5
21DB8
  8
0
 10
4840.6557010027199794
 20
341.7860613954110249
 30
0.0
 40
3.8229895318149452
 50
91.7598876939163972
 51
95.5417562857317648
  0
ARC
  5
21DB9
  8
0
 10
4840.5623987434673836
 20
345.575878403843376
 30
0.0
 40
0.0395614567995507
 50
68.6354430451000468
 51
127.5403595587196008
  0
ARC
  5
21DBA
  8
0
 10
4834.0342277782683595
 20
450.671858427578627
 30
0.0
 40
105.837418584665599
 50
269.6678886907238848
 51
273.622936120632005
  0
ARC
  5
21DBB
  8
0
 10
4839.6220210467427023
 20
328.8976429819479108
 30
0.0
 40
1.1000769577463969
 50
269.9959917952066917
 51
359.9983397495212785
  0
LINE
  5
21DBD
  8
0
 10
4840.5249031328157798
 20
345.606812745289119
 30
0.0
 11
4840.5249031328157798
 21
350.0344924943968863
 31
0.0
  0
ENDSEC
  0
EOF
