  0
SECTION
  2
HEADER
  9
$ACADVER
  1
AC1009
  9
$INSBASE
 10
3478.7837009010968359
 20
64.0913613174697758
 30
0.0
  9
$EXTMIN
 10
3448.6585285134251535
 20
64.07925743248137
 30
-0.0015258207003583
  9
$EXTMAX
 10
3508.8907886515189603
 20
103.2915136685962949
 30
0.0000000349246037
  9
$LIMMIN
 10
0.0
 20
0.0
  9
$LIMMAX
 10
11.6929133858000007
 20
8.2677165353999982
  9
$ORTHOMODE
 70
     0
  9
$REGENMODE
 70
     1
  9
$FILLMODE
 70
     1
  9
$QTEXTMODE
 70
     0
  9
$MIRRTEXT
 70
     0
  9
$DRAGMODE
 70
     2
  9
$LTSCALE
 40
0.6431102362
  9
$OSMODE
 70
  4095
  9
$ATTMODE
 70
     1
  9
$TEXTSIZE
 40
0.2
  9
$TRACEWID
 40
0.05
  9
$TEXTSTYLE
  7
STANDARD
  9
$CLAYER
  8
0
  9
$CELTYPE
  6
BYLAYER
  9
$CECOLOR
 62
   256
  9
$DIMSCALE
 40
1.0
  9
$DIMASZ
 40
0.1875
  9
$DIMEXO
 40
0.0625
  9
$DIMDLI
 40
0.4443307087
  9
$DIMRND
 40
0.0
  9
$DIMDLE
 40
0.0
  9
$DIMEXE
 40
0.125
  9
$DIMTP
 40
0.01
  9
$DIMTM
 40
0.01
  9
$DIMTXT
 40
2.0
  9
$DIMCEN
 40
0.1052362205
  9
$DIMTSZ
 40
0.0
  9
$DIMTOL
 70
     1
  9
$DIMLIM
 70
     0
  9
$DIMTIH
 70
     1
  9
$DIMTOH
 70
     1
  9
$DIMSE1
 70
     0
  9
$DIMSE2
 70
     0
  9
$DIMTAD
 70
     0
  9
$DIMZIN
 70
     0
  9
$DIMBLK
  1

  9
$DIMASO
 70
     1
  9
$DIMSHO
 70
     1
  9
$DIMPOST
  1
\X
  9
$DIMAPOST
  1

  9
$DIMALT
 70
     1
  9
$DIMALTD
 70
     2
  9
$DIMALTF
 40
25.3999999999999986
  9
$DIMLFAC
 40
1.0
  9
$DIMTOFL
 70
     0
  9
$DIMTVP
 40
0.0
  9
$DIMTIX
 70
     0
  9
$DIMSOXD
 70
     0
  9
$DIMSAH
 70
     0
  9
$DIMBLK1
  1

  9
$DIMBLK2
  1

  9
$DIMSTYLE
  2
STANDARD
  9
$DIMCLRD
 70
     0
  9
$DIMCLRE
 70
     0
  9
$DIMCLRT
 70
     0
  9
$DIMTFAC
 40
1.0
  9
$DIMGAP
 40
0.09
  9
$LUNITS
 70
     2
  9
$LUPREC
 70
     4
  9
$SKETCHINC
 40
0.1
  9
$FILLETRAD
 40
0.0
  9
$AUNITS
 70
     0
  9
$AUPREC
 70
     0
  9
$MENU
  1
.
  9
$ELEVATION
 40
0.0
  9
$PELEVATION
 40
0.0
  9
$THICKNESS
 40
0.0
  9
$LIMCHECK
 70
     0
  9
$BLIPMODE
 70
     0
  9
$CHAMFERA
 40
0.0
  9
$CHAMFERB
 40
0.0
  9
$SKPOLY
 70
     0
  9
$TDCREATE
 40
2458060.468368056230247
  9
$TDUPDATE
 40
2460060.6182523150928319
  9
$TDINDWG
 40
0.2966274306
  9
$TDUSRTIMER
 40
0.2966274306
  9
$USRTIMER
 70
     1
  9
$ANGBASE
 50
0.0
  9
$ANGDIR
 70
     0
  9
$PDMODE
 70
     0
  9
$PDSIZE
 40
0.3125
  9
$PLINEWID
 40
0.0
  9
$COORDS
 70
     1
  9
$SPLFRAME
 70
     0
  9
$SPLINETYPE
 70
     6
  9
$SPLINESEGS
 70
     8
  9
$ATTDIA
 70
     1
  9
$ATTREQ
 70
     1
  9
$HANDLING
 70
     1
  9
$HANDSEED
  5
7E69
  9
$SURFTAB1
 70
     6
  9
$SURFTAB2
 70
     6
  9
$SURFTYPE
 70
     6
  9
$SURFU
 70
     6
  9
$SURFV
 70
     6
  9
$UCSNAME
  2

  9
$UCSORG
 10
0.0
 20
0.0
 30
0.0
  9
$UCSXDIR
 10
1.0
 20
0.0
 30
0.0
  9
$UCSYDIR
 10
0.0
 20
1.0
 30
0.0
  9
$PUCSNAME
  2

  9
$PUCSORG
 10
0.0
 20
0.0
 30
0.0
  9
$PUCSXDIR
 10
1.0
 20
0.0
 30
0.0
  9
$PUCSYDIR
 10
0.0
 20
1.0
 30
0.0
  9
$USERI1
 70
     0
  9
$USERI2
 70
     0
  9
$USERI3
 70
     0
  9
$USERI4
 70
     0
  9
$USERI5
 70
     0
  9
$USERR1
 40
0.0
  9
$USERR2
 40
0.0
  9
$USERR3
 40
0.0
  9
$USERR4
 40
0.0
  9
$USERR5
 40
0.0
  9
$WORLDVIEW
 70
     1
  9
$SHADEDGE
 70
     3
  9
$SHADEDIF
 70
    70
  9
$TILEMODE
 70
     1
  9
$MAXACTVP
 70
    64
  9
$PLIMCHECK
 70
     0
  9
$PEXTMIN
 10
1.0000000000000000E+20
 20
1.0000000000000000E+20
 30
1.0000000000000000E+20
  9
$PEXTMAX
 10
-1.0000000000000000E+20
 20
-1.0000000000000000E+20
 30
-1.0000000000000000E+20
  9
$PLIMMIN
 10
0.0
 20
0.0
  9
$PLIMMAX
 10
12.0
 20
9.0
  9
$UNITMODE
 70
     0
  9
$VISRETAIN
 70
     1
  9
$PLINEGEN
 70
     0
  9
$PSLTSCALE
 70
     1
  0
ENDSEC
  0
SECTION
  2
TABLES
  0
TABLE
  2
VPORT
 70
     1
  0
VPORT
  2
*ACTIVE
 70
     0
 10
0.0
 20
0.0
 11
1.0
 21
1.0
 12
339.7023929574716021
 22
-13.7010576795286294
 13
0.0
 23
0.0
 14
1.0
 24
1.0
 15
0.0
 25
0.0
 16
0.0
 26
0.0
 36
80.8041662451523734
 17
3139.072265625
 27
97.3864432300674849
 37
0.0
 40
39.5655198058097
 41
2.8436090225563899
 42
50.0
 43
0.0
 44
0.0
 50
0.0
 51
0.0
 71
     0
 72
   100
 73
     1
 74
     1
 75
     0
 76
     0
 77
     0
 78
     0
  0
ENDTAB
  0
TABLE
  2
LTYPE
 70
     2
  0
LTYPE
  2
CONTINUOUS
 70
     0
  3
Solid line
 72
    65
 73
     0
 40
0.0
  0
LTYPE
  2
PHANTOM2
 70
     0
  3
___ _ _ ___ _ _ ___ _ _ ___ _ _
 72
    65
 73
     6
 40
1.25
 49
0.625
 49
-0.125
 49
0.125
 49
-0.125
 49
0.125
 49
-0.125
  0
ENDTAB
  0
TABLE
  2
LAYER
 70
     2
  0
LAYER
  2
0
 70
     0
 62
   255
  6
CONTINUOUS
  0
LAYER
  2
DEFPOINTS
 70
     0
 62
     7
  6
CONTINUOUS
  0
ENDTAB
  0
TABLE
  2
STYLE
 70
     1
  0
STYLE
  2
STANDARD
 70
     0
 40
0.0
 41
0.8
 50
0.0
 71
     0
 42
0.2
  3
txt
  4

  0
ENDTAB
  0
TABLE
  2
VIEW
 70
     0
  0
ENDTAB
  0
TABLE
  2
UCS
 70
     0
  0
ENDTAB
  0
TABLE
  2
APPID
 70
     9
  0
APPID
  2
ACAD
 70
     0
  0
APPID
  2
ACAD_MLEADERVER
 70
     0
  0
APPID
  2
ACAD_EXEMPT_FROM_CAD_STANDARDS
 70
     0
  0
APPID
  2
ACAD_NAV_VCDISPLAY
 70
     0
  0
APPID
  2
ACAECLAYERSTANDARD
 70
     0
  0
APPID
  2
ACCMTRANSPARENCY
 70
     0
  0
APPID
  2
ACAD_DSTYLE_DIMJAG
 70
     0
  0
APPID
  2
ACAD_DSTYLE_DIMTALN
 70
     0
  0
APPID
  2
ACDBATTR
 70
     0
  0
ENDTAB
  0
TABLE
  2
DIMSTYLE
 70
     1
  0
DIMSTYLE
  2
STANDARD
 70
     0
  3

  4

  5

  6

  7

 40
1.0
 41
0.1875
 42
0.0625
 43
0.38
 44
0.125
 45
0.0
 46
0.0
 47
0.01
 48
0.01
140
0.15625
141
0.09
142
0.0
143
25.3999999999999986
144
1.0
145
0.0
146
1.0
147
0.09
 71
     1
 72
     0
 73
     1
 74
     1
 75
     0
 76
     0
 77
     0
 78
     4
170
     0
171
     2
172
     0
173
     0
174
     0
175
     0
176
     0
177
     0
178
     0
  0
ENDTAB
  0
ENDSEC
  0
SECTION
  2
BLOCKS
  0
BLOCK
  8
0
  2
$MODEL_SPACE
 70
     0
 10
0.0
 20
0.0
 30
0.0
  3
$MODEL_SPACE
  1

  0
ENDBLK
  5
21
  8
0
  0
BLOCK
 67
     1
  8
0
  2
$PAPER_SPACE
 70
     0
 10
0.0
 20
0.0
 30
0.0
  3
$PAPER_SPACE
  1

  0
ENDBLK
  5
1D
 67
     1
  8
0
  0
BLOCK
  8
0
  2
_FILLED
 70
     0
 10
0.0
 20
0.0
 30
0.0
  3
_FILLED
  1

  0
SOLID
  5
642F
  8
0
  6
BYBLOCK
 62
     0
 10
0.0
 20
0.0
 30
0.0
 11
-1.0
 21
0.1666666667
 31
0.0
 12
-1.0
 22
-0.1666666667
 32
0.0
 13
-1.0
 23
-0.1666666667
 33
0.0
  0
ENDBLK
  5
6430
  8
0
  6
BYBLOCK
 62
     0
  0
ENDSEC
  0
SECTION
  2
ENTITIES
  0
ATTDEF
  5
3930
  8
DEFPOINTS
 10
3478.7841184374537988
 20
64.0898965487026686
 30
0.0
 40
0.001
  1
K-191T-RCP
  3

  2
MODELNUMBER
 70
     0
1001
ACDBATTR
1070
     0
1070
     1
  0
ATTDEF
  5
3931
  8
DEFPOINTS
 10
3478.7841184374537988
 20
64.0882298820360035
 30
0.0
 40
0.001
  1
BELAY
  3

  2
TRADENAME
 70
     0
1001
ACDBATTR
1070
     0
1070
     1
  0
ATTDEF
  5
3932
  8
DEFPOINTS
 10
3478.7841184374537988
 20
64.0865632153693383
 30
0.0
 40
0.001
  1
BATH
  3

  2
PRODUCT
 70
     0
1001
ACDBATTR
1070
     0
1070
     1
  0
LINE
  5
75D4
  8
0
 10
3449.5494489326551957
 20
64.0913613174697758
 30
0.0
 11
3451.5179528696539819
 21
64.0913613174697758
 31
0.0
  0
LINE
  5
75D5
  8
0
 10
3498.2994489326551957
 20
64.0913613174697758
 30
0.0
 11
3500.2679528696548914
 21
64.09136131746979
 31
0.0
  0
LINE
  5
75D6
  8
0
 10
3449.0291418235437959
 20
103.288361317469807
 30
0.0
 11
3508.5382599787549225
 21
103.288361317469807
 31
0.0
  0
LINE
  5
75D7
  8
0
 10
3448.792431093524101
 20
102.288361317469807
 30
0.0
 11
3474.607511836438789
 21
102.288361317469807
 31
0.0
  0
LINE
  5
75D8
  8
0
 10
3475.1017595712551156
 20
102.288361317469807
 30
0.0
 11
3491.9656422309549271
 21
102.288361317469807
 31
0.0
  0
LINE
  5
75D9
  8
0
 10
3492.4598899657698894
 20
102.288361317469807
 30
0.0
 11
3500.7749707087818933
 21
102.288361317469807
 31
0.0
  0
LINE
  5
75DA
  8
0
 10
3500.7837009014529031
 20
102.288361317469807
 30
0.0
 11
3508.7837009010399925
 21
102.288361317469807
 31
0.0
  0
LINE
  5
75DB
  8
0
 10
3448.7837009011550435
 20
64.2883613174697786
 30
0.0
 11
3508.7837009011550435
 21
64.2883613174697786
 31
0.0
  0
LINE
  5
75DC
  8
0
 10
3448.7837009011550435
 20
100.4483613174698036
 30
0.0
 11
3466.1937009011539885
 21
100.4483613174698036
 31
0.0
  0
LINE
  5
75DD
  8
0
 10
3500.878700901153934
 20
100.4483613174698036
 30
0.0
 11
3508.7837009010399925
 21
100.4483613174698036
 31
0.0
  0
LINE
  5
75DE
  8
0
 10
3500.8112746232418431
 20
103.0779694076630051
 30
0.0
 11
3500.7837009014529031
 21
102.288361317469807
 31
0.0
  0
LINE
  5
75DF
  8
0
 10
3500.7474246622227838
 20
103.0750944960965967
 30
0.0
 11
3500.7770715008150546
 21
102.2283613174697052
 31
0.0
  0
ARC
  5
75E0
  8
0
 10
3501.0291418235337915
 20
103.0703613174698035
 30
0.0
 40
0.218
 50
90.0
 51
178.0000000231007107
  0
ARC
  5
75E1
  8
0
 10
3500.5265600024240484
 20
103.0673613174698033
 30
0.0
 40
0.221
 50
2.0052894419025811
 51
90.0
  0
LINE
  5
75E2
  8
0
 10
3508.7837009010399925
 20
102.2283613174697052
 30
0.0
 11
3494.6811665637537772
 21
102.2283613174697052
 31
0.0
  0
LINE
  5
75E3
  8
0
 10
3472.3862352384549013
 20
102.2283613174697052
 30
0.0
 11
3448.7837009011550435
 21
102.2283613174697052
 31
0.0
  0
LINE
  5
75E4
  8
0
 10
3508.4737009011541886
 20
102.288361317469807
 30
0.0
 11
3508.4737009011541886
 21
102.2283613174697052
 31
0.0
  0
LINE
  5
75E5
  8
0
 10
3508.7561271790459614
 20
103.0779694077192943
 30
0.0
 11
3508.7837009010399925
 21
102.288361317469807
 31
0.0
  0
ARC
  5
75E6
  8
0
 10
3508.5382599787549225
 20
103.0703613174698035
 30
0.0
 40
0.218
 50
1.999999991701676
 51
90.0
  0
LINE
  5
75E7
  8
0
 10
3508.7837009010399925
 20
102.2283613174697052
 30
0.0
 11
3508.7837009010399925
 21
64.2883613174697786
 31
0.0
  0
LINE
  5
75E8
  8
0
 10
3492.4721935537859281
 20
103.0399939743156068
 30
0.0
 11
3492.4598899657698894
 21
102.288361317469807
 31
0.0
  0
ARC
  5
75E9
  8
0
 10
3492.7246597320099681
 20
103.035861317469795
 30
0.0
 40
0.2525
 50
90.0
 51
179.0622005219146047
  0
LINE
  5
75EA
  8
0
 10
3494.5558665637549893
 20
102.1030613174697947
 30
0.0
 11
3494.5558665637549893
 21
101.2233442161194006
 31
0.0
  0
ARC
  5
75EB
  8
0
 10
3494.6811665637537772
 20
102.1030613174697947
 30
0.0
 40
0.1253
 50
90.0
 51
179.9999999999984084
  0
LINE
  5
75EC
  8
0
 10
3501.0937009011540795
 20
102.288361317469807
 30
0.0
 11
3501.0937009011540795
 21
102.2283613174697052
 31
0.0
  0
LINE
  5
75ED
  8
0
 10
3500.4737009011541886
 20
102.288361317469807
 30
0.0
 11
3500.4737009011541886
 21
102.2283613174697052
 31
0.0
  0
ARC
  5
75EE
  8
0
 10
3491.9365392447548402
 20
102.6086221414561948
 30
0.0
 40
0.3215804396822004
 50
275.1923645690620219
 51
347.3279475726042733
  0
ARC
  5
75EF
  8
0
 10
3490.4674741700277991
 20
96.3550607332156517
 30
0.0
 40
6.9928882044564711
 50
76.9943157044917967
 51
82.5149236844651313
  0
LINE
  5
75F0
  8
0
 10
3492.1413038543469156
 20
70.0760104052532853
 30
0.0
 11
3492.4813593103790481
 21
102.288361317469807
 31
0.0
  0
LINE
  5
75F1
  8
0
 10
3489.3614587478327849
 20
67.3253563383697866
 30
0.0
 11
3477.7059430543758936
 21
67.3253563383697866
 31
0.0
  0
ARC
  5
75F2
  8
0
 10
3489.3614587478327849
 20
70.1053563383697735
 30
0.0
 40
2.7799999999999989
 50
270.0
 51
359.3951693015558249
  0
LINE
  5
75F3
  8
0
 10
3491.985109152988116
 20
70.2336637442193847
 30
0.0
 11
3492.2534218937998958
 21
102.9200341573713047
 31
0.0
  0
LINE
  5
75F4
  8
0
 10
3489.2052150070799144
 20
67.477923536969783
 30
0.0
 11
3477.8621867951292188
 21
67.477923536969783
 31
0.0
  0
ARC
  5
75F5
  8
0
 10
3489.2052150070799144
 20
70.2579235369697841
 30
0.0
 40
2.7799999999999989
 50
270.0
 51
359.4999995040033127
  0
ARC
  5
75F6
  8
0
 10
3491.9966173359398454
 20
102.9156234156720018
 30
0.0
 40
0.2568424333712531
 50
0.9839857989363126
 51
80.0022286181786058
  0
LINE
  5
75F7
  8
0
 10
3474.5952082484232051
 20
103.0399939743156068
 30
0.0
 11
3474.607511836438789
 21
102.288361317469807
 31
0.0
  0
ARC
  5
75F8
  8
0
 10
3474.342742070199165
 20
103.035861317469795
 30
0.0
 40
0.2525
 50
0.9377994780853768
 51
90.0
  0
LINE
  5
75F9
  8
0
 10
3474.9260979478622176
 20
70.0760104052532853
 30
0.0
 11
3474.5860424918300851
 21
102.288361317469807
 31
0.0
  0
ARC
  5
75FA
  8
0
 10
3477.7059430543758936
 20
70.1053563383697735
 30
0.0
 40
2.7799999999999989
 50
180.6048306984442036
 51
270.0
  0
LINE
  5
75FB
  8
0
 10
3475.0822926492210172
 20
70.2336637442193847
 30
0.0
 11
3474.8139799084101469
 21
102.9200341573713047
 31
0.0
  0
ARC
  5
75FC
  8
0
 10
3477.8621867951292188
 20
70.2579235369697841
 30
0.0
 40
2.7799999999999989
 50
180.5000004959966873
 51
270.0
  0
LINE
  5
75FD
  8
0
 10
3472.5115352384550533
 20
102.1030613174697947
 30
0.0
 11
3472.5115352384550533
 21
101.2233442161194006
 31
0.0
  0
ARC
  5
75FE
  8
0
 10
3472.3862352384549013
 20
102.1030613174697947
 30
0.0
 40
0.1253
 50
0.0000000000016284
 51
90.0
  0
LINE
  5
75FF
  8
0
 10
3494.6808665637549893
 20
101.0983442161194006
 30
0.0
 11
3508.7837009010399925
 21
101.0983442161194006
 31
0.0
  0
LINE
  5
7600
  8
0
 10
3472.3865352384550533
 20
101.0983442161194006
 30
0.0
 11
3448.7837009011550435
 21
101.0983442161194006
 31
0.0
  0
ARC
  5
7601
  8
0
 10
3472.3865352384550533
 20
101.2233442161194006
 30
0.0
 40
0.125
 50
270.0
 51
0.0000000000032569
  0
ARC
  5
7602
  8
0
 10
3494.6808665637549893
 20
101.2233442161194006
 30
0.0
 40
0.125
 50
179.9999999999967031
 51
270.0
  0
LINE
  5
7603
  8
0
 10
3448.790335847354072
 20
102.2283613174697052
 30
0.0
 11
3448.8199037094650521
 21
103.0750741062379063
 31
0.0
  0
ARC
  5
7604
  8
0
 10
3449.0407690822357836
 20
103.0673613174698033
 30
0.0
 40
0.221
 50
90.0
 51
178.0000000008103029
  0
LINE
  5
7605
  8
0
 10
3448.8112746232532118
 20
103.0779694077317004
 30
0.0
 11
3448.8011612859158959
 21
102.788361317469807
 31
0.0
  0
ARC
  5
7606
  8
0
 10
3449.0291418235437959
 20
103.0703613174698035
 30
0.0
 40
0.218
 50
90.0
 51
178.0000000050515894
  0
LINE
  5
7607
  8
0
 10
3448.8098914782631255
 20
102.788361317469807
 30
0.0
 11
3448.8011612859158959
 21
102.788361317469807
 31
0.0
  0
LINE
  5
7608
  8
0
 10
3448.7837009011550435
 20
102.2283613174697052
 30
0.0
 11
3448.7837009011550435
 21
64.2883613174697786
 31
0.0
  0
LINE
  5
7609
  8
0
 10
3449.0937009011540795
 20
102.288361317469807
 30
0.0
 11
3449.0937009011540795
 21
102.2283613174697052
 31
0.0
  0
LINE
  5
760A
  8
0
 10
3448.9795450782539774
 20
102.288361317469807
 30
0.0
 11
3448.9774498321539795
 21
102.2283613174697052
 31
0.0
  0
LINE
  5
760B
  8
0
 10
3500.878700901153934
 20
100.4483613174698036
 30
0.0
 11
3500.878700901153934
 21
64.2883613174697786
 31
0.0
  0
LINE
  5
760C
  8
0
 10
3500.9087009011550435
 20
64.3183613174697797
 30
0.0
 11
3500.9087009011550435
 21
100.4183613174698024
 31
0.0
  0
LINE
  5
760D
  8
0
 10
3466.1637009011551527
 20
64.3183613174697797
 30
0.0
 11
3448.8137009011547889
 21
64.3183613174697797
 31
0.0
  0
LINE
  5
760E
  8
0
 10
3500.9087009011550435
 20
64.3183613174697797
 30
0.0
 11
3508.753700901153934
 21
64.3183613174697797
 31
0.0
  0
LINE
  5
760F
  8
0
 10
3500.9087009011550435
 20
64.3183613174697797
 30
0.0
 11
3500.878700901153934
 21
64.2883613174697786
 31
0.0
  0
LINE
  5
7610
  8
0
 10
3508.7837009011550435
 20
64.2883613174697786
 30
0.0
 11
3508.753700901153934
 21
64.3183613174697797
 31
0.0
  0
LINE
  5
7611
  8
0
 10
3508.753700901153934
 20
64.3183613174697797
 30
0.0
 11
3508.753700901153934
 21
100.4183613174698024
 31
0.0
  0
LINE
  5
7612
  8
0
 10
3508.753700901153934
 20
100.4183613174698024
 30
0.0
 11
3500.9087009011550435
 21
100.4183613174698024
 31
0.0
  0
LINE
  5
7613
  8
0
 10
3466.1637009011551527
 20
100.4183613174698024
 30
0.0
 11
3448.8137009011547889
 21
100.4183613174698024
 31
0.0
  0
LINE
  5
7614
  8
0
 10
3508.7837009010399925
 20
100.4483613173548946
 30
0.0
 11
3508.753700901153934
 21
100.4183613174698024
 31
0.0
  0
LINE
  5
7615
  8
0
 10
3500.9087009011550435
 20
100.4183613174698024
 30
0.0
 11
3500.878700901153934
 21
100.4483613174698036
 31
0.0
  0
LINE
  5
7616
  8
0
 10
3466.1937009011539885
 20
64.2883613174697786
 30
0.0
 11
3466.1937009011539885
 21
100.4483613174698036
 31
0.0
  0
LINE
  5
7617
  8
0
 10
3466.1937009011539885
 20
64.2883613174697928
 30
0.0
 11
3466.1637009011551527
 21
64.3183613174697797
 31
0.0
  0
LINE
  5
7618
  8
0
 10
3466.1637009011551527
 20
64.3183613174697797
 30
0.0
 11
3466.1637009011551527
 21
100.4183613174698024
 31
0.0
  0
LINE
  5
7619
  8
0
 10
3448.8137009011547889
 20
64.3183613174697797
 30
0.0
 11
3448.8137009011547889
 21
100.4183613174698024
 31
0.0
  0
LINE
  5
761A
  8
0
 10
3448.8137009011547889
 20
64.3183613174697797
 30
0.0
 11
3448.7837009011550435
 21
64.2883613174697786
 31
0.0
  0
LINE
  5
761B
  8
0
 10
3466.1937009011539885
 20
100.4483613174698036
 30
0.0
 11
3466.1637009011551527
 21
100.4183613174698024
 31
0.0
  0
LINE
  5
761C
  8
0
 10
3448.8137009011547889
 20
100.4183613174698024
 30
0.0
 11
3448.7837009011550435
 21
100.4483613174698036
 31
0.0
  0
LINE
  5
761D
  8
0
 10
3492.6567130591820387
 20
101.038361317469807
 30
0.0
 11
3508.7837009010399925
 21
101.038361317469807
 31
0.0
  0
LINE
  5
761E
  8
0
 10
3491.9907277093670928
 20
101.038361317469807
 30
0.0
 11
3475.0766740928420404
 21
101.038361317469807
 31
0.0
  0
LINE
  5
761F
  8
0
 10
3474.4230724293620369
 20
101.038361317469807
 30
0.0
 11
3448.7837009011550435
 21
101.038361317469807
 31
0.0
  0
LINE
  5
7620
  8
0
 10
3491.9845479665441417
 20
100.6510150735696953
 30
0.0
 11
3475.082853835665901
 21
100.6510150735696953
 31
0.0
  0
LINE
  5
7621
  8
0
 10
3474.4253484780460894
 20
100.6510150735696953
 30
0.0
 11
3448.7837009011550435
 21
100.6510150735696953
 31
0.0
  0
LINE
  5
7622
  8
0
 10
3492.6512615234119039
 20
100.6510150735696953
 30
0.0
 11
3508.7837009010399925
 21
100.6510150735696953
 31
0.0
  0
ARC
  5
7623
  8
0
 10
3492.7108264874009365
 20
100.797243443220907
 30
0.0
 40
0.2471155446261982
 50
102.6491463046794053
 51
172.2467872330888952
  0
ARC
  5
7624
  8
0
 10
3492.6657914298139076
 20
100.8591756265627026
 30
0.0
 40
0.2086670410064697
 50
196.4334690677000026
 51
266.0071483775708998
  0
LINE
  5
7625
  8
0
 10
3500.7604147272550108
 20
100.4642334778592954
 30
0.0
 11
3500.7604147272550108
 21
64.2883613174697786
 31
0.0
  0
ARC
  5
7626
  8
0
 10
3500.9103816043029838
 20
100.4241796244343021
 30
0.0
 40
0.155223630242602
 50
107.2888744121386964
 51
165.0462255105707925
  0
ARC
  5
7627
  8
0
 10
3500.5300385817918141
 20
100.0153979487889018
 30
0.0
 40
0.6495675176356516
 50
59.0349614857308893
 51
78.1040525764303482
  0
LINE
  5
7628
  8
0
 10
3466.2031510289220932
 20
100.5723900221387055
 30
0.0
 11
3448.7837009011550435
 21
100.5723900221387055
 31
0.0
  0
LINE
  5
7629
  8
0
 10
3500.8642507751528683
 20
100.5723900221387055
 30
0.0
 11
3508.7837009010399925
 21
100.5723900221387055
 31
0.0
  0
ARC
  5
762A
  8
0
 10
3491.8208917488068437
 20
100.596737982883198
 30
0.0
 40
0.4731547560270197
 50
28.6258313608500288
 51
68.9646553891503657
  0
ARC
  5
762B
  8
0
 10
3491.9591567270431369
 20
100.957960731419206
 30
0.0
 40
0.3079940777287736
 50
274.7288696579453813
 51
334.0983893002073728
  0
ARC
  5
762C
  8
0
 10
3475.246510053403199
 20
100.596737982883198
 30
0.0
 40
0.4731547560270197
 50
111.0353446108496058
 51
151.3741686391499002
  0
ARC
  5
762D
  8
0
 10
3475.1082450751659962
 20
100.957960731419206
 30
0.0
 40
0.3079940777287736
 50
205.9016106997925988
 51
265.2711303420546187
  0
ARC
  5
762E
  8
0
 10
3474.337732195559056
 20
100.7811180570587055
 30
0.0
 40
0.2710296119107041
 50
13.4878602864697204
 51
71.6467801167004552
  0
ARC
  5
762F
  8
0
 10
3474.3962929598651499
 20
100.8660788382015028
 30
0.0
 40
0.2170176167833894
 50
277.6941803120645886
 51
341.2500040077388803
  0
LINE
  5
7630
  8
0
 10
3466.3069870670537966
 20
100.4650566477494067
 30
0.0
 11
3466.3069870670537966
 21
64.2883613174697786
 31
0.0
  0
ARC
  5
7631
  8
0
 10
3466.1534491215647904
 20
100.4204145762583948
 30
0.0
 40
0.1598962640343526
 50
16.2121037519488915
 51
71.8902338470801965
  0
ARC
  5
7632
  8
0
 10
3466.5575102854581928
 20
99.972980249858864
 30
0.0
 40
0.6963207291164341
 50
103.159707004216699
 51
120.5907437293252968
  0
LINE
  5
7633
  8
0
 10
3492.4654384014670541
 20
100.7802252308424045
 30
0.0
 11
3492.3737942214747818
 21
100.780225427762602
 31
0.0
  0
ARC
  5
7634
  8
0
 10
3492.3848911273580597
 20
100.6257450918350003
 30
0.0
 40
0.1548783894173647
 50
94.1087147885474735
 51
165.5594913069249117
  0
LINE
  5
7635
  8
0
 10
3474.6019634007420791
 20
100.7802252308424045
 30
0.0
 11
3474.6936075807348061
 21
100.780225427762602
 31
0.0
  0
ARC
  5
7636
  8
0
 10
3474.6825106748501639
 20
100.6257450918350003
 30
0.0
 40
0.1548783894173647
 50
14.4405086930750706
 51
85.8912852114525265
  0
LINE
  5
7637
  8
0
 10
3500.2679528696548914
 20
64.2883613174697786
 30
0.0
 11
3500.2679528696548914
 21
64.09136131746979
 31
0.0
  0
LINE
  5
7638
  8
0
 10
3498.2994489326551957
 20
64.2883613174697786
 30
0.0
 11
3498.2994489326551957
 21
64.09136131746979
 31
0.0
  0
LINE
  5
7639
  8
0
 10
3451.5179528696539819
 20
64.2883613174697786
 30
0.0
 11
3451.5179528696539819
 21
64.0913613174697758
 31
0.0
  0
LINE
  5
763A
  8
0
 10
3449.5494489326551957
 20
64.2883613174697786
 30
0.0
 11
3449.5494489326551957
 21
64.09136131746979
 31
0.0
  0
ARC
  5
763B
  8
0
 10
3500.7592704185071852
 20
102.4563876451648952
 30
0.0
 40
0.6247510899093632
 50
85.2217632536636387
 51
91.112780651072228
  0
LINE
  5
763C
  8
0
 10
3500.8011612859968409
 20
102.788361317469807
 30
0.0
 11
3500.7574641085088842
 21
102.788361317469807
 31
0.0
  0
LINE
  5
763D
  8
0
 10
3500.5878567239537915
 20
102.288361317469807
 30
0.0
 11
3500.5899519701538338
 21
102.2283613174697052
 31
0.0
  0
ARC
  5
763E
  8
0
 10
3475.1308625574529287
 20
102.6086221414561948
 30
0.0
 40
0.3215804396822004
 50
192.6720524273947888
 51
264.8076354309379781
  0
ARC
  5
763F
  8
0
 10
3476.5999276321808793
 20
96.3550607332156517
 30
0.0
 40
6.9928882044564711
 50
97.4850763155348972
 51
103.0056842955082033
  0
ARC
  5
7640
  8
0
 10
3475.0707844662688331
 20
102.9156234156720018
 30
0.0
 40
0.2568424333712531
 50
99.9977713818214085
 51
179.0160142010637117
  0
LINE
  5
7641
  8
0
 10
3474.5494947954612144
 20
103.1808080683697995
 30
0.0
 11
3475.0801714817857828
 21
103.1808080683697995
 31
0.0
  0
LINE
  5
7642
  8
0
 10
3491.9872303204228956
 20
103.1808080683697995
 30
0.0
 11
3492.5179070067479188
 21
103.1808080683697995
 31
0.0
  0
ENDSEC
  0
EOF
