  0
SECTION
  2
HEADER
  9
$ACADVER
  1
AC1009
  9
$INSBASE
 10
4469.4144698110576428
 20
269.9093043218401249
 30
0.0
  9
$EXTMIN
 10
4468.3382300460853003
 20
269.9049103922785093
 30
0.0
  9
$EXTMAX
 10
4470.4907095760290758
 20
281.7605483710401018
 30
0.0
  9
$LIMMIN
 10
0.0
 20
0.0
  9
$LIMMAX
 10
11.6929133858000007
 20
8.2677165353999982
  9
$ORTHOMODE
 70
     0
  9
$REGENMODE
 70
     1
  9
$FILLMODE
 70
     1
  9
$QTEXTMODE
 70
     0
  9
$MIRRTEXT
 70
     0
  9
$DRAGMODE
 70
     2
  9
$LTSCALE
 40
0.6431102362
  9
$OSMODE
 70
   695
  9
$ATTMODE
 70
     1
  9
$TEXTSIZE
 40
0.2
  9
$TRACEWID
 40
0.05
  9
$TEXTSTYLE
  7
STANDARD
  9
$CLAYER
  8
0
  9
$CELTYPE
  6
BYLAYER
  9
$CECOLOR
 62
   256
  9
$DIMSCALE
 40
1.0
  9
$DIMASZ
 40
0.1875
  9
$DIMEXO
 40
0.0625
  9
$DIMDLI
 40
0.4443307087
  9
$DIMRND
 40
0.0
  9
$DIMDLE
 40
0.0
  9
$DIMEXE
 40
0.125
  9
$DIMTP
 40
0.01
  9
$DIMTM
 40
0.01
  9
$DIMTXT
 40
2.0
  9
$DIMCEN
 40
0.1052362205
  9
$DIMTSZ
 40
0.0
  9
$DIMTOL
 70
     1
  9
$DIMLIM
 70
     0
  9
$DIMTIH
 70
     1
  9
$DIMTOH
 70
     1
  9
$DIMSE1
 70
     0
  9
$DIMSE2
 70
     0
  9
$DIMTAD
 70
     0
  9
$DIMZIN
 70
     0
  9
$DIMBLK
  1

  9
$DIMASO
 70
     1
  9
$DIMSHO
 70
     1
  9
$DIMPOST
  1
\X
  9
$DIMAPOST
  1

  9
$DIMALT
 70
     1
  9
$DIMALTD
 70
     2
  9
$DIMALTF
 40
25.3999999999999986
  9
$DIMLFAC
 40
1.0
  9
$DIMTOFL
 70
     0
  9
$DIMTVP
 40
0.0
  9
$DIMTIX
 70
     0
  9
$DIMSOXD
 70
     0
  9
$DIMSAH
 70
     0
  9
$DIMBLK1
  1

  9
$DIMBLK2
  1

  9
$DIMSTYLE
  2
STANDARD
  9
$DIMCLRD
 70
     0
  9
$DIMCLRE
 70
     0
  9
$DIMCLRT
 70
     0
  9
$DIMTFAC
 40
1.0
  9
$DIMGAP
 40
0.09
  9
$LUNITS
 70
     2
  9
$LUPREC
 70
     4
  9
$SKETCHINC
 40
0.1
  9
$FILLETRAD
 40
0.0
  9
$AUNITS
 70
     0
  9
$AUPREC
 70
     0
  9
$MENU
  1
.
  9
$ELEVATION
 40
0.0
  9
$PELEVATION
 40
0.0
  9
$THICKNESS
 40
0.0
  9
$LIMCHECK
 70
     0
  9
$BLIPMODE
 70
     0
  9
$CHAMFERA
 40
0.0
  9
$CHAMFERB
 40
0.0
  9
$SKPOLY
 70
     0
  9
$TDCREATE
 40
2458060.468368056230247
  9
$TDUPDATE
 40
2459359.9889004630967975
  9
$TDINDWG
 40
0.5257362269
  9
$TDUSRTIMER
 40
0.5257362269
  9
$USRTIMER
 70
     1
  9
$ANGBASE
 50
0.0
  9
$ANGDIR
 70
     0
  9
$PDMODE
 70
     0
  9
$PDSIZE
 40
0.3125
  9
$PLINEWID
 40
0.0
  9
$COORDS
 70
     1
  9
$SPLFRAME
 70
     0
  9
$SPLINETYPE
 70
     6
  9
$SPLINESEGS
 70
     8
  9
$ATTDIA
 70
     1
  9
$ATTREQ
 70
     1
  9
$HANDLING
 70
     1
  9
$HANDSEED
  5
217A6
  9
$SURFTAB1
 70
     6
  9
$SURFTAB2
 70
     6
  9
$SURFTYPE
 70
     6
  9
$SURFU
 70
     6
  9
$SURFV
 70
     6
  9
$UCSNAME
  2

  9
$UCSORG
 10
0.0
 20
0.0
 30
0.0
  9
$UCSXDIR
 10
1.0
 20
0.0
 30
0.0
  9
$UCSYDIR
 10
0.0
 20
1.0
 30
0.0
  9
$PUCSNAME
  2

  9
$PUCSORG
 10
0.0
 20
0.0
 30
0.0
  9
$PUCSXDIR
 10
1.0
 20
0.0
 30
0.0
  9
$PUCSYDIR
 10
0.0
 20
1.0
 30
0.0
  9
$USERI1
 70
     0
  9
$USERI2
 70
     0
  9
$USERI3
 70
     0
  9
$USERI4
 70
     0
  9
$USERI5
 70
     0
  9
$USERR1
 40
0.0
  9
$USERR2
 40
0.0
  9
$USERR3
 40
0.0
  9
$USERR4
 40
0.0
  9
$USERR5
 40
0.0
  9
$WORLDVIEW
 70
     1
  9
$SHADEDGE
 70
     3
  9
$SHADEDIF
 70
    70
  9
$TILEMODE
 70
     1
  9
$MAXACTVP
 70
    64
  9
$PLIMCHECK
 70
     0
  9
$PEXTMIN
 10
1.0000000000000000E+20
 20
1.0000000000000000E+20
 30
1.0000000000000000E+20
  9
$PEXTMAX
 10
-1.0000000000000000E+20
 20
-1.0000000000000000E+20
 30
-1.0000000000000000E+20
  9
$PLIMMIN
 10
0.0
 20
0.0
  9
$PLIMMAX
 10
12.0
 20
9.0
  9
$UNITMODE
 70
     0
  9
$VISRETAIN
 70
     1
  9
$PLINEGEN
 70
     0
  9
$PSLTSCALE
 70
     1
  0
ENDSEC
  0
SECTION
  2
TABLES
  0
TABLE
  2
VPORT
 70
     1
  0
VPORT
  2
*ACTIVE
 70
     0
 10
0.0
 20
0.0
 11
1.0
 21
1.0
 12
558.0491133167613498
 22
143.253124323371992
 13
0.0
 23
0.0
 14
1.0
 24
1.0
 15
0.0
 25
0.0
 16
0.0
 26
0.0
 36
60.4960186965801583
 17
3911.3653564453120453
 27
132.5796051025390057
 37
0.0
 40
14.2345514219885594
 41
2.3198804185351261
 42
50.0
 43
0.0
 44
0.0
 50
0.0
 51
0.0
 71
     0
 72
   100
 73
     1
 74
     1
 75
     0
 76
     0
 77
     0
 78
     0
  0
ENDTAB
  0
TABLE
  2
LTYPE
 70
     2
  0
LTYPE
  2
CONTINUOUS
 70
     0
  3
Solid line
 72
    65
 73
     0
 40
0.0
  0
LTYPE
  2
PHANTOM2
 70
     0
  3
___ _ _ ___ _ _ ___ _ _ ___ _ _
 72
    65
 73
     6
 40
1.25
 49
0.625
 49
-0.125
 49
0.125
 49
-0.125
 49
0.125
 49
-0.125
  0
ENDTAB
  0
TABLE
  2
LAYER
 70
     2
  0
LAYER
  2
0
 70
     0
 62
   255
  6
CONTINUOUS
  0
LAYER
  2
DEFPOINTS
 70
     0
 62
     7
  6
CONTINUOUS
  0
ENDTAB
  0
TABLE
  2
STYLE
 70
     1
  0
STYLE
  2
STANDARD
 70
     0
 40
0.0
 41
0.8
 50
0.0
 71
     0
 42
0.2
  3
txt
  4

  0
ENDTAB
  0
TABLE
  2
VIEW
 70
     0
  0
ENDTAB
  0
TABLE
  2
UCS
 70
     0
  0
ENDTAB
  0
TABLE
  2
APPID
 70
    11
  0
APPID
  2
ACAD
 70
     0
  0
APPID
  2
ACAD_MLEADERVER
 70
     0
  0
APPID
  2
ACAD_EXEMPT_FROM_CAD_STANDARDS
 70
     0
  0
APPID
  2
ACAD_NAV_VCDISPLAY
 70
     0
  0
APPID
  2
ACAECLAYERSTANDARD
 70
     0
  0
APPID
  2
ACCMTRANSPARENCY
 70
     0
  0
APPID
  2
ACAD_DSTYLE_DIMJAG
 70
     0
  0
APPID
  2
ACAD_DSTYLE_DIMTALN
 70
     0
  0
APPID
  2
ACDBATTR
 70
     0
  0
APPID
  2
ACADANNOTATIVE
 70
     0
  0
APPID
  2
DCO15
 70
     0
  0
ENDTAB
  0
TABLE
  2
DIMSTYLE
 70
     1
  0
DIMSTYLE
  2
STANDARD
 70
     0
  3

  4

  5

  6

  7

 40
1.0
 41
0.1875
 42
0.0625
 43
0.38
 44
0.125
 45
0.0
 46
0.0
 47
0.01
 48
0.01
140
0.15625
141
0.09
142
0.0
143
25.3999999999999986
144
1.0
145
0.0
146
1.0
147
0.09
 71
     1
 72
     0
 73
     1
 74
     1
 75
     0
 76
     0
 77
     0
 78
     4
170
     0
171
     2
172
     0
173
     0
174
     0
175
     0
176
     0
177
     0
178
     0
  0
ENDTAB
  0
ENDSEC
  0
SECTION
  2
BLOCKS
  0
BLOCK
  8
0
  2
$MODEL_SPACE
 70
     0
 10
0.0
 20
0.0
 30
0.0
  3
$MODEL_SPACE
  1

  0
ENDBLK
  5
21
  8
0
  0
BLOCK
 67
     1
  8
0
  2
$PAPER_SPACE
 70
     0
 10
0.0
 20
0.0
 30
0.0
  3
$PAPER_SPACE
  1

  0
ENDBLK
  5
1D
 67
     1
  8
0
  0
ENDSEC
  0
SECTION
  2
ENTITIES
  0
ATTDEF
  5
20106
  8
DEFPOINTS
 10
4469.4145280775273932
 20
269.9082437256118965
 30
0.0
 40
0.001
  1
K-19774T
  3

  2
MODELNUMBER
 70
     0
1001
ACDBATTR
1070
     0
1070
     1
  0
ATTDEF
  5
20107
  8
DEFPOINTS
 10
4469.4144022678692636
 20
269.9065768852327096
 30
0.0
 40
0.001
  1
SYMBOL
  3

  2
TRADENAME
 70
     0
1001
ACDBATTR
1070
     0
1070
     1
  0
ATTDEF
  5
20108
  8
DEFPOINTS
 10
4469.4145280775273932
 20
269.9049103922785093
 30
0.0
 40
0.001
  1
BATHROOM SINK FAUCET
  3

  2
PRODUCT
 70
     0
1001
ACDBATTR
1070
     0
1070
     1
  0
LINE
  5
21423
  8
0
 10
4468.749721485624832
 20
281.5998774718399886
 30
0.0
 11
4468.7310215971247089
 21
281.5811126625400789
 31
0.0
  0
LINE
  5
21424
  8
0
 10
4468.7620218440260942
 20
281.6151069962401152
 30
0.0
 11
4468.749721485624832
 21
281.5998774718399886
 31
0.0
  0
LINE
  5
21425
  8
0
 10
4468.8195972336252453
 20
281.7366069499399828
 30
0.0
 11
4468.8173890227408265
 21
281.7332114697691736
 31
0.0
  0
LINE
  5
21426
  8
0
 10
4468.7679320037259458
 20
281.6259896340400815
 30
0.0
 11
4468.7620218440260942
 21
281.6151069962401152
 31
0.0
  0
LINE
  5
21427
  8
0
 10
4468.6611905529262003
 20
279.8345011721401079
 30
0.0
 11
4468.6467548574255488
 21
279.7911940855399848
 31
0.0
  0
LINE
  5
21428
  8
0
 10
4468.6467548574255488
 20
279.7911940855399848
 30
0.0
 11
4468.6467548574255488
 21
279.751914035039988
 31
0.0
  0
LINE
  5
21429
  8
0
 10
4469.1393100284258253
 20
277.1116103532401098
 30
0.0
 11
4469.0894356851258635
 21
277.1116103532401098
 31
0.0
  0
LINE
  5
2142A
  8
0
 10
4469.1393100284258253
 20
277.1732741093401273
 30
0.0
 11
4469.0894356851258635
 21
277.1732741093401273
 31
0.0
  0
LINE
  5
2142B
  8
0
 10
4469.0857312353264206
 20
277.2707527230421078
 30
0.0
 11
4469.0857312353264206
 21
277.1696183816400776
 31
0.0
  0
LINE
  5
2142C
  8
0
 10
4469.0894356851258635
 20
277.138786503540075
 30
0.0
 11
4469.0894356851258635
 21
277.1116103532401098
 31
0.0
  0
LINE
  5
2142D
  8
0
 10
4469.1393100284258253
 20
277.1116103532401098
 30
0.0
 11
4469.1393100284258253
 21
277.1687938182399762
 31
0.0
  0
LINE
  5
2142E
  8
0
 10
4468.8659822080262529
 20
281.5973775032400113
 30
0.0
 11
4468.8758842001261655
 21
281.5353491368401251
 31
0.0
  0
LINE
  5
2142F
  8
0
 10
4468.8549815480264442
 20
281.6431226241401191
 30
0.0
 11
4468.8659822080262529
 21
281.5973775032400113
 31
0.0
  0
LINE
  5
21430
  8
0
 10
4470.1677522327263432
 20
279.8345011721401079
 30
0.0
 11
4470.1821879282260852
 21
279.7911940855399848
 31
0.0
  0
LINE
  5
21431
  8
0
 10
4470.1821879282260852
 20
279.7911940855399848
 30
0.0
 11
4468.6467548574255488
 21
279.7911940855399848
 31
0.0
  0
LINE
  5
21432
  8
0
 10
4468.5227370668990261
 20
279.8345011721401079
 30
0.0
 11
4470.3062057187526079
 21
279.8345011721401079
 31
0.0
  0
LINE
  5
21433
  8
0
 10
4468.6907803338262966
 20
279.7519089342400775
 30
0.0
 11
4468.6907559652263444
 21
279.7519089408399964
 31
0.0
  0
LINE
  5
21434
  8
0
 10
4470.2883868540247931
 20
279.751914035039988
 30
0.0
 11
4468.5405559323262423
 21
279.751914035039988
 31
0.0
  0
ARC
  5
21435
  8
0
 10
4469.3686876147257863
 20
276.7311005031399986
 30
0.0
 40
0.4941553553000001
 50
117.6572384121867998
 51
124.4099017039866055
  0
ARC
  5
21436
  8
0
 10
4469.2127813861261529
 20
277.1934451995401218
 30
0.0
 40
0.0774966515
 50
195.0868774241095878
 51
198.5478230704908071
  0
ARC
  5
21437
  8
0
 10
4469.0054017255260987
 20
281.3119195382399766
 30
0.0
 40
0.1165382696
 50
178.2843633738013125
 51
179.7412674946990023
  0
ARC
  5
21438
  8
0
 10
4468.8458765762261464
 20
281.7154427155401208
 30
0.0
 40
0.0335748318
 50
148.0466648352995946
 51
151.738161512005604
  0
ARC
  5
21439
  8
0
 10
4469.7962667621486617
 20
278.3190810466508083
 30
0.0
 40
1.096693863576597
 50
167.3532625991634859
 51
197.2828001022282081
  0
CIRCLE
  5
2143A
  8
0
 10
4469.4144713928262718
 20
280.5234775501400009
 30
0.0
 40
0.1377952756
  0
ARC
  5
2143B
  8
0
 10
4405.0655142117730065
 20
269.5099381186929008
 30
0.0
 40
63.754011036674278
 50
4.2629527142371302
 51
6.4490162284028401
  0
ARC
  5
2143C
  8
0
 10
4486.6356095045020993
 20
278.4451532644911254
 30
0.0
 40
18.3057102532111493
 50
181.7286378916247997
 51
185.5625782579641054
  0
ARC
  5
2143D
  8
0
 10
4473.0479614464511542
 20
278.0614983145813994
 30
0.0
 40
4.7127465172704026
 50
177.5686804431398116
 51
182.0496316776294918
  0
ARC
  5
2143E
  8
0
 10
4480.9708359642172582
 20
277.5620596222062773
 30
0.0
 40
12.6507245537896509
 50
170.1843731387835135
 51
176.8309386850636997
  0
ARC
  5
2143F
  8
0
 10
4468.5533857940881717
 20
279.7152076493247819
 30
0.0
 40
0.0482150368685014
 50
148.7172721602723016
 51
175.806894638473608
  0
ARC
  5
21440
  8
0
 10
4468.5327327124850854
 20
279.7259383373519199
 30
0.0
 40
0.0250408118620416
 50
103.9874294958245997
 51
145.159883171019203
  0
ARC
  5
21441
  8
0
 10
4468.5404184231438194
 20
279.6948202373359891
 30
0.0
 40
0.0570939632977612
 50
89.862004615467427
 51
103.9234991038643017
  0
ARC
  5
21442
  8
0
 10
4469.5361645904413308
 20
278.3224218020033049
 30
0.0
 40
0.8438802257050637
 50
133.9530978642762022
 51
163.7056954285372115
  0
ARC
  5
21443
  8
0
 10
4469.3609856191960716
 20
278.460281084775886
 30
0.0
 40
0.6237904649690476
 50
98.4582961553253142
 51
131.157064706968697
  0
ARC
  5
21444
  8
0
 10
4469.4120247833488975
 20
278.164271812811478
 30
0.0
 40
0.9241135155586411
 50
89.8483080720440768
 51
98.8888440475896573
  0
ARC
  5
21445
  8
0
 10
4469.836641898689777
 20
278.3215193974442059
 30
0.0
 40
1.136011598638009
 50
196.7952444324770056
 51
216.7743769278976913
  0
ARC
  5
21446
  8
0
 10
4469.4009821490217291
 20
277.9579691515319837
 30
0.0
 40
0.5911535491718791
 50
88.692482137011595
 51
112.6241478943919958
  0
ARC
  5
21447
  8
0
 10
4469.3364981668100882
 20
278.1271727285516135
 30
0.0
 40
0.4102023092632344
 50
113.4019139159264
 51
144.7228354298185877
  0
ARC
  5
21448
  8
0
 10
4469.5150307374433396
 20
278.0242063835738122
 30
0.0
 40
0.6157117169842392
 50
146.4958306706276971
 51
173.1724735467633138
  0
ARC
  5
21449
  8
0
 10
4470.1121705855448454
 20
277.9294289567857277
 30
0.0
 40
1.2201031993735469
 50
172.0868520081851898
 51
178.5544619942068039
  0
ARC
  5
2144A
  8
0
 10
4469.3681960992917084
 20
277.9557384663374933
 30
0.0
 40
0.4757614185964414
 50
179.4617084440016868
 51
191.268395442624211
  0
ARC
  5
2144B
  8
0
 10
4465.4660805827961667
 20
277.1608256867792761
 30
0.0
 40
3.5065031988632058
 50
10.6402002522611596
 51
11.5477304988478604
  0
ARC
  5
2144C
  8
0
 10
4467.971248222601389
 20
277.6429811858748735
 30
0.0
 40
0.9554505805398816
 50
359.9068900255425092
 51
9.9620274265758741
  0
ARC
  5
2144D
  8
0
 10
4462.3909318411460845
 20
277.5816152465254163
 30
0.0
 40
6.5360393906750502
 50
357.0751941844841895
 51
0.5243382148271892
  0
ARC
  5
2144E
  8
0
 10
4469.3995919908202268
 20
277.1351567304179753
 30
0.0
 40
0.5168366038338292
 50
88.3502536582940508
 51
131.5032757840129989
  0
ARC
  5
2144F
  8
0
 10
4469.4273877200594143
 20
277.1628148830433815
 30
0.0
 40
0.5160289741530152
 50
135.8537785159867042
 51
170.4856475008176915
  0
ARC
  5
21450
  8
0
 10
4469.4198191884970583
 20
277.4372878336184272
 30
0.0
 40
0.6372131511884335
 50
239.7278949778493882
 51
269.5189987055774736
  0
ARC
  5
21451
  8
0
 10
4469.3131775051242585
 20
277.2162821968761932
 30
0.0
 40
0.3930593936538125
 50
192.2394114964571088
 51
236.9119089101951943
  0
ARC
  5
21452
  8
0
 10
4469.4061854616247729
 20
277.2349196721942235
 30
0.0
 40
0.4879067142187689
 50
178.4506449837041089
 51
192.0628450494853041
  0
ARC
  5
21453
  8
0
 10
4469.2768015301380728
 20
277.1312567522818995
 30
0.0
 40
0.1437684643359466
 50
135.066247656215694
 51
163.0068651865983895
  0
ARC
  5
21454
  8
0
 10
4469.3462232905039855
 20
277.0622227248998115
 30
0.0
 40
0.2416717959161666
 50
115.3724436634829971
 51
135.1044103653993886
  0
ARC
  5
21455
  8
0
 10
4469.4104638899816564
 20
276.918643848655222
 30
0.0
 40
0.3989435787513176
 50
89.4244377567616766
 51
114.8727027014099065
  0
ARC
  5
21456
  8
0
 10
4469.2468126956446213
 20
277.1323715093317901
 30
0.0
 40
0.1626054923040961
 50
138.0796181072043112
 51
165.4310433001163005
  0
ARC
  5
21457
  8
0
 10
4469.3539921398332808
 20
277.0233840073327087
 30
0.0
 40
0.3153119742806618
 50
106.3971833809818008
 51
136.3551959114323893
  0
ARC
  5
21458
  8
0
 10
4469.4127221333901616
 20
276.8527459070573968
 30
0.0
 40
0.4956563564160929
 50
89.7977925841113063
 51
107.3417772636491065
  0
ARC
  5
21459
  8
0
 10
4469.4106399391930609
 20
277.3671772193828815
 30
0.0
 40
0.3998784114899628
 50
245.2393588217300078
 51
270.5489905814134772
  0
ARC
  5
2145A
  8
0
 10
4469.3114761005990658
 20
277.1739412493607801
 30
0.0
 40
0.1831018760655174
 50
199.902250302353707
 51
248.0926370192269133
  0
ARC
  5
2145B
  8
0
 10
4469.4103445639711936
 20
277.4122602306341037
 30
0.0
 40
0.4757928422275552
 50
247.7060048825387923
 51
270.4969659480107111
  0
ARC
  5
2145C
  8
0
 10
4469.3415114532581356
 20
277.2466859388944727
 30
0.0
 40
0.2964841345017923
 50
226.1259827626946048
 51
247.8752291432714969
  0
ARC
  5
2145D
  8
0
 10
4469.2514667532432213
 20
277.1544692810738866
 30
0.0
 40
0.1676035641934777
 50
194.8160208844510919
 51
226.4668314796834068
  0
ARC
  5
2145E
  8
0
 10
4469.411177852108267
 20
277.4734145642649992
 30
0.0
 40
0.5745875096048474
 50
250.8962116993569964
 51
270.3284217164438132
  0
ARC
  5
2145F
  8
0
 10
4469.3408134133196654
 20
277.2829625014392718
 30
0.0
 40
0.3716185238765919
 50
227.4961354500424875
 51
251.5373098468421915
  0
ARC
  5
21460
  8
0
 10
4469.2171743189674089
 20
277.152147284292198
 30
0.0
 40
0.1916618504184427
 50
189.7924974541294887
 51
228.3232420350456948
  0
ARC
  5
21461
  8
0
 10
4469.1863833844154215
 20
277.1416788855586901
 30
0.0
 40
0.1596198879483836
 50
150.2553829457094992
 51
187.9690972970639962
  0
ARC
  5
21462
  8
0
 10
4469.2469379823469353
 20
277.1087791920891163
 30
0.0
 40
0.2285236093161221
 50
132.3048628151015009
 51
150.6260128016052988
  0
ARC
  5
21463
  8
0
 10
4469.3580269367912479
 20
276.9729194720828787
 30
0.0
 40
0.4038799020697343
 50
103.5226656602243054
 51
130.9874995379356051
  0
ARC
  5
21464
  8
0
 10
4469.4133665220269904
 20
276.7892894169398232
 30
0.0
 40
0.5954585002427675
 50
89.8936878556661298
 51
104.568381202798804
  0
ARC
  5
21465
  8
0
 10
4469.1906856162258919
 20
277.1665901654507138
 30
0.0
 40
0.1049980579031365
 50
178.3473211543945922
 51
195.3551688038924112
  0
ARC
  5
21466
  8
0
 10
4469.2984772302206693
 20
277.2751506334245732
 30
0.0
 40
0.2596727736452334
 50
206.070126303074602
 51
216.3878990935934894
  0
ARC
  5
21467
  8
0
 10
4469.2038529123492481
 20
277.233870404653203
 30
0.0
 40
0.1565991696858847
 50
184.7613152215162131
 51
207.7183971491679131
  0
ARC
  5
21468
  8
0
 10
4462.5706567831830398
 20
280.7075992584141773
 30
0.0
 40
6.0157759243554079
 50
351.6549181288353907
 51
354.9845783533589838
  0
ARC
  5
21469
  8
0
 10
4965.3258554739677493
 20
232.5739530742214924
 30
0.0
 40
499.0385085356177797
 50
174.3991047265637917
 51
174.5257207416908898
  0
ARC
  5
2146A
  8
0
 10
4471.3845058490833253
 20
281.0748157566613941
 30
0.0
 40
2.722380122401979
 50
171.3520537360047911
 51
175.6915162122868992
  0
ARC
  5
2146B
  8
0
 10
4470.3585230410662916
 20
281.2206460322656767
 30
0.0
 40
1.686164613333559
 50
169.4916488526606884
 51
171.0089483465596061
  0
ARC
  5
2146C
  8
0
 10
4468.7867958414508394
 20
281.5139460858750908
 30
0.0
 40
0.087323333488305
 50
154.8811252781505061
 51
170.6275846964217919
  0
ARC
  5
2146D
  8
0
 10
4468.7830551586621368
 20
281.5144951667734858
 30
0.0
 40
0.0837104338513454
 50
140.373829148266509
 51
154.1345329017482868
  0
ARC
  5
2146E
  8
0
 10
4468.8256928667988177
 20
281.4796075724033244
 30
0.0
 40
0.1388017745752035
 50
133.004903309040202
 51
140.5067919021225862
  0
ARC
  5
2146F
  8
0
 10
4473.1897047512247809
 20
279.7214418289191258
 30
0.0
 40
4.8144965024938191
 50
155.7068356528961033
 51
156.697468534132895
  0
ARC
  5
21470
  8
0
 10
4469.7919637204004175
 20
281.218830838063127
 30
0.0
 40
1.1020788527778169
 50
152.2872557472514927
 51
153.9882952688400053
  0
ARC
  5
21471
  8
0
 10
4468.9258902385654437
 20
281.6677404533392064
 30
0.0
 40
0.1266522690398711
 50
140.4650302028049111
 51
147.0610793497019131
  0
ARC
  5
21472
  8
0
 10
4468.8545468637157683
 20
281.7282214494150026
 30
0.0
 40
0.0331534367794886
 50
125.1401190050496979
 51
142.5939315388893931
  0
ARC
  5
21473
  8
0
 10
4468.8521927128831521
 20
281.7295178198054941
 30
0.0
 40
0.0307609366779792
 50
100.4144817746475979
 51
122.943674919953196
  0
ARC
  5
21474
  8
0
 10
4468.855734686496362
 20
281.7076761097976032
 30
0.0
 40
0.0528851381159315
 50
88.7355989853767539
 51
99.9110688418615496
  0
ARC
  5
21475
  8
0
 10
4468.8547376821152284
 20
281.6849635659972932
 30
0.0
 40
0.0756157757944246
 50
80.045568131206565
 51
88.3600820437579131
  0
ARC
  5
21476
  8
0
 10
4571.7453749117557891
 20
926.8305117588578241
 30
0.0
 40
653.2231471058986472
 50
260.9386342344471927
 51
260.9431898510579799
  0
ARC
  5
21477
  8
0
 10
4468.0416279241098891
 20
277.2960881239865216
 30
0.0
 40
4.5407643296844631
 50
77.8267990080940422
 51
78.857892011943207
  0
ARC
  5
21478
  8
0
 10
4473.3636198547428648
 20
301.3429713315684921
 30
0.0
 40
20.0880826967997308
 50
257.4513967393622238
 51
257.7503847706676083
  0
ARC
  5
21479
  8
0
 10
4475.1612086862060096
 20
312.4725314400456
 30
0.0
 40
31.3514796798725115
 50
258.8555770285299786
 51
258.9799619803097244
  0
ARC
  5
2147A
  8
0
 10
4470.2855517751868319
 20
288.6170627665082975
 30
0.0
 40
7.0075399452230238
 50
260.8258718679052777
 51
261.5159629071205245
  0
ARC
  5
2147B
  8
0
 10
4469.4141226955216553
 20
282.9886934953628952
 30
0.0
 40
1.3125750569401
 50
262.8919005184818047
 51
270.0152211364626851
  0
ARC
  5
2147C
  8
0
 10
4469.4144713928262718
 20
282.2890017488239778
 30
0.0
 40
1.244381975419357
 50
258.7593576190445788
 51
281.2406423809554212
  0
ARC
  5
2147D
  8
0
 10
4469.2620126996498584
 20
281.5449883730686906
 30
0.0
 40
0.4849430292887185
 50
234.2089649578936132
 51
259.2914479155552954
  0
ARC
  5
2147E
  8
0
 10
4469.073605554885944
 20
281.3070731997528924
 30
0.0
 40
0.1822851739658481
 50
195.3643455837658962
 51
238.5152181910563058
  0
ARC
  5
2147F
  8
0
 10
4469.046951689456364
 20
281.3112839746082727
 30
0.0
 40
0.1580913144905764
 50
179.5789278549787014
 51
199.3986773449628913
  0
ARC
  5
21480
  8
0
 10
4469.4112003752079545
 20
282.4881085579572755
 30
0.0
 40
1.211407508492562
 50
263.763631525198889
 51
270.1547090724110944
  0
ARC
  5
21481
  8
0
 10
4469.4122364535960514
 20
282.4421294598176928
 30
0.0
 40
1.1658286215378899
 50
254.7210262108507948
 51
263.4675417749226085
  0
ARC
  5
21482
  8
0
 10
4469.5351217368743164
 20
282.8975980664927761
 30
0.0
 40
1.637581606790748
 50
250.9837960133374111
 51
254.7729084802998045
  0
ARC
  5
21483
  8
0
 10
4469.0483692598591006
 20
281.5296611439383128
 30
0.0
 40
0.1862592043840178
 50
241.5500450658653904
 51
255.4382747617354141
  0
ARC
  5
21484
  8
0
 10
4468.99689799252792
 20
281.4350511792288785
 30
0.0
 40
0.0785547171649582
 50
230.2742502192764107
 51
241.6842003817579041
  0
ARC
  5
21485
  8
0
 10
4468.9501144905425463
 20
281.3791847615223105
 30
0.0
 40
0.005693924490065
 50
196.4800573010676885
 51
233.060559035050602
  0
ARC
  5
21486
  8
0
 10
4468.9223099638666099
 20
281.3196971126793073
 30
0.0
 40
0.062036204311651
 50
68.8884354190598884
 51
82.3478899675922236
  0
ARC
  5
21487
  8
0
 10
4468.9253330829742481
 20
281.3448828772928891
 30
0.0
 40
0.0366739132071321
 50
81.7893823465339835
 51
101.3109307475087064
  0
ARC
  5
21488
  8
0
 10
4468.9233130379752765
 20
281.3566464726818026
 30
0.0
 40
0.0247447542569933
 50
102.0667727892871
 51
137.9398041720396009
  0
ARC
  5
21489
  8
0
 10
4468.9346200283125654
 20
281.347489383225593
 30
0.0
 40
0.0392816341803301
 50
139.0718522348645081
 51
161.582076007165
  0
ARC
  5
2148A
  8
0
 10
4469.0850809245339406
 20
281.2992615769766189
 30
0.0
 40
0.1972809115819716
 50
162.0990592957616059
 51
170.1394752963736892
  0
ARC
  5
2148B
  8
0
 10
4469.017932873591235
 20
281.3111620141024218
 30
0.0
 40
0.1290870450854617
 50
170.2395695319372066
 51
178.1148046847447972
  0
ARC
  5
2148C
  8
0
 10
4466.9147306830382149
 20
281.3091451320407828
 30
0.0
 40
1.9741558624825899
 50
0.1387940679782432
 51
6.5795533744416153
  0
ARC
  5
2148D
  8
0
 10
4468.531672789359618
 20
281.5555267174124765
 30
0.0
 40
0.3349650672912086
 50
15.1595358850109303
 51
28.1652479825163091
  0
ARC
  5
2148E
  8
0
 10
4468.650916392200088
 20
281.6445266318420977
 30
0.0
 40
0.1891363295560383
 50
21.4317416385216397
 51
22.4815905052210887
  0
ARC
  5
2148F
  8
0
 10
4468.8070624192096147
 20
281.7097430541941776
 30
0.0
 40
0.0199267821924488
 50
20.8942399089661102
 51
33.55231069337961
  0
ARC
  5
21490
  8
0
 10
4468.8211282300526364
 20
281.7189542995640181
 30
0.0
 40
0.0031150884902249
 50
35.3489510089157335
 51
60.5942500572909708
  0
ARC
  5
21491
  8
0
 10
4468.8189544316783213
 20
281.7100581924480025
 30
0.0
 40
0.0121861875970719
 50
72.3085113451055292
 51
146.4025854556414004
  0
LINE
  5
21492
  8
0
 10
4470.0792213000258926
 20
281.5998774718399886
 30
0.0
 11
4470.0979211885260156
 21
281.5811126625400789
 31
0.0
  0
LINE
  5
21493
  8
0
 10
4470.0669209416246304
 20
281.6151069962401152
 30
0.0
 11
4470.0792213000258926
 21
281.5998774718399886
 31
0.0
  0
LINE
  5
21494
  8
0
 10
4470.0093455520272983
 20
281.7366069499399828
 30
0.0
 11
4470.0115537629108076
 21
281.7332114697691736
 31
0.0
  0
LINE
  5
21495
  8
0
 10
4470.0610107819247787
 20
281.6259896340400815
 30
0.0
 11
4470.0669209416246304
 21
281.6151069962401152
 31
0.0
  0
LINE
  5
21496
  8
0
 10
4470.1821879282260852
 20
279.7911940855399848
 30
0.0
 11
4470.1821879282260852
 21
279.751914035039988
 31
0.0
  0
LINE
  5
21497
  8
0
 10
4469.6896327572248993
 20
277.1116103532401098
 30
0.0
 11
4469.7395071005257705
 21
277.1116103532401098
 31
0.0
  0
LINE
  5
21498
  8
0
 10
4469.6896327572248993
 20
277.1732741093401273
 30
0.0
 11
4469.7395071005257705
 21
277.1732741093401273
 31
0.0
  0
LINE
  5
21499
  8
0
 10
4469.7432115503252135
 20
277.2707527230421078
 30
0.0
 11
4469.7432115503252135
 21
277.1696183816400776
 31
0.0
  0
LINE
  5
2149A
  8
0
 10
4469.7395071005257705
 20
277.138786503540075
 30
0.0
 11
4469.7395071005257705
 21
277.1116103532401098
 31
0.0
  0
LINE
  5
2149B
  8
0
 10
4469.6896327572248993
 20
277.1116103532401098
 30
0.0
 11
4469.6896327572248993
 21
277.1687938182399762
 31
0.0
  0
LINE
  5
2149C
  8
0
 10
4469.9629605776262906
 20
281.5973775032400113
 30
0.0
 11
4469.953058585526378
 21
281.5353491368401251
 31
0.0
  0
LINE
  5
2149D
  8
0
 10
4469.9739612376260993
 20
281.6431226241401191
 30
0.0
 11
4469.9629605776262906
 21
281.5973775032400113
 31
0.0
  0
LINE
  5
2149E
  8
0
 10
4470.138162451826247
 20
279.7519089342400775
 30
0.0
 11
4470.1381868204271086
 21
279.7519089408399964
 31
0.0
  0
ARC
  5
2149F
  8
0
 10
4469.4602551709249383
 20
276.7311005031399986
 30
0.0
 40
0.4941553553000001
 50
55.5900982960133732
 51
62.3427615878132286
  0
ARC
  5
214A0
  8
0
 10
4469.6161613995263906
 20
277.1934451995401218
 30
0.0
 40
0.0774966515
 50
341.4521769295092213
 51
344.9131225758903838
  0
ARC
  5
214A1
  8
0
 10
4469.8235410601246258
 20
281.3119195382399766
 30
0.0
 40
0.1165382696
 50
0.2587325053010099
 51
1.715636626198688
  0
ARC
  5
214A2
  8
0
 10
4469.9830662094263971
 20
281.7154427155401208
 30
0.0
 40
0.0335748318
 50
28.2618384879944102
 51
31.9533351647003698
  0
ARC
  5
214A3
  8
0
 10
4533.763428573875899
 20
269.5099381186931851
 30
0.0
 40
63.7540110366713009
 50
173.5509837715970889
 51
175.7370472857629125
  0
ARC
  5
214A4
  8
0
 10
4452.1961492056643692
 20
278.4449264981607257
 30
0.0
 40
18.3028856080556608
 50
354.4372738071310209
 51
358.2718054481724153
  0
ARC
  5
214A5
  8
0
 10
4457.8590368133736774
 20
277.5621928737484723
 30
0.0
 40
12.6497854591326799
 50
3.1686923477079949
 51
9.8157502529214113
  0
ARC
  5
214A6
  8
0
 10
4470.2755569915625529
 20
279.7152076493247819
 30
0.0
 40
0.0482150368685014
 50
4.1931053615263618
 51
31.2827278397277517
  0
ARC
  5
214A7
  8
0
 10
4470.2962100731656392
 20
279.7259383373519199
 30
0.0
 40
0.0250408118620416
 50
34.840116828980733
 51
76.0125705041753577
  0
ARC
  5
214A8
  8
0
 10
4470.2885243625087242
 20
279.6948202373359891
 30
0.0
 40
0.0570939632977612
 50
76.0765008961356699
 51
90.1379953845326156
  0
ARC
  5
214A9
  8
0
 10
4469.2927484533292954
 20
278.3223980569936771
 30
0.0
 40
0.8439179628720197
 50
16.2935245744373383
 51
46.0465673749144173
  0
ARC
  5
214AA
  8
0
 10
4469.4679571664573814
 20
278.460281084775886
 30
0.0
 40
0.6237904649690476
 50
48.8429352930312319
 51
81.5417038446746858
  0
ARC
  5
214AB
  8
0
 10
4469.4169180023009176
 20
278.164271812811478
 30
0.0
 40
0.9241135155586411
 50
81.1111559524103427
 51
90.1516919279558948
  0
ARC
  5
214AC
  8
0
 10
4469.4279606366299049
 20
277.9579691515319837
 30
0.0
 40
0.5911535491718791
 50
67.3758521056080042
 51
91.307517862988405
  0
ARC
  5
214AD
  8
0
 10
4469.4924446188406364
 20
278.1271727285516135
 30
0.0
 40
0.4102023092632344
 50
35.2771645701813625
 51
66.5980860840736284
  0
ARC
  5
214AE
  8
0
 10
4469.3139120482092039
 20
278.0242063835738122
 30
0.0
 40
0.6157117169842392
 50
6.827526453236616
 51
33.5041693293723384
  0
ARC
  5
214AF
  8
0
 10
4468.7167722001067887
 20
277.9294289567857277
 30
0.0
 40
1.2201031993735469
 50
1.4455380057931391
 51
7.9131479918147827
  0
ARC
  5
214B0
  8
0
 10
4469.4607466863590162
 20
277.9557384663374933
 30
0.0
 40
0.4757614185964414
 50
348.7316045573757037
 51
0.5382915559983183
  0
ARC
  5
214B1
  8
0
 10
4473.3628622028545578
 20
277.1608256867792761
 30
0.0
 40
3.5065031988632058
 50
168.4522695011521023
 51
169.3597997477388049
  0
ARC
  5
214B2
  8
0
 10
4470.8576945630511545
 20
277.6429811858748735
 30
0.0
 40
0.9554505805398816
 50
170.0379725734240992
 51
180.0931099744574908
  0
ARC
  5
214B3
  8
0
 10
4476.4380109445046401
 20
277.5816152465254163
 30
0.0
 40
6.5360393906750502
 50
179.4756617851728038
 51
182.9248058155156968
  0
ARC
  5
214B4
  8
0
 10
4469.4293918307394051
 20
277.1352699080686079
 30
0.0
 40
0.5167246518135226
 50
48.4919239315661272
 51
91.6546383222380143
  0
ARC
  5
214B5
  8
0
 10
4469.4265502358530284
 20
277.1754573379338922
 30
0.0
 40
0.4893589232413185
 50
8.5381837843478792
 51
45.1225244515038426
  0
ARC
  5
214B6
  8
0
 10
4469.4023657856278078
 20
277.4618616281132972
 30
0.0
 40
0.6618751766723544
 50
271.0478535193735183
 51
299.7049593792203268
  0
ARC
  5
214B7
  8
0
 10
4469.5157652805291946
 20
277.2162821968761932
 30
0.0
 40
0.3930593936538125
 50
303.0880910898047773
 51
347.7605885035429196
  0
ARC
  5
214B8
  8
0
 10
4469.4227573240268612
 20
277.2349196721942235
 30
0.0
 40
0.4879067142187689
 50
347.9371549505145822
 51
1.5493550162959151
  0
ARC
  5
214B9
  8
0
 10
4469.5521412555126517
 20
277.1312567522818995
 30
0.0
 40
0.1437684643359466
 50
16.9931348134015998
 51
44.9337523437843203
  0
ARC
  5
214BA
  8
0
 10
4469.4827194951476486
 20
277.0622227248998115
 30
0.0
 40
0.2416717959161666
 50
44.89558963460059
 51
64.6275563365169887
  0
ARC
  5
214BB
  8
0
 10
4469.4184788956690682
 20
276.918643848655222
 30
0.0
 40
0.3989435787513176
 50
65.1272972985900509
 51
90.5755622432383376
  0
ARC
  5
214BC
  8
0
 10
4469.5821300900061033
 20
277.1323715093317901
 30
0.0
 40
0.1626054923040961
 50
14.5689566998837208
 51
41.920381892795632
  0
ARC
  5
214BD
  8
0
 10
4469.4749506458183532
 20
277.0233840073327087
 30
0.0
 40
0.3153119742806618
 50
43.6448040885675894
 51
73.6028166190181423
  0
ARC
  5
214BE
  8
0
 10
4469.4162206522605629
 20
276.8527459070573968
 30
0.0
 40
0.4956563564160929
 50
72.6582227363509219
 51
90.2022074158886937
  0
ARC
  5
214BF
  8
0
 10
4469.4183028464576637
 20
277.3671772193828815
 30
0.0
 40
0.3998784114899628
 50
269.4510094185865228
 51
294.7606411782700206
  0
ARC
  5
214C0
  8
0
 10
4469.5174666850525682
 20
277.1739412493607801
 30
0.0
 40
0.1831018760655174
 50
291.9073629807730867
 51
340.097749697646293
  0
ARC
  5
214C1
  8
0
 10
4469.4185982216786215
 20
277.4122602306341037
 30
0.0
 40
0.4757928422275552
 50
269.5030340519891752
 51
292.2939951174611792
  0
ARC
  5
214C2
  8
0
 10
4469.487431332392589
 20
277.2466859388944727
 30
0.0
 40
0.2964841345017923
 50
292.1247708567285031
 51
313.8740172373052815
  0
ARC
  5
214C3
  8
0
 10
4469.5774760324084127
 20
277.1544692810738866
 30
0.0
 40
0.1676035641934777
 50
313.5331685203166217
 51
345.1839791155488228
  0
ARC
  5
214C4
  8
0
 10
4469.4177649335442766
 20
277.4734145642649992
 30
0.0
 40
0.5745875096048474
 50
269.6715782835561868
 51
289.1037883006429183
  0
ARC
  5
214C5
  8
0
 10
4469.4881293723319686
 20
277.2829625014392718
 30
0.0
 40
0.3716185238765919
 50
288.4626901531577801
 51
312.5038645499574841
  0
ARC
  5
214C6
  8
0
 10
4469.6117684666851346
 20
277.152147284292198
 30
0.0
 40
0.1916618504184427
 50
311.6767579649542768
 51
350.2075025458705113
  0
ARC
  5
214C7
  8
0
 10
4469.6425594012353031
 20
277.1416788855586901
 30
0.0
 40
0.1596198879483836
 50
352.0309027029359754
 51
29.7446170542904795
  0
ARC
  5
214C8
  8
0
 10
4469.5820048033037892
 20
277.1087791920891163
 30
0.0
 40
0.2285236093161221
 50
29.3739871983947083
 51
47.6951371848984635
  0
ARC
  5
214C9
  8
0
 10
4469.4709158488612957
 20
276.9729194720828787
 30
0.0
 40
0.4038799020697343
 50
49.0125004620643665
 51
76.4773343397756662
  0
ARC
  5
214CA
  8
0
 10
4469.4155762636246436
 20
276.7892894169398232
 30
0.0
 40
0.5954585002427675
 50
75.4316187972012102
 51
90.1063121443338844
  0
ARC
  5
214CB
  8
0
 10
4469.6382571694248327
 20
277.1665901654507138
 30
0.0
 40
0.1049980579031365
 50
344.6448311961074751
 51
1.6526788456053729
  0
ARC
  5
214CC
  8
0
 10
4469.5304655554300552
 20
277.2751506334245732
 30
0.0
 40
0.2596727736452334
 50
323.6121009064066243
 51
333.9298736969253127
  0
ARC
  5
214CD
  8
0
 10
4469.6250898733032955
 20
277.233870404653203
 30
0.0
 40
0.1565991696858847
 50
332.2816028508320869
 51
355.2386847784837869
  0
ARC
  5
214CE
  8
0
 10
4476.2582860024676847
 20
280.7075992584141773
 30
0.0
 40
6.0157759243554079
 50
185.0154216466409025
 51
188.3450818711646093
  0
ARC
  5
214CF
  8
0
 10
3973.5030873116838848
 20
232.5739530742214924
 30
0.0
 40
499.0385085356177797
 50
5.4742792583091369
 51
5.6008952734361301
  0
ARC
  5
214D0
  8
0
 10
4467.4444369365701277
 20
281.0748157566613941
 30
0.0
 40
2.722380122401979
 50
4.3084837877131097
 51
8.6479462639951361
  0
ARC
  5
214D1
  8
0
 10
4468.4704197445853424
 20
281.2206460322656767
 30
0.0
 40
1.686164613333559
 50
8.9910516534403442
 51
10.5083511473392601
  0
ARC
  5
214D2
  8
0
 10
4470.0421469442007947
 20
281.5139460858750908
 30
0.0
 40
0.087323333488305
 50
9.3724153035782027
 51
25.118874721849501
  0
ARC
  5
214D3
  8
0
 10
4470.0458876269876782
 20
281.5144951667734858
 30
0.0
 40
0.0837104338513454
 50
25.8654670982516883
 51
39.6261708517335194
  0
ARC
  5
214D4
  8
0
 10
4470.0032499188519068
 20
281.4796075724033244
 30
0.0
 40
0.1388017745752035
 50
39.4932080978774422
 51
46.995096690959727
  0
ARC
  5
214D5
  8
0
 10
4465.6392380344259436
 20
279.7214418289191258
 30
0.0
 40
4.8144965024938191
 50
23.3025314658671014
 51
24.2931643471038399
  0
ARC
  5
214D6
  8
0
 10
4469.0369790652512165
 20
281.218830838063127
 30
0.0
 40
1.1020788527778169
 50
26.0117047311600089
 51
27.7127442527484611
  0
ARC
  5
214D7
  8
0
 10
4469.9030525470870998
 20
281.6677404533392064
 30
0.0
 40
0.1266522690398711
 50
32.9389206502980869
 51
39.5349697971950533
  0
ARC
  5
214D8
  8
0
 10
4469.9743959219340468
 20
281.7282214494150026
 30
0.0
 40
0.0331534367794886
 50
37.4060684611105501
 51
54.8598809949502666
  0
ARC
  5
214D9
  8
0
 10
4469.9767500727693914
 20
281.7295178198054941
 30
0.0
 40
0.0307609366779792
 50
57.0563250800467898
 51
79.585518225352331
  0
ARC
  5
214DA
  8
0
 10
4469.9732080991552721
 20
281.7076761097976032
 30
0.0
 40
0.0528851381159315
 50
80.0889311581384646
 51
91.2644010146232318
  0
ARC
  5
214DB
  8
0
 10
4469.9742051035364057
 20
281.6849635659972932
 30
0.0
 40
0.0756157757944246
 50
91.6399179562420869
 51
99.9544318687934492
  0
ARC
  5
214DC
  8
0
 10
4367.0835678738949355
 20
926.8305117588578241
 30
0.0
 40
653.2231471058986472
 50
279.0568101489420201
 51
279.0613657655526936
  0
ARC
  5
214DD
  8
0
 10
4470.7873148615417449
 20
277.2960881239865216
 30
0.0
 40
4.5407643296844631
 50
101.142107988056793
 51
102.173200991905901
  0
ARC
  5
214DE
  8
0
 10
4465.4653229309087692
 20
301.3429713315684921
 30
0.0
 40
20.0880826967997308
 50
282.2496152293323917
 51
282.5486032606377762
  0
ARC
  5
214DF
  8
0
 10
4463.6677340994456245
 20
312.4725314400456
 30
0.0
 40
31.3514796798725115
 50
281.0200380196902756
 51
281.1444229714700214
  0
ARC
  5
214E0
  8
0
 10
4468.5433910104638926
 20
288.6170627665082975
 30
0.0
 40
7.0075399452230238
 50
278.4840370928794755
 51
279.1741281320947223
  0
ARC
  5
214E1
  8
0
 10
4469.4148200901299788
 20
282.9886934953628952
 30
0.0
 40
1.3125750569401
 50
269.9847788635373149
 51
277.1080994815180816
  0
ARC
  5
214E2
  8
0
 10
4469.5669300860008661
 20
281.5449883730686906
 30
0.0
 40
0.4849430292887185
 50
280.7085520844447046
 51
305.7910350421063868
  0
ARC
  5
214E3
  8
0
 10
4469.755337230763871
 20
281.3070731997528924
 30
0.0
 40
0.1822851739658481
 50
301.4847818089438078
 51
344.6356544162341038
  0
ARC
  5
214E4
  8
0
 10
4469.7819910961952701
 20
281.3112839746082727
 30
0.0
 40
0.1580913144905764
 50
340.6013226550371087
 51
0.4210721450212873
  0
ARC
  5
214E5
  8
0
 10
4469.417742410444589
 20
282.4881085579572755
 30
0.0
 40
1.211407508492562
 50
269.8452909275890192
 51
276.236368474801111
  0
ARC
  5
214E6
  8
0
 10
4469.4167063320546731
 20
282.4421294598176928
 30
0.0
 40
1.1658286215378899
 50
276.5324582250773915
 51
285.2789737891491768
  0
ARC
  5
214E7
  8
0
 10
4469.2938210487773176
 20
282.8975980664927761
 30
0.0
 40
1.637581606790748
 50
285.2270915197001955
 51
289.0162039866626174
  0
ARC
  5
214E8
  8
0
 10
4469.780573525791624
 20
281.5296611439383128
 30
0.0
 40
0.1862592043840178
 50
284.5617252382646143
 51
298.4499549341346096
  0
ARC
  5
214E9
  8
0
 10
4469.832044793123714
 20
281.4350511792288785
 30
0.0
 40
0.0785547171649582
 50
298.3157996182421243
 51
309.7257497807236177
  0
ARC
  5
214EA
  8
0
 10
4469.8788282951081783
 20
281.3791847615223105
 30
0.0
 40
0.005693924490065
 50
306.9394409649494264
 51
343.5199426989321978
  0
ARC
  5
214EB
  8
0
 10
4469.9066328217850241
 20
281.3196971126793073
 30
0.0
 40
0.062036204311651
 50
97.6521100324077906
 51
111.1115645809400974
  0
ARC
  5
214EC
  8
0
 10
4469.9036097026782954
 20
281.3448828772928891
 30
0.0
 40
0.0366739132071321
 50
78.6890692524912509
 51
98.2106176534660165
  0
ARC
  5
214ED
  8
0
 10
4469.905629747677267
 20
281.3566464726818026
 30
0.0
 40
0.0247447542569933
 50
42.0601958279603281
 51
77.9332272107128432
  0
ARC
  5
214EE
  8
0
 10
4469.8943227573381591
 20
281.347489383225593
 30
0.0
 40
0.0392816341803301
 50
18.4179239928380198
 51
40.9281477651355203
  0
ARC
  5
214EF
  8
0
 10
4469.7438618611176935
 20
281.2992615769766189
 30
0.0
 40
0.1972809115819716
 50
9.8605247036262522
 51
17.9009407042383195
  0
ARC
  5
214F0
  8
0
 10
4469.8110099120603991
 20
281.3111620141024218
 30
0.0
 40
0.1290870450854617
 50
1.8851953152551899
 51
9.7604304680627418
  0
ARC
  5
214F1
  8
0
 10
4471.9142121026143286
 20
281.3091451320407828
 30
0.0
 40
1.9741558624825899
 50
173.4204466255584123
 51
179.8612059320217043
  0
ARC
  5
214F2
  8
0
 10
4470.297269996292016
 20
281.5555267174124765
 30
0.0
 40
0.3349650672912086
 50
151.8347520174837086
 51
164.840464114989004
  0
ARC
  5
214F3
  8
0
 10
4470.1780263934506365
 20
281.6445266318420977
 30
0.0
 40
0.1891363295560383
 50
157.5184094947788935
 51
158.5682583614783141
  0
ARC
  5
214F4
  8
0
 10
4470.0218803664411098
 20
281.7097430541941776
 30
0.0
 40
0.0199267821924488
 50
146.44768930662039
 51
159.1057600910338863
  0
ARC
  5
214F5
  8
0
 10
4470.0116458071179295
 20
281.7155455409284741
 30
0.0
 40
0.0082315045272032
 50
35.5562295779043822
 51
140.724010617403593
  0
CIRCLE
  5
214F7
  8
0
 10
4469.3436052511251546
 20
280.5234775501400009
 30
0.0
 40
0.0492125984000005
  0
CIRCLE
  5
214F8
  8
0
 10
4469.4853375345246604
 20
280.5234775501400009
 30
0.0
 40
0.0492125984000005
  0
ARC
  5
214F9
  8
0
 10
4469.032677290337233
 20
278.3190944618277172
 30
0.0
 40
1.096693863576597
 50
342.7151867123145053
 51
12.6447242153859207
  0
ARC
  5
214FA
  8
0
 10
4468.9920410939230351
 20
278.3216902429123252
 30
0.0
 40
1.136306689578567
 50
323.2275926751851785
 51
343.1990167544967107
  0
ARC
  5
214FB
  8
0
 10
4465.7809781756641314
 20
278.0614983145813994
 30
0.0
 40
4.7127465172704026
 50
357.9503683223704797
 51
2.4313195568602111
  0
LINE
  5
214FC
  8
0
 10
4470.4153463457760154
 20
269.9093043218401249
 30
0.0
 11
4468.4136013837751307
 21
269.9093043467399866
 31
0.0
  0
ARC
  5
214FD
  8
0
 10
4469.0478570823288464
 20
269.4546224805475276
 30
0.0
 40
0.8179145398473352
 50
134.1731946831606876
 51
143.1357094790953965
  0
ARC
  5
214FE
  8
0
 10
4467.4902696080362148
 20
271.0191931639175209
 30
0.0
 40
1.3898867767523591
 50
315.2829833749951831
 51
319.4664313901081982
  0
ARC
  5
214FF
  8
0
 10
4468.1873607725774491
 20
270.4179335291872235
 30
0.0
 40
0.4693416529835674
 50
319.947124184328402
 51
331.7594910414695164
  0
ARC
  5
21500
  8
0
 10
4468.1990768619680239
 20
270.3850117302675926
 30
0.0
 40
0.444062507958227
 50
334.7877749184515892
 51
355.4907768394564869
  0
ARC
  5
21501
  8
0
 10
4479.8249732537396994
 20
268.9993042110251054
 30
0.0
 40
11.2644928211423601
 50
172.5876360831647958
 51
173.1127319859662919
  0
ARC
  5
21502
  8
0
 10
4487.7954210331199647
 20
286.2652852879681973
 30
0.0
 40
23.8227818292313813
 50
222.6993712395847069
 51
223.1435657031433095
  0
ARC
  5
21503
  8
0
 10
4470.633969173100013
 20
270.4122534381021978
 30
0.0
 40
0.4598684211395773
 50
207.9070439013542
 51
221.1198045161038976
  0
ARC
  5
21504
  8
0
 10
4470.5438128541827609
 20
270.3538776641220807
 30
0.0
 40
0.3529993706025229
 50
193.1112650319338968
 51
206.3826768515430956
  0
ARC
  5
21505
  8
0
 10
4471.063277922549787
 20
270.4621773238710034
 30
0.0
 40
0.8835761629749326
 50
185.3634097736753006
 51
192.3097201182143863
  0
ARC
  5
21506
  8
0
 10
4470.1972431568592583
 20
269.7880541451248746
 30
0.0
 40
0.2854397158227871
 50
33.4296212102423596
 51
40.8040975225763134
  0
ARC
  5
21507
  8
0
 10
4470.4150453861939241
 20
269.9330924049438067
 30
0.0
 40
0.0237899868519823
 50
270.7248500789380046
 51
30.8911395810011911
  0
ARC
  5
21508
  8
0
 10
4468.4136038103297324
 20
269.9329313062680171
 30
0.0
 40
0.0236269596525281
 50
148.412335262369794
 51
269.9941155643501816
  0
ARC
  5
21509
  8
0
 10
4464.895282813868107
 20
270.9832466776675801
 30
0.0
 40
3.7966074985316038
 50
351.9645014526711861
 51
358.4945955099186108
  0
ARC
  5
2150A
  8
0
 10
4474.7359819132070697
 20
271.0508071636513137
 30
0.0
 40
4.6016289268810766
 50
180.8217749336218105
 51
188.3874143682342037
  0
ARC
  5
2150B
  8
0
 10
4416.272468476130598
 20
272.5195342115869153
 30
0.0
 40
52.4436363965242265
 50
358.2123136122007736
 51
0.3207524042740312
  0
ARC
  5
2150C
  8
0
 10
4446.4498823740595981
 20
272.4142786051141911
 30
0.0
 40
22.2689726989030206
 50
1.0262376645701889
 51
4.7259700279389927
  0
ARC
  5
2150D
  8
0
 10
4497.7879664094425607
 20
272.1854944480713243
 30
0.0
 40
27.6791943983228883
 50
175.7245373059375027
 51
182.4861908353018123
  0
LINE
  5
2150E
  8
0
 10
4469.2555801137086746
 20
277.2862944910788201
 30
0.0
 11
4469.2480937620748591
 21
277.2776614507400836
 31
0.0
  0
LINE
  5
2150F
  8
0
 10
4469.2445456075747643
 20
277.2529375234403233
 30
0.0
 11
4469.2525812390158535
 21
277.2616572792192073
 31
0.0
  0
LINE
  5
21510
  8
0
 10
4469.3012733369514535
 20
277.3023538982438936
 30
0.0
 11
4469.2948045810762778
 21
277.2951063264400773
 31
0.0
  0
LINE
  5
21511
  8
0
 10
4469.2608502736593437
 20
277.257201107240121
 30
0.0
 11
4469.2513546757472795
 21
277.2468988243820718
 31
0.0
  0
LINE
  5
21512
  8
0
 10
4469.2936455139915779
 20
277.2854354239059944
 30
0.0
 11
4469.287067917774948
 21
277.2780659077400855
 31
0.0
  0
LINE
  5
21513
  8
0
 10
4469.287067917774948
 20
277.265305739440123
 30
0.0
 11
4469.2993400014811414
 21
277.2790553396902737
 31
0.0
  0
LINE
  5
21514
  8
0
 10
4469.3076834375124236
 20
277.2746459922399822
 30
0.0
 11
4469.2948045810762778
 21
277.2602165657401088
 31
0.0
  0
LINE
  5
21515
  8
0
 10
4469.34035633412077
 20
277.3028803054697278
 30
0.0
 11
4469.3337787367772762
 21
277.295510788040076
 31
0.0
  0
LINE
  5
21516
  8
0
 10
4469.2932484441816996
 20
277.2512447144706016
 30
0.0
 11
4469.2876947939748788
 21
277.2452182467400803
 31
0.0
  0
LINE
  5
21517
  8
0
 10
4469.2876947939748788
 20
277.2321767972400721
 30
0.0
 11
4469.2992870490688802
 21
277.2447559745202739
 31
0.0
  0
LINE
  5
21518
  8
0
 10
4469.3337787367772762
 20
277.2827506197401135
 30
0.0
 11
4469.3460508226762613
 21
277.2965002224498789
 31
0.0
  0
LINE
  5
21519
  8
0
 10
4469.3366135353353457
 20
277.275805953401516
 30
0.0
 11
4469.352190300474831
 21
277.2932591370400814
 31
0.0
  0
LINE
  5
2151A
  8
0
 10
4469.3076365852566596
 20
277.240387972540077
 30
0.0
 11
4469.295568771474791
 21
277.2272927245400069
 31
0.0
  0
LINE
  5
2151B
  8
0
 10
4469.3838291371112064
 20
277.316697323663675
 30
0.0
 11
4469.3804895558760109
 21
277.3129556683401233
 31
0.0
  0
LINE
  5
2151C
  8
0
 10
4469.3403563330602992
 20
277.2679905435816181
 30
0.0
 11
4469.3337787367772762
 21
277.2606210273401075
 31
0.0
  0
LINE
  5
2151D
  8
0
 10
4469.3337787325808677
 20
277.2478608590399745
 30
0.0
 11
4469.3460508205498627
 21
277.2616104594141007
 31
0.0
  0
LINE
  5
2151E
  8
0
 10
4469.3804895558760109
 20
277.3001955000399903
 30
0.0
 11
4469.3927616395239966
 21
277.3139451004420266
 31
0.0
  0
LINE
  5
2151F
  8
0
 10
4469.400739044725924
 20
277.30953574824008
 30
0.0
 11
4469.3882262190763868
 21
277.2951063310400741
 31
0.0
  0
LINE
  5
21520
  8
0
 10
4469.3540282213762111
 20
277.257201107240121
 30
0.0
 11
4469.3418320057089659
 21
277.2437029190621161
 31
0.0
  0
LINE
  5
21521
  8
0
 10
4469.3368567033749059
 20
277.2179406953400758
 30
0.0
 11
4469.3460028771123689
 21
277.2278655408143777
 31
0.0
  0
LINE
  5
21522
  8
0
 10
4469.400739044725924
 20
277.2746459875401115
 30
0.0
 11
4469.3882262190763868
 21
277.2602165703399919
 31
0.0
  0
LINE
  5
21523
  8
0
 10
4469.3534225793700898
 20
277.2224885334940723
 30
0.0
 11
4469.3458574733758724
 21
277.2142678131399975
 31
0.0
  0
LINE
  5
21524
  8
0
 10
4469.3870671520398901
 20
277.2505456632587766
 30
0.0
 11
4469.3804895558760109
 21
277.243176147040117
 31
0.0
  0
LINE
  5
21525
  8
0
 10
4469.3804895558760109
 20
277.2314965510399816
 30
0.0
 11
4469.3927616395312725
 21
277.244165579046296
 31
0.0
  0
LINE
  5
21526
  8
0
 10
4469.4008850836762576
 20
277.2402000837399783
 30
0.0
 11
4469.3881560782747329
 21
277.2263873772399734
 31
0.0
  0
LINE
  5
21527
  8
0
 10
4469.2445456075747643
 20
277.2659789729399904
 30
0.0
 11
4469.2445456075747643
 21
277.2529375234403233
 31
0.0
  0
LINE
  5
21528
  8
0
 10
4469.2616099531760483
 20
277.2780659077400855
 30
0.0
 11
4469.2616099531760483
 21
277.265305739440123
 31
0.0
  0
LINE
  5
21529
  8
0
 10
4469.287067917774948
 20
277.2780659077400855
 30
0.0
 11
4469.287067917774948
 21
277.265305739440123
 31
0.0
  0
LINE
  5
2152A
  8
0
 10
4469.2876947939748788
 20
277.2452182467400803
 30
0.0
 11
4469.2876947939748788
 21
277.2321767972400721
 31
0.0
  0
LINE
  5
2152B
  8
0
 10
4469.3083207721747385
 20
277.295510788040076
 30
0.0
 11
4469.3083207721747385
 21
277.2827506197401135
 31
0.0
  0
LINE
  5
2152C
  8
0
 10
4469.3083207721747385
 20
277.2606210273401075
 30
0.0
 11
4469.3083207721747385
 21
277.2478608590399745
 31
0.0
  0
LINE
  5
2152D
  8
0
 10
4469.3337787367772762
 20
277.295510788040076
 30
0.0
 11
4469.3337787367772762
 21
277.2827506197401135
 31
0.0
  0
LINE
  5
2152E
  8
0
 10
4469.336856703365811
 20
277.2309821448143907
 30
0.0
 11
4469.3368567033749059
 21
277.2179406953400758
 31
0.0
  0
LINE
  5
2152F
  8
0
 10
4469.3550315911761572
 20
277.3129556683401233
 30
0.0
 11
4469.3550315911761572
 21
277.3001955000399903
 31
0.0
  0
LINE
  5
21530
  8
0
 10
4469.3550315911761572
 20
277.243176147040117
 30
0.0
 11
4469.3550315911761572
 21
277.2314965510399816
 31
0.0
  0
LINE
  5
21531
  8
0
 10
4469.3804895558760109
 20
277.3129556683401233
 30
0.0
 11
4469.3804895558760109
 21
277.3001955000399903
 31
0.0
  0
LINE
  5
21532
  8
0
 10
4469.3804895558760109
 20
277.243176147040117
 30
0.0
 11
4469.3804895558760109
 21
277.2314965510399816
 31
0.0
  0
LINE
  5
21533
  8
0
 10
4469.4017424145758923
 20
277.295510788040076
 30
0.0
 11
4469.4017424145758923
 21
277.2827506197401135
 31
0.0
  0
LINE
  5
21534
  8
0
 10
4469.4017424145758923
 20
277.2606210273401075
 30
0.0
 11
4469.4017424145758923
 21
277.2478608590399745
 31
0.0
  0
LINE
  5
21535
  8
0
 10
4469.2538732898747185
 20
277.2602165657401088
 30
0.0
 11
4469.2410417634946498
 21
277.2741797108399737
 31
0.0
  0
LINE
  5
21536
  8
0
 10
4469.2493199333048324
 20
277.2790754353083003
 30
0.0
 11
4469.2616099531760483
 21
277.265305739440123
 31
0.0
  0
LINE
  5
21537
  8
0
 10
4469.2616099531760483
 20
277.2780659077400855
 30
0.0
 11
4469.2549323334269502
 21
277.2855474899257047
 31
0.0
  0
LINE
  5
21538
  8
0
 10
4469.3003132385538265
 20
277.2436532899056942
 30
0.0
 11
4469.287705256634581
 21
277.257201107240121
 31
0.0
  0
LINE
  5
21539
  8
0
 10
4469.2960486884712736
 20
277.2616104593907949
 30
0.0
 11
4469.3083207721747385
 21
277.2478608590399745
 31
0.0
  0
LINE
  5
2153A
  8
0
 10
4469.3083207721747385
 20
277.2606210273401075
 30
0.0
 11
4469.3017431759590181
 21
277.2679905436060039
 31
0.0
  0
LINE
  5
2153B
  8
0
 10
4469.3473650686746623
 20
277.2263873772399734
 30
0.0
 11
4469.3344629155326402
 21
277.240387972540077
 31
0.0
  0
LINE
  5
2153C
  8
0
 10
4469.3005841088761372
 20
277.2776614460400992
 30
0.0
 11
4469.2877052565436315
 21
277.2920908679399759
 31
0.0
  0
LINE
  5
2153D
  8
0
 10
4469.2960486885258433
 20
277.2965002201426046
 30
0.0
 11
4469.3083207721747385
 21
277.2827506197401135
 31
0.0
  0
LINE
  5
2153E
  8
0
 10
4469.3429185025761399
 20
277.2446409037399917
 30
0.0
 11
4469.3550315911761572
 21
277.2314965510399816
 31
0.0
  0
LINE
  5
2153F
  8
0
 10
4469.3550315911761572
 20
277.243176147040117
 30
0.0
 11
4469.3483539714279686
 21
277.2506577292256793
 31
0.0
  0
LINE
  5
21540
  8
0
 10
4469.3083207721747385
 20
277.295510788040076
 30
0.0
 11
4469.3020232531862348
 21
277.3025665066451211
 31
0.0
  0
LINE
  5
21541
  8
0
 10
4469.3949917422760336
 20
277.2084971841401284
 30
0.0
 11
4469.3821002901968313
 21
277.2224866641093968
 31
0.0
  0
LINE
  5
21542
  8
0
 10
4469.3472949279757813
 20
277.2602165657401088
 30
0.0
 11
4469.3344160714377722
 21
277.2746459922399822
 31
0.0
  0
LINE
  5
21543
  8
0
 10
4469.3895182698342978
 20
277.2278655408205168
 30
0.0
 11
4469.4058601489759894
 21
277.2101323738401106
 31
0.0
  0
LINE
  5
21544
  8
0
 10
4469.3940057469762905
 20
277.2427716853400739
 30
0.0
 11
4469.3811268946337805
 21
277.257201107240121
 31
0.0
  0
LINE
  5
21545
  8
0
 10
4469.3472949323759167
 20
277.2951063267400968
 30
0.0
 11
4469.334416071466876
 21
277.3095357528400768
 31
0.0
  0
LINE
  5
21546
  8
0
 10
4469.3444214918636135
 20
277.3120830188934178
 30
0.0
 11
4469.3550315911761572
 21
277.3001955000399903
 31
0.0
  0
LINE
  5
21547
  8
0
 10
4469.3894523905873939
 20
277.2616305547422826
 30
0.0
 11
4469.4017424145758923
 21
277.2478608590399745
 31
0.0
  0
LINE
  5
21548
  8
0
 10
4469.4017424145758923
 20
277.2606210273401075
 30
0.0
 11
4469.3950647916963135
 21
277.268102608245897
 31
0.0
  0
LINE
  5
21549
  8
0
 10
4469.3550315911761572
 20
277.3129556683401233
 30
0.0
 11
4469.3544276251413976
 21
277.3136323498163165
 31
0.0
  0
LINE
  5
2154A
  8
0
 10
4469.3833308465746086
 20
277.2932591370400814
 30
0.0
 11
4469.3989012347446987
 21
277.2758143904868007
 31
0.0
  0
LINE
  5
2154B
  8
0
 10
4469.3894523905873939
 20
277.2965203154423079
 30
0.0
 11
4469.4017424145758923
 21
277.2827506197401135
 31
0.0
  0
LINE
  5
2154C
  8
0
 10
4469.4017424145758923
 20
277.295510788040076
 30
0.0
 11
4469.3950647916499292
 21
277.3029923688944223
 31
0.0
  0
LINE
  5
2154D
  8
0
 10
4469.3940057469762905
 20
277.3125512067401246
 30
0.0
 11
4469.3899803716349197
 21
277.3170612234055739
 31
0.0
  0
LINE
  5
2154E
  8
0
 10
4469.3814929256759569
 20
277.222311346539982
 30
0.0
 11
4469.3540282213762111
 21
277.222311346539982
 31
0.0
  0
LINE
  5
2154F
  8
0
 10
4469.3550315911761572
 20
277.2314965510399816
 30
0.0
 11
4469.3804895558760109
 21
277.2314965510399816
 31
0.0
  0
LINE
  5
21550
  8
0
 10
4469.4282037490256698
 20
277.2397562268400861
 30
0.0
 11
4469.400739044725924
 21
277.2397562268400861
 31
0.0
  0
LINE
  5
21551
  8
0
 10
4469.3347821066772667
 20
277.240387972540077
 30
0.0
 11
4469.3073174023757019
 21
277.240387972540077
 31
0.0
  0
LINE
  5
21552
  8
0
 10
4469.3550315911761572
 20
277.243176147040117
 30
0.0
 11
4469.3804895558760109
 21
277.243176147040117
 31
0.0
  0
LINE
  5
21553
  8
0
 10
4469.3083207721747385
 20
277.2478608590399745
 30
0.0
 11
4469.3337787325808677
 21
277.2478608590399745
 31
0.0
  0
LINE
  5
21554
  8
0
 10
4469.4017424145758923
 20
277.2478608590399745
 30
0.0
 11
4469.4271972075375743
 21
277.2478608590400881
 31
0.0
  0
LINE
  5
21555
  8
0
 10
4469.3814929256759569
 20
277.257201107240121
 30
0.0
 11
4469.3540282213762111
 21
277.257201107240121
 31
0.0
  0
LINE
  5
21556
  8
0
 10
4469.2880712875748941
 20
277.257201107240121
 30
0.0
 11
4469.2606065833761022
 21
277.257201107240121
 31
0.0
  0
LINE
  5
21557
  8
0
 10
4469.352190300474831
 20
277.2583693810399836
 30
0.0
 11
4469.3833308464763832
 21
277.2583693810399836
 31
0.0
  0
LINE
  5
21558
  8
0
 10
4469.3083207721747385
 20
277.2606210273401075
 30
0.0
 11
4469.3337787367772762
 21
277.2606210273401075
 31
0.0
  0
LINE
  5
21559
  8
0
 10
4469.4017424145758923
 20
277.2606210273401075
 30
0.0
 11
4469.4271972075375743
 21
277.2606210273401075
 31
0.0
  0
LINE
  5
2155A
  8
0
 10
4469.2616099531760483
 20
277.265305739440123
 30
0.0
 11
4469.287067917774948
 21
277.265305739440123
 31
0.0
  0
LINE
  5
2155B
  8
0
 10
4469.4282005773893616
 20
277.2746459875401115
 30
0.0
 11
4469.400739044725924
 21
277.2746459875401115
 31
0.0
  0
LINE
  5
2155C
  8
0
 10
4469.3347821065763128
 20
277.2746459922399822
 30
0.0
 11
4469.3073174023757019
 21
277.2746459922399822
 31
0.0
  0
LINE
  5
2155D
  8
0
 10
4469.2413604685762039
 20
277.2746459875401115
 30
0.0
 11
4469.2310868648901305
 21
277.2746459875401115
 31
0.0
  0
LINE
  5
2155E
  8
0
 10
4469.2616099531760483
 20
277.2780659077400855
 30
0.0
 11
4469.287067917774948
 21
277.2780659077400855
 31
0.0
  0
LINE
  5
2155F
  8
0
 10
4469.3083207721747385
 20
277.2827506197401135
 30
0.0
 11
4469.3337787367772762
 21
277.2827506197401135
 31
0.0
  0
LINE
  5
21560
  8
0
 10
4469.4017424145758923
 20
277.2827506197401135
 30
0.0
 11
4469.4271972075375743
 21
277.2827506197401135
 31
0.0
  0
LINE
  5
21561
  8
0
 10
4469.2880712875748941
 20
277.2920908679399759
 30
0.0
 11
4469.2701310612710586
 21
277.2920908679399759
 31
0.0
  0
LINE
  5
21562
  8
0
 10
4469.3833308465746086
 20
277.2932591370400814
 30
0.0
 11
4469.352190300474831
 21
277.2932591370400814
 31
0.0
  0
LINE
  5
21563
  8
0
 10
4469.3083207721747385
 20
277.295510788040076
 30
0.0
 11
4469.3337787367772762
 21
277.295510788040076
 31
0.0
  0
LINE
  5
21564
  8
0
 10
4469.4017424145758923
 20
277.295510788040076
 30
0.0
 11
4469.4271972075375743
 21
277.295510788040076
 31
0.0
  0
LINE
  5
21565
  8
0
 10
4469.3550315911761572
 20
277.3001955000399903
 30
0.0
 11
4469.3804895558760109
 21
277.3001955000399903
 31
0.0
  0
LINE
  5
21566
  8
0
 10
4469.4282005773893616
 20
277.30953574824008
 30
0.0
 11
4469.400739044725924
 21
277.30953574824008
 31
0.0
  0
LINE
  5
21567
  8
0
 10
4469.3347821065763128
 20
277.3095357528400768
 30
0.0
 11
4469.3307174275551006
 21
277.3095357528400768
 31
0.0
  0
LINE
  5
21568
  8
0
 10
4469.3550315911761572
 20
277.3129556683401233
 30
0.0
 11
4469.3804895558760109
 21
277.3129556683401233
 31
0.0
  0
ARC
  5
21569
  8
0
 10
4469.2501587452652529
 20
277.2480680861419273
 30
0.0
 40
0.0016725497837363
 50
290.2080432425370873
 51
315.646011098907195
  0
ARC
  5
2156A
  8
0
 10
4469.2500399549317081
 20
277.2484304171060785
 30
0.0
 40
0.0020536566124169
 50
267.3749769463630059
 51
289.8263257643419024
  0
ARC
  5
2156B
  8
0
 10
4469.2501422093846486
 20
277.2498434624312722
 30
0.0
 40
0.0034701042372624
 50
245.243881046799288
 51
266.756936924876527
  0
ARC
  5
2156C
  8
0
 10
4469.2517141882699434
 20
277.2529157413317193
 30
0.0
 40
0.0069197488547285
 50
212.850600774227189
 51
236.966556077897593
  0
ARC
  5
2156D
  8
0
 10
4469.2517141882699434
 20
277.2529157413317193
 30
0.0
 40
0.0069197488547285
 50
242.8589672837617002
 51
244.076528944775589
  0
ARC
  5
2156E
  8
0
 10
4469.2527334563055774
 20
277.2539201239673048
 30
0.0
 40
0.0083259335637336
 50
199.3979821514560911
 51
214.8526424071523024
  0
ARC
  5
2156F
  8
0
 10
4469.250174052627699
 20
277.2530710469018231
 30
0.0
 40
0.0056300286158882
 50
181.3589714519468998
 51
199.8983902500847876
  0
ARC
  5
21570
  8
0
 10
4469.2510106257059306
 20
277.2658377883724938
 30
0.0
 40
0.010612672560591
 50
334.2599408678403279
 51
357.1263654664310252
  0
ARC
  5
21571
  8
0
 10
4469.2496141679475841
 20
277.266134390597017
 30
0.0
 40
0.0120041719199816
 50
319.6947813498189817
 51
335.8796067004000747
  0
ARC
  5
21572
  8
0
 10
4469.2583182892021796
 20
277.2645862131291778
 30
0.0
 40
0.0062331242015132
 50
224.5102194202252122
 51
274.1435070234413729
  0
ARC
  5
21573
  8
0
 10
4469.2614281680298518
 20
277.2605234586091001
 30
0.0
 40
0.0034224289564925
 50
219.0058863781673892
 51
256.10998116848981
  0
ARC
  5
21574
  8
0
 10
4469.4009393599262694
 20
277.2150177556646895
 30
0.0
 40
0.0088256449468849
 50
227.6310765799202898
 51
254.5042503846624982
  0
ARC
  5
21575
  8
0
 10
4469.3428949918388753
 20
277.2171373841476907
 30
0.0
 40
0.0041244039998708
 50
263.9971481566205966
 51
315.9127006008719718
  0
ARC
  5
21576
  8
0
 10
4469.3433929817101671
 20
277.2205497646581875
 30
0.0
 40
0.0075714171619367
 50
229.3527836955890109
 51
262.9497690280330744
  0
ARC
  5
21577
  8
0
 10
4469.3412626654662745
 20
277.2182166848897964
 30
0.0
 40
0.004414597623016
 50
183.5843255962772105
 51
230.606335394875714
  0
ARC
  5
21578
  8
0
 10
4469.351959355548388
 20
277.2312994229959031
 30
0.0
 40
0.0067257464543273
 50
226.9144571949719023
 51
271.9677773181762745
  0
ARC
  5
21579
  8
0
 10
4469.3543177144238143
 20
277.2244245262618847
 30
0.0
 40
0.0021329169607854
 50
175.8833462500581959
 51
262.1993763453533006
  0
ARC
  5
2157A
  8
0
 10
4469.343073752033888
 20
277.2323642579718808
 30
0.0
 40
0.0119892798891933
 50
319.4987379781355799
 51
355.8496715735691964
  0
ARC
  5
2157B
  8
0
 10
4469.38121453410713
 20
277.2244155230907268
 30
0.0
 40
0.002122512855538
 50
277.5367051750830001
 51
4.380575279760107
  0
ARC
  5
2157C
  8
0
 10
4469.3924505063341712
 20
277.2323655355206142
 30
0.0
 40
0.0119924755528677
 50
184.155340276813007
 51
220.4962487540346103
  0
ARC
  5
2157D
  8
0
 10
4469.3835619473429688
 20
277.2312990072226739
 30
0.0
 40
0.0067253362830128
 50
268.0307733367262131
 51
313.0869921501861199
  0
ARC
  5
2157E
  8
0
 10
4469.3986757819693594
 20
277.2477377184191027
 30
0.0
 40
0.0068169429652241
 50
226.7594427201620988
 51
271.8943231173458912
  0
ARC
  5
2157F
  8
0
 10
4469.3894777339028224
 20
277.2488346445296088
 30
0.0
 40
0.0123032780261423
 50
319.9893671292721251
 51
355.460379210612416
  0
ARC
  5
21580
  8
0
 10
4469.4013642972013258
 20
277.2427697090975016
 30
0.0
 40
0.0030776640449278
 50
216.8375517989910861
 51
258.2783010081473094
  0
ARC
  5
21581
  8
0
 10
4469.3808798175141419
 20
277.2601954845105752
 30
0.0
 40
0.0030565007535337
 50
281.5715522039147913
 51
323.3125830790096984
  0
ARC
  5
21582
  8
0
 10
4469.383618900633337
 20
277.2650163761106228
 30
0.0
 40
0.0066532336998668
 50
267.5185828758757225
 51
313.8277849375998017
  0
ARC
  5
21583
  8
0
 10
4469.4013637968246258
 20
277.2776582455452967
 30
0.0
 40
0.0030763636773235
 50
216.824207956526692
 51
258.2827936947277863
  0
ARC
  5
21584
  8
0
 10
4469.3896066950883323
 20
277.2836715771750278
 30
0.0
 40
0.0121706142029238
 50
319.7903213450964017
 51
355.66024679921901
  0
ARC
  5
21585
  8
0
 10
4469.392779552967113
 20
277.3011796501177741
 30
0.0
 40
0.0123293381776117
 50
184.5783233916446022
 51
219.9719018741884895
  0
ARC
  5
21586
  8
0
 10
4469.3836226263647404
 20
277.299896246102719
 30
0.0
 40
0.0066435195607907
 50
267.482790633179718
 51
313.8636742595850251
  0
ARC
  5
21587
  8
0
 10
4469.3986050874109424
 20
277.3173298774028126
 30
0.0
 40
0.0066324675454923
 50
226.0955002031016079
 51
272.5582323139194045
  0
ARC
  5
21588
  8
0
 10
4469.4013643692569531
 20
277.3125493433710176
 30
0.0
 40
0.0030777892037398
 50
216.8384873852326962
 51
258.2774144706518769
  0
ARC
  5
21589
  8
0
 10
4469.3464419618521788
 20
277.3187177987031191
 30
0.0
 40
0.0127089771216125
 50
219.1835326111637983
 51
219.2342670110892868
  0
ARC
  5
2158A
  8
0
 10
4469.3340494066687825
 20
277.3127125317164996
 30
0.0
 40
0.0032601799309002
 50
282.9877171848859803
 51
321.6855096850998166
  0
ARC
  5
2158B
  8
0
 10
4469.3367108959919278
 20
277.3177781750562758
 30
0.0
 40
0.0070996096558559
 50
269.0889952970276227
 51
292.2401793344229759
  0
ARC
  5
2158C
  8
0
 10
4469.3519326257137436
 20
277.2999866303595127
 30
0.0
 40
0.0067324262276387
 50
226.4601324162966023
 51
272.1934562224262777
  0
ARC
  5
2158D
  8
0
 10
4469.3428095350773219
 20
277.3011518199552938
 30
0.0
 40
0.0122594128361969
 50
319.9237914447004982
 51
355.5259832894612941
  0
ARC
  5
2158E
  8
0
 10
4469.3340633899106251
 20
277.2778065282037119
 30
0.0
 40
0.0032412252654751
 50
282.8113858299244043
 51
321.8860144608980249
  0
ARC
  5
2158F
  8
0
 10
4469.3460571784189597
 20
277.2837117417923878
 30
0.0
 40
0.0123160011680175
 50
184.4758265679427893
 51
219.9345373820090117
  0
ARC
  5
21590
  8
0
 10
4469.3519192607291188
 20
277.2650614790704253
 30
0.0
 40
0.0066975845341001
 50
226.3344305086824875
 51
272.3192951615433799
  0
ARC
  5
21591
  8
0
 10
4469.3546746492984312
 20
277.2602479031544931
 30
0.0
 40
0.0031146162528441
 50
217.0944811732751987
 51
258.0213863676003143
  0
ARC
  5
21592
  8
0
 10
4469.33436376489135
 20
277.2431949298085101
 30
0.0
 40
0.00283796035144
 50
278.4768221596841045
 51
322.65819230713862
  0
ARC
  5
21593
  8
0
 10
4469.3368974878376321
 20
277.2480319239227811
 30
0.0
 40
0.0065642783074778
 50
267.5775237101394737
 51
318.7398359847795746
  0
ARC
  5
21594
  8
0
 10
4469.3462781795806222
 20
277.2495953937083755
 30
0.0
 40
0.0126192228684667
 50
187.9004185517744929
 51
220.0616786950018877
  0
ARC
  5
21595
  8
0
 10
4469.2938923198526027
 20
277.2327960496239143
 30
0.0
 40
0.0062283866702671
 50
185.7060145300964109
 51
274.3633234143238155
  0
ARC
  5
21596
  8
0
 10
4469.3052049368616281
 20
277.2480349072035892
 30
0.0
 40
0.0065671365521788
 50
221.8516042020756061
 51
272.3959951804662865
  0
ARC
  5
21597
  8
0
 10
4469.3077370268956656
 20
277.2431970934375727
 30
0.0
 40
0.0028402895899898
 50
217.3608599793367091
 51
261.5040183321970062
  0
ARC
  5
21598
  8
0
 10
4469.2958220170439745
 20
277.2495950735113865
 30
0.0
 40
0.0126184935580647
 50
319.937436162114011
 51
352.1005897355577758
  0
ARC
  5
21599
  8
0
 10
4469.2873511208526907
 20
277.2603639176875845
 30
0.0
 40
0.0032437647933435
 50
282.8274525866190174
 51
322.0565689969147911
  0
ARC
  5
2159A
  8
0
 10
4469.2901971940882504
 20
277.2650165714852051
 30
0.0
 40
0.0066534254338642
 50
267.5192831803685181
 51
313.8270182489732747
  0
ARC
  5
2159B
  8
0
 10
4469.2992472081659798
 20
277.2662445477949973
 30
0.0
 40
0.0122154195804521
 50
184.4077773807586027
 51
220.1424823047406107
  0
ARC
  5
2159C
  8
0
 10
4469.2961510107052163
 20
277.2836855130623235
 30
0.0
 40
0.0122056183704331
 50
319.8427405226582891
 51
355.6071085072528035
  0
ARC
  5
2159D
  8
0
 10
4469.3051878887827115
 20
277.2824518827121096
 30
0.0
 40
0.0066440253571331
 50
226.1382788207621957
 51
272.5154576603582086
  0
ARC
  5
2159E
  8
0
 10
4469.3079426474596403
 20
277.277659468386787
 30
0.0
 40
0.0030776565601113
 50
216.8377303706550094
 51
258.2784126284768718
  0
ARC
  5
2159F
  8
0
 10
4469.2874580117231744
 20
277.2950855253415057
 30
0.0
 40
0.0030568088301244
 50
281.5735782233315945
 51
323.3102346510405027
  0
ARC
  5
215A0
  8
0
 10
4469.2902085608338894
 20
277.2998761914446959
 30
0.0
 40
0.0066238217234963
 50
267.4097705280237847
 51
313.9366272075723145
  0
ARC
  5
215A1
  8
0
 10
4469.2993139223362959
 20
277.3011616360922176
 30
0.0
 40
0.0122840566001848
 50
194.264819281683998
 51
220.0393407264365919
  0
ARC
  5
215A2
  8
0
 10
4469.2407473107377882
 20
277.2776404591227788
 30
0.0
 40
0.0030566031134407
 50
281.5721098228361257
 51
323.3117074926499868
  0
ARC
  5
215A3
  8
0
 10
4469.2434863625639991
 20
277.2824614562094894
 30
0.0
 40
0.0066534339077033
 50
267.5193942932020832
 51
313.8270976994963917
  0
ARC
  5
215A4
  8
0
 10
4469.2526034507563963
 20
277.2837168974629094
 30
0.0
 40
0.0122844137255399
 50
198.7386118097969074
 51
220.0388041829264978
  0
LINE
  5
215A5
  8
0
 10
4469.2445456075747643
 20
277.2659789729399904
 30
0.0
 11
4469.2310368225362254
 21
277.2746782132696239
 31
0.0
  0
LINE
  5
215A6
  8
0
 10
4469.2445456065406688
 20
277.2659789736064226
 30
0.0
 11
4469.2465645804895757
 21
277.2681698338560068
 31
0.0
  0
ARC
  5
215A7
  8
0
 10
4469.2937657900465638
 20
277.2289832327182921
 30
0.0
 40
0.0024715501069771
 50
284.0589769684244175
 51
316.8440064522375224
  0
ARC
  5
215A8
  8
0
 10
4469.3867762491672693
 20
277.507717990824176
 30
0.0
 40
0.2805766390972351
 50
243.3016555058158872
 51
249.3208087600096974
  0
ARC
  5
215A9
  8
0
 10
4469.4069813673550016
 20
277.5668336418580111
 30
0.0
 40
0.3430942969010059
 50
252.9244687897628125
 51
258.2062721524414997
  0
LINE
  5
215AA
  8
0
 10
4469.3368567033749059
 20
277.2309821448124012
 30
0.0
 11
4469.3399937476760897
 21
277.2343862655400812
 31
0.0
  0
ARC
  5
215AB
  8
0
 10
4469.399595905318165
 20
277.2165970012309231
 30
0.0
 40
0.0102731148017926
 50
277.9202336444860748
 51
291.4182955699445756
  0
ARC
  5
215AC
  8
0
 10
4469.4019263577165475
 20
277.2108943171917872
 30
0.0
 40
0.0041141623402254
 50
290.206082472812227
 51
334.5201607733002902
  0
ARC
  5
215AD
  8
0
 10
4469.4033006078670951
 20
277.210162558173181
 30
0.0
 40
0.0025597190827047
 50
336.0736017727443823
 51
359.3243496939542183
  0
LINE
  5
215AE
  8
0
 10
4469.4058601489759894
 20
277.2101323738401106
 30
0.0
 11
4469.4058601489759894
 21
277.2231738233401188
 31
0.0
  0
ARC
  5
215AF
  8
0
 10
4469.4144698102272741
 20
277.6140209267243222
 30
0.0
 40
0.3909419195874629
 50
268.7380807425943772
 51
271.2619195007150097
  0
LINE
  5
215B0
  8
0
 10
4469.4058601489759894
 20
277.2231738233401188
 30
0.0
 11
4469.3955273992341972
 21
277.2343862655841917
 31
0.0
  0
ARC
  5
215B1
  8
0
 10
4469.3665758636170722
 20
277.4474200520488125
 30
0.0
 40
0.2530289428674921
 50
229.2560821942529117
 51
250.5072361751448966
  0
ARC
  5
215B2
  8
0
 10
4469.4104438911126636
 20
277.5595225392304997
 30
0.0
 40
0.3733652069099028
 50
249.9016133068458032
 51
269.1799932956388943
  0
ARC
  5
215B3
  8
0
 10
4469.414896346102978
 20
277.5862024522833735
 30
0.0
 40
0.4001268100248948
 50
268.5971585326295781
 51
283.4531113858138269
  0
ARC
  5
215B4
  8
0
 10
4469.4472684759593903
 20
277.4720841868615935
 30
0.0
 40
0.2816517417309709
 50
282.4492869651411979
 51
309.7981284846301833
  0
ARC
  5
215B5
  8
0
 10
4469.3763519419417207
 20
277.4447928943970965
 30
0.0
 40
0.2429147187700641
 50
227.9757193691721113
 51
254.5004740781830037
  0
ARC
  5
215B6
  8
0
 10
4469.4134916132943545
 20
277.5595996759971058
 30
0.0
 40
0.3635070395122384
 50
253.6951480466769908
 51
270.153992838089323
  0
ARC
  5
215B7
  8
0
 10
4469.4172064267977476
 20
277.5438759067602064
 30
0.0
 40
0.347792733590526
 50
269.5489631405483237
 51
292.0002145251741013
  0
ARC
  5
215B8
  8
0
 10
4469.4658928486478544
 20
277.4247455594231724
 30
0.0
 40
0.2190993447636897
 50
291.8658608012876243
 51
312.9466121810506252
  0
ARC
  5
215B9
  8
0
 10
4469.3732244847424226
 20
277.4466068882746868
 30
0.0
 40
0.2379477190263953
 50
229.1078612761102136
 51
252.0848217170664896
  0
ARC
  5
215BA
  8
0
 10
4469.4136018770959708
 20
277.5639600298869141
 30
0.0
 40
0.3620386282019866
 50
251.7175378546523916
 51
270.5569338992892767
  0
ARC
  5
215BB
  8
0
 10
4469.4177924810046534
 20
277.548027937963127
 30
0.0
 40
0.3460900843209059
 50
269.8888279852964729
 51
290.7870304940773849
  0
ARC
  5
215BC
  8
0
 10
4469.4611924803793954
 20
277.4380970942244176
 30
0.0
 40
0.2279179628474511
 50
290.3946170769486912
 51
311.2509403921383182
  0
ARC
  5
215BD
  8
0
 10
4469.4469292810017578
 20
277.4753490890398098
 30
0.0
 40
0.264511877425464
 50
285.4149382631296135
 51
308.1738660449161102
  0
ARC
  5
215BE
  8
0
 10
4469.4157523904486879
 20
277.5775161786634726
 30
0.0
 40
0.371301986309691
 50
270.5204386748454795
 51
285.8622212011326269
  0
ARC
  5
215BF
  8
0
 10
4469.4141343920882719
 20
277.5891867730691729
 30
0.0
 40
0.3829897802519561
 50
261.6671999751678186
 51
270.7466252135982927
  0
ARC
  5
215C0
  8
0
 10
4469.4058770783276486
 20
277.5425816339077869
 30
0.0
 40
0.3356829668851675
 50
247.5958494571252118
 51
261.9088896841449241
  0
ARC
  5
215C1
  8
0
 10
4469.3753998239226348
 20
277.4663942342721725
 30
0.0
 40
0.2536317537859084
 50
237.0139959649467869
 51
247.4013297935701132
  0
ARC
  5
215C2
  8
0
 10
4469.3487570398629032
 20
277.4242829564299768
 30
0.0
 40
0.2038042431825551
 50
230.3111313477415081
 51
236.8512895062353039
  0
LINE
  5
215C3
  8
0
 10
4469.573357687511816
 20
277.2862965908785213
 30
0.0
 11
4469.5808458600386075
 21
277.2776614507400836
 31
0.0
  0
LINE
  5
215C4
  8
0
 10
4469.5843940145377928
 20
277.2529375234403233
 30
0.0
 11
4469.5763583830994321
 21
277.2616572792192073
 31
0.0
  0
LINE
  5
215C5
  8
0
 10
4469.5276652081429347
 20
277.3023551049341222
 30
0.0
 11
4469.5341350410380983
 21
277.2951063264400773
 31
0.0
  0
LINE
  5
215C6
  8
0
 10
4469.5680893484550325
 20
277.257201107240121
 30
0.0
 11
4469.5775849463670966
 21
277.2468988243820718
 31
0.0
  0
LINE
  5
215C7
  8
0
 10
4469.5352941081218887
 20
277.2854354239059944
 30
0.0
 11
4469.5418717043394281
 21
277.2780659077400855
 31
0.0
  0
LINE
  5
215C8
  8
0
 10
4469.5418717043394281
 20
277.265305739440123
 30
0.0
 11
4469.5295996206332347
 21
277.2790553396902737
 31
0.0
  0
LINE
  5
215C9
  8
0
 10
4469.5212561846010431
 20
277.2746459922399822
 30
0.0
 11
4469.5341350410380983
 21
277.2602165657401088
 31
0.0
  0
LINE
  5
215CA
  8
0
 10
4469.4885832879936061
 20
277.3028803054697278
 30
0.0
 11
4469.4951608853389189
 21
277.295510788040076
 31
0.0
  0
LINE
  5
215CB
  8
0
 10
4469.5356911779326765
 20
277.2512447144706016
 30
0.0
 11
4469.5412448281376783
 21
277.2452182467400803
 31
0.0
  0
LINE
  5
215CC
  8
0
 10
4469.5412448281376783
 20
277.2321767972400721
 30
0.0
 11
4469.5296525730445865
 21
277.2447559745202739
 31
0.0
  0
LINE
  5
215CD
  8
0
 10
4469.4951608853389189
 20
277.2827506197401135
 30
0.0
 11
4469.4828887994381148
 21
277.2965002224498789
 31
0.0
  0
LINE
  5
215CE
  8
0
 10
4469.492326086778121
 20
277.275805953401516
 30
0.0
 11
4469.4767493216377261
 21
277.2932591370400814
 31
0.0
  0
LINE
  5
215CF
  8
0
 10
4469.521303036856807
 20
277.240387972540077
 30
0.0
 11
4469.5333708506386756
 21
277.2272927245400069
 31
0.0
  0
LINE
  5
215D0
  8
0
 10
4469.4451102840830572
 20
277.316697548773675
 30
0.0
 11
4469.4484500662383653
 21
277.3129556683401233
 31
0.0
  0
LINE
  5
215D1
  8
0
 10
4469.4885832890540769
 20
277.2679905435816181
 30
0.0
 11
4469.4951608853389189
 21
277.2606210273401075
 31
0.0
  0
LINE
  5
215D2
  8
0
 10
4469.495160889532599
 20
277.2478608590399745
 30
0.0
 11
4469.4828888015636039
 21
277.2616104594141007
 31
0.0
  0
LINE
  5
215D3
  8
0
 10
4469.4484500662383653
 20
277.3001955000399903
 30
0.0
 11
4469.4361779825885606
 21
277.3139451004420266
 31
0.0
  0
LINE
  5
215D4
  8
0
 10
4469.4282005773893616
 20
277.30953574824008
 30
0.0
 11
4469.4407134030388988
 21
277.2951063310400741
 31
0.0
  0
LINE
  5
215D5
  8
0
 10
4469.4749114007372555
 20
277.257201107240121
 30
0.0
 11
4469.4871076164054102
 21
277.2437029190621161
 31
0.0
  0
LINE
  5
215D6
  8
0
 10
4469.4920829187385607
 20
277.2179406953400758
 30
0.0
 11
4469.4829367450010977
 21
277.2278655408143777
 31
0.0
  0
LINE
  5
215D7
  8
0
 10
4469.4282005773893616
 20
277.2746459875401115
 30
0.0
 11
4469.4407134030388988
 21
277.2602165703399919
 31
0.0
  0
LINE
  5
215D8
  8
0
 10
4469.4755170427442863
 20
277.2224885334940723
 30
0.0
 11
4469.4830821487375943
 21
277.2142678131399975
 31
0.0
  0
LINE
  5
215D9
  8
0
 10
4469.4418724700735766
 20
277.2505456632587766
 30
0.0
 11
4469.4484500662383653
 21
277.243176147040117
 31
0.0
  0
LINE
  5
215DA
  8
0
 10
4469.4484500662383653
 20
277.2314965510399816
 30
0.0
 11
4469.4361779825840131
 21
277.244165579046296
 31
0.0
  0
LINE
  5
215DB
  8
0
 10
4469.4284154527686042
 20
277.2398084424795002
 30
0.0
 11
4469.4407835438387337
 21
277.2263873772399734
 31
0.0
  0
LINE
  5
215DC
  8
0
 10
4469.5843940145377928
 20
277.2659789729399904
 30
0.0
 11
4469.5843940145377928
 21
277.2529375234403233
 31
0.0
  0
LINE
  5
215DD
  8
0
 10
4469.5673296689383278
 20
277.2780659077400855
 30
0.0
 11
4469.5673296689383278
 21
277.265305739440123
 31
0.0
  0
LINE
  5
215DE
  8
0
 10
4469.5418717043394281
 20
277.2780659077400855
 30
0.0
 11
4469.5418717043394281
 21
277.265305739440123
 31
0.0
  0
LINE
  5
215DF
  8
0
 10
4469.5412448281376783
 20
277.2452182467400803
 30
0.0
 11
4469.5412448281376783
 21
277.2321767972400721
 31
0.0
  0
LINE
  5
215E0
  8
0
 10
4469.5206188499387281
 20
277.295510788040076
 30
0.0
 11
4469.5206188499387281
 21
277.2827506197401135
 31
0.0
  0
LINE
  5
215E1
  8
0
 10
4469.5206188499387281
 20
277.2606210273401075
 30
0.0
 11
4469.5206188499387281
 21
277.2478608590399745
 31
0.0
  0
LINE
  5
215E2
  8
0
 10
4469.4951608853389189
 20
277.295510788040076
 30
0.0
 11
4469.4951608853389189
 21
277.2827506197401135
 31
0.0
  0
LINE
  5
215E3
  8
0
 10
4469.4920829187476556
 20
277.2309821448143907
 30
0.0
 11
4469.4920829187385607
 21
277.2179406953400758
 31
0.0
  0
LINE
  5
215E4
  8
0
 10
4469.4739080309382189
 20
277.3129556683401233
 30
0.0
 11
4469.4739080309382189
 21
277.3001955000399903
 31
0.0
  0
LINE
  5
215E5
  8
0
 10
4469.4739080309382189
 20
277.243176147040117
 30
0.0
 11
4469.4739080309382189
 21
277.2314965510399816
 31
0.0
  0
LINE
  5
215E6
  8
0
 10
4469.4484500662383653
 20
277.3129556683401233
 30
0.0
 11
4469.4484500662383653
 21
277.3001955000399903
 31
0.0
  0
LINE
  5
215E7
  8
0
 10
4469.4484500662383653
 20
277.243176147040117
 30
0.0
 11
4469.4484500662383653
 21
277.2314965510399816
 31
0.0
  0
LINE
  5
215E8
  8
0
 10
4469.4271972075375743
 20
277.295510788040076
 30
0.0
 11
4469.4271972075375743
 21
277.2827506197401135
 31
0.0
  0
LINE
  5
215E9
  8
0
 10
4469.4271972075375743
 20
277.2606210273401075
 30
0.0
 11
4469.4271972075375743
 21
277.2478608590399745
 31
0.0
  0
LINE
  5
215EA
  8
0
 10
4469.5750663322387481
 20
277.2602165657401088
 30
0.0
 11
4469.5883263467367215
 21
277.2746459875401115
 31
0.0
  0
LINE
  5
215EB
  8
0
 10
4469.5796196888104532
 20
277.2790754353083003
 30
0.0
 11
4469.5673296689383278
 21
277.265305739440123
 31
0.0
  0
LINE
  5
215EC
  8
0
 10
4469.5673296689383278
 20
277.2780659077400855
 30
0.0
 11
4469.5740072886856069
 21
277.2855474899257047
 31
0.0
  0
LINE
  5
215ED
  8
0
 10
4469.5286263835596401
 20
277.2436532899056942
 30
0.0
 11
4469.5412343654779761
 21
277.257201107240121
 31
0.0
  0
LINE
  5
215EE
  8
0
 10
4469.5328909336431025
 20
277.2616104593907949
 30
0.0
 11
4469.5206188499387281
 21
277.2478608590399745
 31
0.0
  0
LINE
  5
215EF
  8
0
 10
4469.5206188499387281
 20
277.2606210273401075
 30
0.0
 11
4469.527196446155358
 21
277.2679905436060039
 31
0.0
  0
LINE
  5
215F0
  8
0
 10
4469.4815745534388043
 20
277.2263873772399734
 30
0.0
 11
4469.4944767065799169
 21
277.240387972540077
 31
0.0
  0
LINE
  5
215F1
  8
0
 10
4469.5283555132382389
 20
277.2776614460400992
 30
0.0
 11
4469.5412343655698351
 21
277.2920908679399759
 31
0.0
  0
LINE
  5
215F2
  8
0
 10
4469.5328909335876233
 20
277.2965002201426046
 30
0.0
 11
4469.5206188499387281
 21
277.2827506197401135
 31
0.0
  0
LINE
  5
215F3
  8
0
 10
4469.4860211195382362
 20
277.2446409037399917
 30
0.0
 11
4469.4739080309382189
 21
277.2314965510399816
 31
0.0
  0
LINE
  5
215F4
  8
0
 10
4469.4739080309382189
 20
277.243176147040117
 30
0.0
 11
4469.4805856506864075
 21
277.2506577292256793
 31
0.0
  0
LINE
  5
215F5
  8
0
 10
4469.5206188499387281
 20
277.295510788040076
 30
0.0
 11
4469.5269170058791133
 21
277.3025672202817873
 31
0.0
  0
LINE
  5
215F6
  8
0
 10
4469.4339478798383425
 20
277.2084971841401284
 30
0.0
 11
4469.4468393319166353
 21
277.2224866641093968
 31
0.0
  0
LINE
  5
215F7
  8
0
 10
4469.4816446941376853
 20
277.2602165657401088
 30
0.0
 11
4469.4945235506756944
 21
277.2746459922399822
 31
0.0
  0
LINE
  5
215F8
  8
0
 10
4469.4394213522791688
 20
277.2278655408205168
 30
0.0
 11
4469.4230794731383867
 21
277.2101323738401106
 31
0.0
  0
LINE
  5
215F9
  8
0
 10
4469.4349338751371761
 20
277.2427716853400739
 30
0.0
 11
4469.4478127274796861
 21
277.257201107240121
 31
0.0
  0
LINE
  5
215FA
  8
0
 10
4469.4816446897375499
 20
277.2951063267400968
 30
0.0
 11
4469.4945235506456811
 21
277.3095357528400768
 31
0.0
  0
LINE
  5
215FB
  8
0
 10
4469.4845185424492229
 20
277.3120834807210144
 30
0.0
 11
4469.4739080309382189
 21
277.3001955000399903
 31
0.0
  0
LINE
  5
215FC
  8
0
 10
4469.4394872315269822
 20
277.2616305547422826
 30
0.0
 11
4469.4271972075375743
 21
277.2478608590399745
 31
0.0
  0
LINE
  5
215FD
  8
0
 10
4469.4271972075375743
 20
277.2606210273401075
 30
0.0
 11
4469.4338748304189721
 21
277.268102608245897
 31
0.0
  0
LINE
  5
215FE
  8
0
 10
4469.4739080309382189
 20
277.3129556683401233
 30
0.0
 11
4469.4745123525208328
 21
277.3136327481703916
 31
0.0
  0
LINE
  5
215FF
  8
0
 10
4469.445608775538858
 20
277.2932591370400814
 30
0.0
 11
4469.4300383873687679
 21
277.2758143904868007
 31
0.0
  0
LINE
  5
21600
  8
0
 10
4469.4394872315269822
 20
277.2965203154423079
 30
0.0
 11
4469.4271972075375743
 21
277.2827506197401135
 31
0.0
  0
LINE
  5
21601
  8
0
 10
4469.4271972075375743
 20
277.295510788040076
 30
0.0
 11
4469.4338748304626279
 21
277.3029923688944223
 31
0.0
  0
LINE
  5
21602
  8
0
 10
4469.4349338751371761
 20
277.3125512067401246
 30
0.0
 11
4469.4389593892674384
 21
277.3170613789030767
 31
0.0
  0
LINE
  5
21603
  8
0
 10
4469.4474466964384192
 20
277.222311346539982
 30
0.0
 11
4469.4749114007372555
 21
277.222311346539982
 31
0.0
  0
LINE
  5
21604
  8
0
 10
4469.4739080309382189
 20
277.2314965510399816
 30
0.0
 11
4469.4484500662383653
 21
277.2314965510399816
 31
0.0
  0
LINE
  5
21605
  8
0
 10
4469.4941575154380189
 20
277.240387972540077
 30
0.0
 11
4469.5216222197386742
 21
277.240387972540077
 31
0.0
  0
LINE
  5
21606
  8
0
 10
4469.4739080309382189
 20
277.243176147040117
 30
0.0
 11
4469.4484500662383653
 21
277.243176147040117
 31
0.0
  0
LINE
  5
21607
  8
0
 10
4469.5206188499387281
 20
277.2478608590399745
 30
0.0
 11
4469.495160889532599
 21
277.2478608590399745
 31
0.0
  0
LINE
  5
21608
  8
0
 10
4469.4474466964384192
 20
277.257201107240121
 30
0.0
 11
4469.4749114007372555
 21
277.257201107240121
 31
0.0
  0
LINE
  5
21609
  8
0
 10
4469.540868334537663
 20
277.257201107240121
 30
0.0
 11
4469.5683330387382739
 21
277.257201107240121
 31
0.0
  0
LINE
  5
2160A
  8
0
 10
4469.4767493216377261
 20
277.2583693810399836
 30
0.0
 11
4469.4456087756389024
 21
277.2583693810399836
 31
0.0
  0
LINE
  5
2160B
  8
0
 10
4469.5206188499387281
 20
277.2606210273401075
 30
0.0
 11
4469.4951608853389189
 21
277.2606210273401075
 31
0.0
  0
LINE
  5
2160C
  8
0
 10
4469.5673296689383278
 20
277.265305739440123
 30
0.0
 11
4469.5418717043394281
 21
277.265305739440123
 31
0.0
  0
LINE
  5
2160D
  8
0
 10
4469.4941575155380633
 20
277.2746459922399822
 30
0.0
 11
4469.5216222197386742
 21
277.2746459922399822
 31
0.0
  0
LINE
  5
2160E
  8
0
 10
4469.5875791535390817
 20
277.2746459875401115
 30
0.0
 11
4469.5979653819740633
 21
277.2746459875401115
 31
0.0
  0
LINE
  5
2160F
  8
0
 10
4469.5673296689383278
 20
277.2780659077400855
 30
0.0
 11
4469.5418717043394281
 21
277.2780659077400855
 31
0.0
  0
LINE
  5
21610
  8
0
 10
4469.5206188499387281
 20
277.2827506197401135
 30
0.0
 11
4469.4951608853389189
 21
277.2827506197401135
 31
0.0
  0
LINE
  5
21611
  8
0
 10
4469.540868334537663
 20
277.2920908679399759
 30
0.0
 11
4469.5588117243805755
 21
277.2920908679399759
 31
0.0
  0
LINE
  5
21612
  8
0
 10
4469.445608775538858
 20
277.2932591370400814
 30
0.0
 11
4469.4767493216377261
 21
277.2932591370400814
 31
0.0
  0
LINE
  5
21613
  8
0
 10
4469.5206188499387281
 20
277.295510788040076
 30
0.0
 11
4469.4951608853389189
 21
277.295510788040076
 31
0.0
  0
LINE
  5
21614
  8
0
 10
4469.4739080309382189
 20
277.3001955000399903
 30
0.0
 11
4469.4484500662383653
 21
277.3001955000399903
 31
0.0
  0
LINE
  5
21615
  8
0
 10
4469.4941575155380633
 20
277.3095357528400768
 30
0.0
 11
4469.4982253580974429
 21
277.3095357528400768
 31
0.0
  0
LINE
  5
21616
  8
0
 10
4469.4739080309382189
 20
277.3129556683401233
 30
0.0
 11
4469.4484500662383653
 21
277.3129556683401233
 31
0.0
  0
ARC
  5
21617
  8
0
 10
4469.5787808768491232
 20
277.2480680861419273
 30
0.0
 40
0.0016725497837363
 50
224.353988901092805
 51
249.7919567574629127
  0
ARC
  5
21618
  8
0
 10
4469.5788996671817586
 20
277.2484304171060785
 30
0.0
 40
0.0020536566124169
 50
250.1736742356580976
 51
272.6250230536368804
  0
ARC
  5
21619
  8
0
 10
4469.578797412728818
 20
277.2498434624312722
 30
0.0
 40
0.0034701042372624
 50
273.243063075123473
 51
294.7561189532005983
  0
ARC
  5
2161A
  8
0
 10
4469.5772254338444327
 20
277.2529157413317193
 30
0.0
 40
0.0069197488547285
 50
303.0334439221024923
 51
327.1493992257726973
  0
ARC
  5
2161B
  8
0
 10
4469.5772254338444327
 20
277.2529157413317193
 30
0.0
 40
0.0069197488547285
 50
295.923471055224411
 51
297.1410327162383282
  0
ARC
  5
2161C
  8
0
 10
4469.5762061658078892
 20
277.2539201239673048
 30
0.0
 40
0.0083259335637336
 50
325.1473575928476976
 51
340.6020178485438805
  0
ARC
  5
2161D
  8
0
 10
4469.5787655694857676
 20
277.2530710469018231
 30
0.0
 40
0.0056300286158882
 50
340.1016097499152124
 51
358.6410285480531002
  0
ARC
  5
2161E
  8
0
 10
4469.5779289964084455
 20
277.2658377883724938
 30
0.0
 40
0.010612672560591
 50
182.8736345335688895
 51
205.7400591321597005
  0
ARC
  5
2161F
  8
0
 10
4469.579325454166792
 20
277.266134390597017
 30
0.0
 40
0.0120041719199816
 50
204.1203932995998969
 51
220.3052186501809899
  0
ARC
  5
21620
  8
0
 10
4469.570621332913106
 20
277.2645862131291778
 30
0.0
 40
0.0062331242015132
 50
265.8564929765586271
 51
315.4897805797749015
  0
ARC
  5
21621
  8
0
 10
4469.5675114540854338
 20
277.2605234586091001
 30
0.0
 40
0.0034224289564925
 50
283.89001883151019
 51
320.9941136218325823
  0
ARC
  5
21622
  8
0
 10
4469.4280002621881067
 20
277.2150177556646895
 30
0.0
 40
0.0088256449468849
 50
285.4957496153375018
 51
312.3689234200797955
  0
ARC
  5
21623
  8
0
 10
4469.4860446302745913
 20
277.2171373841476907
 30
0.0
 40
0.0041244039998708
 50
224.0872993991279998
 51
276.0028518433792897
  0
ARC
  5
21624
  8
0
 10
4469.485546640404209
 20
277.2205497646581875
 30
0.0
 40
0.0075714171619367
 50
277.0502309719669256
 51
310.6472163044110175
  0
ARC
  5
21625
  8
0
 10
4469.4876769566481016
 20
277.2182166848897964
 30
0.0
 40
0.004414597623016
 50
309.393664605124286
 51
356.4156744037226758
  0
ARC
  5
21626
  8
0
 10
4469.4769802665659881
 20
277.2312994229959031
 30
0.0
 40
0.0067257464543273
 50
268.0322226818237255
 51
313.0855428050281262
  0
ARC
  5
21627
  8
0
 10
4469.4746219076896523
 20
277.2244245262618847
 30
0.0
 40
0.0021329169607854
 50
277.8006236546465857
 51
4.1166537499418032
  0
ARC
  5
21628
  8
0
 10
4469.4858658700795786
 20
277.2323642579718808
 30
0.0
 40
0.0119892798891933
 50
184.1503284264306899
 51
220.5012620218643917
  0
ARC
  5
21629
  8
0
 10
4469.4477250880081556
 20
277.2244155230907268
 30
0.0
 40
0.002122512855538
 50
175.6194247202398913
 51
262.4632948249169999
  0
ARC
  5
2162A
  8
0
 10
4469.4364891157802049
 20
277.2323655355206142
 30
0.0
 40
0.0119924755528677
 50
319.5037512459654181
 51
355.8446597231870214
  0
ARC
  5
2162B
  8
0
 10
4469.4453776747714073
 20
277.2312990072226739
 30
0.0
 40
0.0067253362830128
 50
226.9130078498139085
 51
271.9692266632737869
  0
ARC
  5
2162C
  8
0
 10
4469.4302638401441072
 20
277.2477377184191027
 30
0.0
 40
0.0068169429652241
 50
268.1056768826539951
 51
313.2405572798377875
  0
ARC
  5
2162D
  8
0
 10
4469.4394618882106442
 20
277.2488346445296088
 30
0.0
 40
0.0123032780261423
 50
184.5396207893874987
 51
220.0106328707277896
  0
ARC
  5
2162E
  8
0
 10
4469.427571856652321
 20
277.2427734541824975
 30
0.0
 40
0.0030826853242061
 50
281.8283954172642893
 51
323.1453869606613125
  0
ARC
  5
2162F
  8
0
 10
4469.4480598046011437
 20
277.2601954845105752
 30
0.0
 40
0.0030565007535337
 50
216.6874169209901879
 51
258.4284477960852087
  0
ARC
  5
21630
  8
0
 10
4469.4453207214810391
 20
277.2650163761106228
 30
0.0
 40
0.0066532336998668
 50
226.1722150624001983
 51
272.4814171241242775
  0
ARC
  5
21631
  8
0
 10
4469.4275758252897504
 20
277.2776582455452967
 30
0.0
 40
0.0030763636773235
 50
281.7172063052721001
 51
323.1757920434732796
  0
ARC
  5
21632
  8
0
 10
4469.4393329270260438
 20
277.2836715771750278
 30
0.0
 40
0.0121706142029238
 50
184.3397532007809048
 51
220.209678654903712
  0
ARC
  5
21633
  8
0
 10
4469.4361600691463536
 20
277.3011796501177741
 30
0.0
 40
0.0123293381776117
 50
320.0280981258114252
 51
355.4216766083554262
  0
ARC
  5
21634
  8
0
 10
4469.4453169957487262
 20
277.299896246102719
 30
0.0
 40
0.0066435195607907
 50
226.1363257404150033
 51
272.5172093668202251
  0
ARC
  5
21635
  8
0
 10
4469.4303345347034337
 20
277.3173298774028126
 30
0.0
 40
0.0066324675454923
 50
267.4417676860804818
 51
313.9044997968983921
  0
ARC
  5
21636
  8
0
 10
4469.427575252857423
 20
277.3125493433710176
 30
0.0
 40
0.0030777892037398
 50
281.7225855293481231
 51
323.1615126147672754
  0
ARC
  5
21637
  8
0
 10
4469.4824976602612878
 20
277.3187177987031191
 30
0.0
 40
0.0127089771216125
 50
320.7657329889105995
 51
320.7990463587825047
  0
ARC
  5
21638
  8
0
 10
4469.4948902154446841
 20
277.3127125317164996
 30
0.0
 40
0.0032601799309002
 50
218.5799470843485039
 51
257.0122828151140197
  0
ARC
  5
21639
  8
0
 10
4469.4922287261206293
 20
277.3177781750562758
 30
0.0
 40
0.0070996096558559
 50
248.9050952072512928
 51
270.9110194410288841
  0
ARC
  5
2163A
  8
0
 10
4469.4770069964006325
 20
277.2999866303595127
 30
0.0
 40
0.0067324262276387
 50
267.8065437775737223
 51
313.5398675837034261
  0
ARC
  5
2163B
  8
0
 10
4469.4861300870370542
 20
277.3011518199552938
 30
0.0
 40
0.0122594128361969
 50
184.4740167105387059
 51
220.0762085552995018
  0
ARC
  5
2163C
  8
0
 10
4469.4948762322028415
 20
277.2778065282037119
 30
0.0
 40
0.0032412252654751
 50
218.1139855391020035
 51
257.1886141700755957
  0
ARC
  5
2163D
  8
0
 10
4469.4828824436963259
 20
277.2837117417923878
 30
0.0
 40
0.0123160011680175
 50
320.0654626179909883
 51
355.5241734320571823
  0
ARC
  5
2163E
  8
0
 10
4469.4770203613852573
 20
277.2650614790704253
 30
0.0
 40
0.0066975845341001
 50
267.6807048384566201
 51
313.6655694913175125
  0
ARC
  5
2163F
  8
0
 10
4469.4742649728159449
 20
277.2602479031544931
 30
0.0
 40
0.0031146162528441
 50
281.9786136323996857
 51
322.9055188267248013
  0
ARC
  5
21640
  8
0
 10
4469.4945758572239356
 20
277.2431949298085101
 30
0.0
 40
0.00283796035144
 50
217.3418076928612948
 51
261.5231778403157819
  0
ARC
  5
21641
  8
0
 10
4469.4920421342758345
 20
277.2480319239227811
 30
0.0
 40
0.0065642783074778
 50
221.260164015220397
 51
272.4224762898605263
  0
ARC
  5
21642
  8
0
 10
4469.4826614425328444
 20
277.2495953937083755
 30
0.0
 40
0.0126192228684667
 50
319.938321304998226
 51
352.0995814482254787
  0
ARC
  5
21643
  8
0
 10
4469.5350473022608639
 20
277.2327960496239143
 30
0.0
 40
0.0062283866702671
 50
265.6366765856762981
 51
354.2939854699035891
  0
ARC
  5
21644
  8
0
 10
4469.5237346852518385
 20
277.2480349072035892
 30
0.0
 40
0.0065671365521788
 50
267.6040048195335999
 51
318.1483957979243087
  0
ARC
  5
21645
  8
0
 10
4469.521202595217801
 20
277.2431970934375727
 30
0.0
 40
0.0028402895899898
 50
278.4959816678031075
 51
322.6391400206633193
  0
ARC
  5
21646
  8
0
 10
4469.5331176050704016
 20
277.2495950735113865
 30
0.0
 40
0.0126184935580647
 50
187.8994102644421957
 51
220.062563837885989
  0
ARC
  5
21647
  8
0
 10
4469.5415885012598665
 20
277.2603639176875845
 30
0.0
 40
0.0032437647933435
 50
217.9434310030852942
 51
257.1725474133809257
  0
ARC
  5
21648
  8
0
 10
4469.5387424280261257
 20
277.2650165714852051
 30
0.0
 40
0.0066534254338642
 50
226.1729817510266969
 51
272.4807168196314819
  0
ARC
  5
21649
  8
0
 10
4469.5296924139483963
 20
277.2662445477949973
 30
0.0
 40
0.0122154195804521
 50
319.8575176952593893
 51
355.5922226192412836
  0
ARC
  5
2164A
  8
0
 10
4469.5327886114100693
 20
277.2836855130623235
 30
0.0
 40
0.0122056183704331
 50
184.3928914927471965
 51
220.1572594773415972
  0
ARC
  5
2164B
  8
0
 10
4469.5237517333307551
 20
277.2824518827121096
 30
0.0
 40
0.0066440253571331
 50
267.4845423396417914
 51
313.8617211792376906
  0
ARC
  5
2164C
  8
0
 10
4469.5209969746538263
 20
277.277659468386787
 30
0.0
 40
0.0030776565601113
 50
281.7215873715230146
 51
323.162269629345019
  0
ARC
  5
2164D
  8
0
 10
4469.5414816103912017
 20
277.2950855253415057
 30
0.0
 40
0.0030568088301244
 50
216.6897653489594973
 51
258.4264217766682918
  0
ARC
  5
2164E
  8
0
 10
4469.5387310612795773
 20
277.2998761914446959
 30
0.0
 40
0.0066238217234963
 50
226.0633727924277139
 51
272.5902294719762153
  0
ARC
  5
2164F
  8
0
 10
4469.5296256997771707
 20
277.3011616360922176
 30
0.0
 40
0.0122840566001848
 50
319.9606592735634081
 51
345.7397415618153786
  0
ARC
  5
21650
  8
0
 10
4469.5881923113756784
 20
277.2776404591227788
 30
0.0
 40
0.0030566031134407
 50
216.6882925073500132
 51
258.4278901771638743
  0
ARC
  5
21651
  8
0
 10
4469.585453259550377
 20
277.2824614562094894
 30
0.0
 40
0.0066534339077033
 50
226.1729023005034946
 51
272.4806057067979168
  0
ARC
  5
21652
  8
0
 10
4469.5763361713579798
 20
277.2837168974629094
 30
0.0
 40
0.0122844137255399
 50
319.9611958170734738
 51
341.2678636594948784
  0
LINE
  5
21653
  8
0
 10
4469.5843940145377928
 20
277.2659789729399904
 30
0.0
 11
4469.5978527572251551
 21
277.2746459875401115
 31
0.0
  0
LINE
  5
21654
  8
0
 10
4469.5843940155737073
 20
277.2659789736064226
 30
0.0
 11
4469.5823750416238909
 21
277.2681698338560068
 31
0.0
  0
ARC
  5
21655
  8
0
 10
4469.5351738320659933
 20
277.2289832327182921
 30
0.0
 40
0.0024715501069771
 50
223.1559935477625913
 51
255.941023031575611
  0
ARC
  5
21656
  8
0
 10
4469.4421633729471068
 20
277.507717990824176
 30
0.0
 40
0.2805766390972351
 50
290.6791912399901889
 51
296.6983444941841981
  0
ARC
  5
21657
  8
0
 10
4469.4219582547575556
 20
277.5668336418580111
 30
0.0
 40
0.3430942969010059
 50
281.7937278475583867
 51
287.0755312102372159
  0
LINE
  5
21658
  8
0
 10
4469.4920829187385607
 20
277.2309821448124012
 30
0.0
 11
4469.4889458744382864
 21
277.2343862655400812
 31
0.0
  0
ARC
  5
21659
  8
0
 10
4469.4293437167971206
 20
277.2165970012309231
 30
0.0
 40
0.0102731148017926
 50
248.581704430055396
 51
262.0797663555139252
  0
ARC
  5
2165A
  8
0
 10
4469.4270132643978286
 20
277.2108943171917872
 30
0.0
 40
0.0041141623402254
 50
205.4798392266997098
 51
249.7939175271878014
  0
ARC
  5
2165B
  8
0
 10
4469.425639014247281
 20
277.210162558173181
 30
0.0
 40
0.0025597190827047
 50
180.6756503060456964
 51
203.9263982272555893
  0
LINE
  5
2165C
  8
0
 10
4469.4230794731383867
 20
277.2101323738401106
 30
0.0
 11
4469.4230794731383867
 21
277.2231738233401188
 31
0.0
  0
LINE
  5
2165D
  8
0
 10
4469.4230794731383867
 20
277.2231738233401188
 30
0.0
 11
4469.4334122228792694
 21
277.2343862655841917
 31
0.0
  0
ENDSEC
  0
EOF
