  0
SECTION
  2
HEADER
  9
$ACADVER
  1
AC1009
  9
$INSBASE
 10
4463.7317004169672146
 20
274.6570566228572829
 30
0.0
  9
$EXTMIN
 10
4462.6593733054623954
 20
270.3600224621590087
 30
0.0
  9
$EXTMAX
 10
4464.8040276806514157
 20
275.7304446051012974
 30
0.0
  9
$LIMMIN
 10
0.0
 20
0.0
  9
$LIMMAX
 10
11.6929133858000007
 20
8.2677165353999982
  9
$ORTHOMODE
 70
     0
  9
$REGENMODE
 70
     1
  9
$FILLMODE
 70
     1
  9
$QTEXTMODE
 70
     0
  9
$MIRRTEXT
 70
     0
  9
$DRAGMODE
 70
     2
  9
$LTSCALE
 40
0.6431102362
  9
$OSMODE
 70
   695
  9
$ATTMODE
 70
     1
  9
$TEXTSIZE
 40
0.2
  9
$TRACEWID
 40
0.05
  9
$TEXTSTYLE
  7
STANDARD
  9
$CLAYER
  8
0
  9
$CELTYPE
  6
BYLAYER
  9
$CECOLOR
 62
   256
  9
$DIMSCALE
 40
1.0
  9
$DIMASZ
 40
0.1875
  9
$DIMEXO
 40
0.0625
  9
$DIMDLI
 40
0.4443307087
  9
$DIMRND
 40
0.0
  9
$DIMDLE
 40
0.0
  9
$DIMEXE
 40
0.125
  9
$DIMTP
 40
0.01
  9
$DIMTM
 40
0.01
  9
$DIMTXT
 40
2.0
  9
$DIMCEN
 40
0.1052362205
  9
$DIMTSZ
 40
0.0
  9
$DIMTOL
 70
     1
  9
$DIMLIM
 70
     0
  9
$DIMTIH
 70
     1
  9
$DIMTOH
 70
     1
  9
$DIMSE1
 70
     0
  9
$DIMSE2
 70
     0
  9
$DIMTAD
 70
     0
  9
$DIMZIN
 70
     0
  9
$DIMBLK
  1

  9
$DIMASO
 70
     1
  9
$DIMSHO
 70
     1
  9
$DIMPOST
  1
\X
  9
$DIMAPOST
  1

  9
$DIMALT
 70
     1
  9
$DIMALTD
 70
     2
  9
$DIMALTF
 40
25.3999999999999986
  9
$DIMLFAC
 40
1.0
  9
$DIMTOFL
 70
     0
  9
$DIMTVP
 40
0.0
  9
$DIMTIX
 70
     0
  9
$DIMSOXD
 70
     0
  9
$DIMSAH
 70
     0
  9
$DIMBLK1
  1

  9
$DIMBLK2
  1

  9
$DIMSTYLE
  2
STANDARD
  9
$DIMCLRD
 70
     0
  9
$DIMCLRE
 70
     0
  9
$DIMCLRT
 70
     0
  9
$DIMTFAC
 40
1.0
  9
$DIMGAP
 40
0.09
  9
$LUNITS
 70
     2
  9
$LUPREC
 70
     4
  9
$SKETCHINC
 40
0.1
  9
$FILLETRAD
 40
0.0
  9
$AUNITS
 70
     0
  9
$AUPREC
 70
     0
  9
$MENU
  1
.
  9
$ELEVATION
 40
0.0
  9
$PELEVATION
 40
0.0
  9
$THICKNESS
 40
0.0
  9
$LIMCHECK
 70
     0
  9
$BLIPMODE
 70
     0
  9
$CHAMFERA
 40
0.0
  9
$CHAMFERB
 40
0.0
  9
$SKPOLY
 70
     0
  9
$TDCREATE
 40
2458060.468368056230247
  9
$TDUPDATE
 40
2459359.9904629630036652
  9
$TDINDWG
 40
0.5266505787
  9
$TDUSRTIMER
 40
0.5266505787
  9
$USRTIMER
 70
     1
  9
$ANGBASE
 50
0.0
  9
$ANGDIR
 70
     0
  9
$PDMODE
 70
     0
  9
$PDSIZE
 40
0.3125
  9
$PLINEWID
 40
0.0
  9
$COORDS
 70
     1
  9
$SPLFRAME
 70
     0
  9
$SPLINETYPE
 70
     6
  9
$SPLINESEGS
 70
     8
  9
$ATTDIA
 70
     1
  9
$ATTREQ
 70
     1
  9
$HANDLING
 70
     1
  9
$HANDSEED
  5
21958
  9
$SURFTAB1
 70
     6
  9
$SURFTAB2
 70
     6
  9
$SURFTYPE
 70
     6
  9
$SURFU
 70
     6
  9
$SURFV
 70
     6
  9
$UCSNAME
  2

  9
$UCSORG
 10
0.0
 20
0.0
 30
0.0
  9
$UCSXDIR
 10
1.0
 20
0.0
 30
0.0
  9
$UCSYDIR
 10
0.0
 20
1.0
 30
0.0
  9
$PUCSNAME
  2

  9
$PUCSORG
 10
0.0
 20
0.0
 30
0.0
  9
$PUCSXDIR
 10
1.0
 20
0.0
 30
0.0
  9
$PUCSYDIR
 10
0.0
 20
1.0
 30
0.0
  9
$USERI1
 70
     0
  9
$USERI2
 70
     0
  9
$USERI3
 70
     0
  9
$USERI4
 70
     0
  9
$USERI5
 70
     0
  9
$USERR1
 40
0.0
  9
$USERR2
 40
0.0
  9
$USERR3
 40
0.0
  9
$USERR4
 40
0.0
  9
$USERR5
 40
0.0
  9
$WORLDVIEW
 70
     1
  9
$SHADEDGE
 70
     3
  9
$SHADEDIF
 70
    70
  9
$TILEMODE
 70
     1
  9
$MAXACTVP
 70
    64
  9
$PLIMCHECK
 70
     0
  9
$PEXTMIN
 10
1.0000000000000000E+20
 20
1.0000000000000000E+20
 30
1.0000000000000000E+20
  9
$PEXTMAX
 10
-1.0000000000000000E+20
 20
-1.0000000000000000E+20
 30
-1.0000000000000000E+20
  9
$PLIMMIN
 10
0.0
 20
0.0
  9
$PLIMMAX
 10
12.0
 20
9.0
  9
$UNITMODE
 70
     0
  9
$VISRETAIN
 70
     1
  9
$PLINEGEN
 70
     0
  9
$PSLTSCALE
 70
     1
  0
ENDSEC
  0
SECTION
  2
TABLES
  0
TABLE
  2
VPORT
 70
     1
  0
VPORT
  2
*ACTIVE
 70
     0
 10
0.0
 20
0.0
 11
1.0
 21
1.0
 12
552.3663440503634092
 22
140.4656284242365984
 13
0.0
 23
0.0
 14
1.0
 24
1.0
 15
0.0
 25
0.0
 16
0.0
 26
0.0
 36
60.4960186965801583
 17
3911.3653564453120453
 27
132.5796051025390057
 37
0.0
 40
8.1277732127734055
 41
2.3198804185351261
 42
50.0
 43
0.0
 44
0.0
 50
0.0
 51
0.0
 71
     0
 72
   100
 73
     1
 74
     1
 75
     0
 76
     0
 77
     0
 78
     0
  0
ENDTAB
  0
TABLE
  2
LTYPE
 70
     2
  0
LTYPE
  2
CONTINUOUS
 70
     0
  3
Solid line
 72
    65
 73
     0
 40
0.0
  0
LTYPE
  2
PHANTOM2
 70
     0
  3
___ _ _ ___ _ _ ___ _ _ ___ _ _
 72
    65
 73
     6
 40
1.25
 49
0.625
 49
-0.125
 49
0.125
 49
-0.125
 49
0.125
 49
-0.125
  0
ENDTAB
  0
TABLE
  2
LAYER
 70
     2
  0
LAYER
  2
0
 70
     0
 62
   255
  6
CONTINUOUS
  0
LAYER
  2
DEFPOINTS
 70
     0
 62
     7
  6
CONTINUOUS
  0
ENDTAB
  0
TABLE
  2
STYLE
 70
     1
  0
STYLE
  2
STANDARD
 70
     0
 40
0.0
 41
0.8
 50
0.0
 71
     0
 42
0.2
  3
txt
  4

  0
ENDTAB
  0
TABLE
  2
VIEW
 70
     0
  0
ENDTAB
  0
TABLE
  2
UCS
 70
     0
  0
ENDTAB
  0
TABLE
  2
APPID
 70
    11
  0
APPID
  2
ACAD
 70
     0
  0
APPID
  2
ACAD_MLEADERVER
 70
     0
  0
APPID
  2
ACAD_EXEMPT_FROM_CAD_STANDARDS
 70
     0
  0
APPID
  2
ACAD_NAV_VCDISPLAY
 70
     0
  0
APPID
  2
ACAECLAYERSTANDARD
 70
     0
  0
APPID
  2
ACCMTRANSPARENCY
 70
     0
  0
APPID
  2
ACAD_DSTYLE_DIMJAG
 70
     0
  0
APPID
  2
ACAD_DSTYLE_DIMTALN
 70
     0
  0
APPID
  2
ACDBATTR
 70
     0
  0
APPID
  2
ACADANNOTATIVE
 70
     0
  0
APPID
  2
DCO15
 70
     0
  0
ENDTAB
  0
TABLE
  2
DIMSTYLE
 70
     1
  0
DIMSTYLE
  2
STANDARD
 70
     0
  3

  4

  5

  6

  7

 40
1.0
 41
0.1875
 42
0.0625
 43
0.38
 44
0.125
 45
0.0
 46
0.0
 47
0.01
 48
0.01
140
0.15625
141
0.09
142
0.0
143
25.3999999999999986
144
1.0
145
0.0
146
1.0
147
0.09
 71
     1
 72
     0
 73
     1
 74
     1
 75
     0
 76
     0
 77
     0
 78
     4
170
     0
171
     2
172
     0
173
     0
174
     0
175
     0
176
     0
177
     0
178
     0
  0
ENDTAB
  0
ENDSEC
  0
SECTION
  2
BLOCKS
  0
BLOCK
  8
0
  2
$MODEL_SPACE
 70
     0
 10
0.0
 20
0.0
 30
0.0
  3
$MODEL_SPACE
  1

  0
ENDBLK
  5
21
  8
0
  0
BLOCK
 67
     1
  8
0
  2
$PAPER_SPACE
 70
     0
 10
0.0
 20
0.0
 30
0.0
  3
$PAPER_SPACE
  1

  0
ENDBLK
  5
1D
 67
     1
  8
0
  0
ENDSEC
  0
SECTION
  2
ENTITIES
  0
ATTDEF
  5
20106
  8
DEFPOINTS
 10
4463.7317546297181252
 20
274.6559960141790953
 30
0.0
 40
0.001
  1
K-19774T
  3

  2
MODELNUMBER
 70
     0
1001
ACDBATTR
1070
     0
1070
     1
  0
ATTDEF
  5
20107
  8
DEFPOINTS
 10
4463.7316288200609051
 20
274.6543291737999084
 30
0.0
 40
0.001
  1
SYMBOL
  3

  2
TRADENAME
 70
     0
1001
ACDBATTR
1070
     0
1070
     1
  0
ATTDEF
  5
20108
  8
DEFPOINTS
 10
4463.7317546297181252
 20
274.6526626808458218
 30
0.0
 40
0.001
  1
BATHROOM SINK FAUCET
  3

  2
PRODUCT
 70
     0
1001
ACDBATTR
1070
     0
1070
     1
  0
LINE
  5
21781
  8
0
 10
4463.276284963989383
 20
270.3853502810828786
 30
0.0
 11
4463.3983888975890295
 21
270.3746114573589807
 31
0.0
  0
LINE
  5
21782
  8
0
 10
4463.1106829042892059
 20
273.1343241204829724
 30
0.0
 11
4463.1407631996353302
 21
272.9936535769462012
 31
0.0
  0
LINE
  5
21783
  8
0
 10
4463.1806287601903023
 20
271.7265715424828727
 30
0.0
 11
4463.1926974545904159
 21
271.3185652997830175
 31
0.0
  0
ARC
  5
21784
  8
0
 10
4463.9653034311322699
 20
274.8891241438581119
 30
0.0
 40
1.221092041406002
 50
217.1079085278774983
 51
222.7836875225239055
  0
ARC
  5
21785
  8
0
 10
4463.8424994652887108
 20
274.7683457281830215
 30
0.0
 40
1.0489397786000001
 50
212.1220133844257134
 51
222.4980288700834024
  0
ARC
  5
21786
  8
0
 10
4463.736390275354097
 20
274.4995847565564873
 30
0.0
 40
0.7429937020232305
 50
90.3616538282977757
 51
119.8196064322065979
  0
ARC
  5
21787
  8
0
 10
4463.7119506386952708
 20
274.5240432333665126
 30
0.0
 40
0.7096781164247675
 50
119.0896443143498971
 51
142.1150473676028128
  0
ARC
  5
21788
  8
0
 10
4463.6535024379718379
 20
274.5621282343211078
 30
0.0
 40
0.6401875616533933
 50
141.5929654142967991
 51
167.9009597706831869
  0
ARC
  5
21789
  8
0
 10
4463.6997983602959721
 20
274.5756996212354011
 30
0.0
 40
0.682996994909317
 50
169.8285545618510923
 51
187.3673852859110127
  0
ARC
  5
2178A
  8
0
 10
4465.4312985421083795
 20
274.8105379219642828
 30
0.0
 40
2.430340326146712
 50
187.6235875268365021
 51
190.9555662533711029
  0
ARC
  5
2178B
  8
0
 10
4459.8070579396789981
 20
273.7046526800542097
 30
0.0
 40
3.301611669675979
 50
8.6900860934226891
 51
11.2480932917826095
  0
ARC
  5
2178C
  8
0
 10
4460.9027868424182088
 20
273.8514076576893217
 30
0.0
 40
2.1963840226118552
 50
359.4437184083391799
 51
9.2244270488773648
  0
ARC
  5
2178D
  8
0
 10
4463.729263424794226
 20
274.5366972341843734
 30
0.0
 40
0.9382267529302142
 50
89.8511707228091581
 51
109.3099221728006967
  0
ARC
  5
2178E
  8
0
 10
4463.699844464036687
 20
274.6144726557362787
 30
0.0
 40
0.8551009368445374
 50
109.1728738996199013
 51
139.6834513115665004
  0
ARC
  5
2178F
  8
0
 10
4463.7222232861513476
 20
274.6039013222371068
 30
0.0
 40
0.8790275696517399
 50
140.1018429596018962
 51
167.0666141052010119
  0
ARC
  5
21790
  8
0
 10
4463.5891135039610162
 20
274.6110327353262051
 30
0.0
 40
0.7480473416891569
 50
165.3167961426609907
 51
185.9953758178743044
  0
ARC
  5
21791
  8
0
 10
4463.6163783268066254
 20
274.6130045088484053
 30
0.0
 40
0.775369490187781
 50
185.9298478800035923
 51
206.2982871281097061
  0
ARC
  5
21792
  8
0
 10
4463.6435686726426866
 20
274.6341295248026881
 30
0.0
 40
0.8091342992401332
 50
206.7863267113291954
 51
216.4510940604064047
  0
ARC
  5
21793
  8
0
 10
4463.7325741002186987
 20
274.6305495989183214
 30
0.0
 40
0.9425257608527717
 50
90.0531036460706957
 51
108.4489253067143011
  0
ARC
  5
21794
  8
0
 10
4463.7189511343267441
 20
274.6708319086919232
 30
0.0
 40
0.9000026193471015
 50
108.4377766962436027
 51
130.3616026211068117
  0
ARC
  5
21795
  8
0
 10
4463.6697052157105645
 20
274.7176818600509023
 30
0.0
 40
0.832443121603254
 50
129.8671627031260982
 51
153.4110262245364993
  0
ARC
  5
21796
  8
0
 10
4463.744828658289407
 20
274.6697452499029168
 30
0.0
 40
0.9211237131444551
 50
152.8361094257666082
 51
169.8843651711814005
  0
ARC
  5
21797
  8
0
 10
4463.8101128918324321
 20
274.6572877672131767
 30
0.0
 40
0.9875814188454149
 50
169.8380905734715896
 51
184.5532032264167128
  0
ARC
  5
21798
  8
0
 10
4463.6409037739767882
 20
274.6425934879237047
 30
0.0
 40
0.8177407177071376
 50
184.4680536003361055
 51
198.2235405018357142
  0
ARC
  5
21799
  8
0
 10
4463.6014089124619204
 20
274.6353902791587984
 30
0.0
 40
0.7779936553590892
 50
198.6292658533164115
 51
218.3740682500975083
  0
ARC
  5
2179A
  8
0
 10
4463.7370457504257502
 20
274.6082146867664733
 30
0.0
 40
1.1222426478732379
 50
90.272898397396574
 51
117.2141996481737038
  0
ARC
  5
2179B
  8
0
 10
4463.7282842966542376
 20
274.6589112651990945
 30
0.0
 40
1.0732616411922009
 50
118.0359729057396976
 51
160.7824487280932999
  0
ARC
  5
2179C
  8
0
 10
4463.7130112808163176
 20
274.6537999978922926
 30
0.0
 40
1.0605678848226361
 50
160.2501107205322057
 51
199.8394762264478004
  0
ARC
  5
2179D
  8
0
 10
4475.3703493827370039
 20
278.9664540794370851
 30
0.0
 40
13.4900379130217303
 50
200.2656819344674091
 51
202.6100114774287135
  0
ARC
  5
2179E
  8
0
 10
4458.2887423486226908
 20
272.0596082726418103
 30
0.0
 40
4.937812124578266
 50
15.8381373041921503
 51
20.3916806651309095
  0
ARC
  5
2179F
  8
0
 10
4458.1509020132225487
 20
271.9792337238195046
 30
0.0
 40
5.0925102171569208
 50
13.1100073370406598
 51
16.2848486230230591
  0
ARC
  5
217A0
  8
0
 10
4459.312887598427551
 20
273.4530159405746872
 30
0.0
 40
3.804909587279631
 50
5.687361062126584
 51
9.1751280305507574
  0
ARC
  5
217A1
  8
0
 10
4454.6618919962465952
 20
272.9902378012607755
 30
0.0
 40
8.4788718914227026
 50
0.0230820253378362
 51
5.6845586033096058
  0
ARC
  5
217A2
  8
0
 10
4526.3138105570251355
 20
274.3470670306492138
 30
0.0
 40
63.1875433957971993
 50
181.2273116684405068
 51
182.3768356171603102
  0
ARC
  5
217A3
  8
0
 10
4426.931831022337974
 20
270.3201266165589232
 30
0.0
 40
36.2746097735277218
 50
0.2082806086958485
 51
1.5772340124252411
  0
ARC
  5
217A4
  8
0
 10
4463.2633857744585839
 20
270.4457588469712732
 30
0.0
 40
0.0575232676015507
 50
173.7801358752633973
 51
252.0317101345050048
  0
ARC
  5
217A5
  8
0
 10
4463.2855713534054303
 20
270.520710439196705
 30
0.0
 40
0.1356783307421525
 50
252.8840649207238869
 51
266.0753701843653971
  0
ARC
  5
217A6
  8
0
 10
4463.7261182073207237
 20
274.0473299770836775
 30
0.0
 40
3.687311734256681
 50
264.9008061374701128
 51
270.0866771434149882
  0
ARC
  5
217A7
  8
0
 10
4463.7270105180332394
 20
274.4995847577729933
 30
0.0
 40
0.7429937020232305
 50
88.840812534995294
 51
89.6383313093142817
  0
LINE
  5
217A8
  8
0
 10
4464.1871160221244281
 20
270.3853502810828786
 30
0.0
 11
4464.0650120885238721
 21
270.3746114573589807
 31
0.0
  0
LINE
  5
217A9
  8
0
 10
4464.3527180818236957
 20
273.1343241204829724
 30
0.0
 11
4464.3226377864793903
 21
272.9936535769462012
 31
0.0
  0
LINE
  5
217AA
  8
0
 10
4464.2827722259244183
 20
271.7265715424828727
 30
0.0
 11
4464.2707035315243047
 21
271.3185652997830175
 31
0.0
  0
ARC
  5
217AB
  8
0
 10
4463.4980975549806317
 20
274.8891241438581119
 30
0.0
 40
1.221092041406002
 50
317.2163124774760945
 51
322.892091472122388
  0
ARC
  5
217AC
  8
0
 10
4463.6209015208241908
 20
274.7683457281830215
 30
0.0
 40
1.0489397786000001
 50
317.5019711299166261
 51
327.8779866155742866
  0
ARC
  5
217AD
  8
0
 10
4463.7270107107588046
 20
274.4995847565564873
 30
0.0
 40
0.7429937020232305
 50
60.1803935677934092
 51
89.6383461717021959
  0
ARC
  5
217AE
  8
0
 10
4463.7514503474194498
 20
274.5240432333665126
 30
0.0
 40
0.7096781164247675
 50
37.8849526323971375
 51
60.9103556856500816
  0
ARC
  5
217AF
  8
0
 10
4463.8098985481410637
 20
274.5621282343211078
 30
0.0
 40
0.6401875616533933
 50
12.09904022931679
 51
38.4070345857031725
  0
ARC
  5
217B0
  8
0
 10
4463.7636026258169295
 20
274.5756996212354011
 30
0.0
 40
0.682996994909317
 50
352.6326147140890157
 51
10.1714454381488402
  0
ARC
  5
217B1
  8
0
 10
4462.0321024440063411
 20
274.8105379219642828
 30
0.0
 40
2.430340326146712
 50
349.0444337466287834
 51
352.3764124731633842
  0
ARC
  5
217B2
  8
0
 10
4467.6563430464339035
 20
273.7046526800542097
 30
0.0
 40
3.301611669675979
 50
168.7519067082174047
 51
171.3099139065772931
  0
ARC
  5
217B3
  8
0
 10
4466.5606141436937833
 20
273.8514076576893217
 30
0.0
 40
2.1963840226118552
 50
170.7755729511225979
 51
180.5562815916607917
  0
ARC
  5
217B4
  8
0
 10
4463.7341375613186756
 20
274.5366972341843734
 30
0.0
 40
0.9382267529302142
 50
70.6900778271992607
 51
90.1488292771908561
  0
ARC
  5
217B5
  8
0
 10
4463.7635565220771241
 20
274.6144726557362787
 30
0.0
 40
0.8551009368445374
 50
40.3165486884334499
 51
70.8271261003800987
  0
ARC
  5
217B6
  8
0
 10
4463.741177699961554
 20
274.6039013222371068
 30
0.0
 40
0.8790275696517399
 50
12.9333858947990006
 51
39.8981570403980115
  0
ARC
  5
217B7
  8
0
 10
4463.8742874821527948
 20
274.6110327353262051
 30
0.0
 40
0.7480473416891569
 50
354.004624182125724
 51
14.6832038573389507
  0
ARC
  5
217B8
  8
0
 10
4463.8470226593071857
 20
274.6130045088484053
 30
0.0
 40
0.775369490187781
 50
333.7017128718903223
 51
354.070152119996294
  0
ARC
  5
217B9
  8
0
 10
4463.8198323134711245
 20
274.6341295248026881
 30
0.0
 40
0.8091342992401332
 50
323.5489059395936238
 51
333.2136732886708046
  0
ARC
  5
217BA
  8
0
 10
4463.7308268858951124
 20
274.6305495989183214
 30
0.0
 40
0.9425257608527717
 50
71.5510746932857415
 51
89.9468963539293185
  0
ARC
  5
217BB
  8
0
 10
4463.744449851787067
 20
274.6708319086919232
 30
0.0
 40
0.9000026193471015
 50
49.6383973788931883
 51
71.5622233037564257
  0
ARC
  5
217BC
  8
0
 10
4463.7936957704023371
 20
274.7176818600509023
 30
0.0
 40
0.832443121603254
 50
26.5889737754635398
 51
50.1328372968738591
  0
ARC
  5
217BD
  8
0
 10
4463.7185723278244041
 20
274.6697452499029168
 30
0.0
 40
0.9211237131444551
 50
10.1156348288185693
 51
27.1638905742334096
  0
ARC
  5
217BE
  8
0
 10
4463.653288094281379
 20
274.6572877672131767
 30
0.0
 40
0.9875814188454149
 50
355.4467967735831735
 51
10.1619094265283891
  0
ARC
  5
217BF
  8
0
 10
4463.8224972121370229
 20
274.6425934879237047
 30
0.0
 40
0.8177407177071376
 50
341.7764594981641721
 51
355.5319463996639229
  0
ARC
  5
217C0
  8
0
 10
4463.8619920736518907
 20
274.6353902791587984
 30
0.0
 40
0.7779936553590892
 50
321.6259317499025201
 51
341.3707341466836169
  0
ARC
  5
217C1
  8
0
 10
4463.7263552356880609
 20
274.6082146867664733
 30
0.0
 40
1.1222426478732379
 50
62.7858003518263104
 51
89.727101602603426
  0
ARC
  5
217C2
  8
0
 10
4463.735116689458664
 20
274.6589112651990945
 30
0.0
 40
1.0732616411922009
 50
19.2175512719066504
 51
61.9640270942602527
  0
ARC
  5
217C3
  8
0
 10
4463.750389705296584
 20
274.6537999978922926
 30
0.0
 40
1.0605678848226361
 50
340.1605237735523133
 51
19.7498892794678085
  0
ARC
  5
217C4
  8
0
 10
4452.0930516033768072
 20
278.9664540794370851
 30
0.0
 40
13.4900379130217303
 50
337.3899885225712865
 51
339.7343180655325909
  0
ARC
  5
217C5
  8
0
 10
4469.1746586374902108
 20
272.0596082726418103
 30
0.0
 40
4.937812124578266
 50
159.6083193348690941
 51
164.1618626958077982
  0
ARC
  5
217C6
  8
0
 10
4469.3124989728903529
 20
271.9792337238195046
 30
0.0
 40
5.0925102171569208
 50
163.7151513769769053
 51
166.8899926629592869
  0
ARC
  5
217C7
  8
0
 10
4468.1505133876862601
 20
273.4530159405746872
 30
0.0
 40
3.804909587279631
 50
170.8248719694491911
 51
174.3126389378734018
  0
ARC
  5
217C8
  8
0
 10
4472.8015089898672159
 20
272.9902378012607755
 30
0.0
 40
8.4788718914227026
 50
174.3154413966904031
 51
179.9769179746620864
  0
ARC
  5
217C9
  8
0
 10
4401.1495904290877661
 20
274.3470670306492138
 30
0.0
 40
63.1875433957971993
 50
357.6231643828397182
 51
358.7726883315593795
  0
ARC
  5
217CA
  8
0
 10
4500.5315699637758371
 20
270.3201266165589232
 30
0.0
 40
36.2746097735277218
 50
178.4227659875747065
 51
179.791719391304099
  0
ARC
  5
217CB
  8
0
 10
4464.2000152116543177
 20
270.4457588469712732
 30
0.0
 40
0.0575232676015507
 50
287.9682898654950236
 51
6.219864124736624
  0
ARC
  5
217CC
  8
0
 10
4464.1778296327083808
 20
270.520710439196705
 30
0.0
 40
0.1356783307421525
 50
273.9246298156346029
 51
287.1159350792760847
  0
ARC
  5
217CD
  8
0
 10
4463.7372823749738018
 20
274.0473360525039084
 30
0.0
 40
3.687317821523675
 50
269.9132013295524075
 51
275.099191721812474
  0
ARC
  5
217CE
  8
0
 10
4463.7363904680796622
 20
274.4995847577729933
 30
0.0
 40
0.7429937020232305
 50
90.3616686906857041
 51
91.1591874650047203
  0
ENDSEC
  0
EOF
