  0
SECTION
  2
HEADER
  9
$ACADVER
  1
AC1009
  9
$INSBASE
 10
4246.6267352488912366
 20
205.3980629323698963
 30
0.0
  9
$EXTMIN
 10
4245.9103670049898938
 20
205.3980629323698963
 30
0.0
  9
$EXTMAX
 10
4265.5773622614906344
 20
282.6854645071717869
 30
0.0
  9
$LIMMIN
 10
0.0
 20
0.0
  9
$LIMMAX
 10
11.6929133858000007
 20
8.2677165353999982
  9
$ORTHOMODE
 70
     1
  9
$REGENMODE
 70
     1
  9
$FILLMODE
 70
     1
  9
$QTEXTMODE
 70
     0
  9
$MIRRTEXT
 70
     0
  9
$DRAGMODE
 70
     2
  9
$LTSCALE
 40
0.6431102362
  9
$OSMODE
 70
  4095
  9
$ATTMODE
 70
     1
  9
$TEXTSIZE
 40
0.2
  9
$TRACEWID
 40
0.05
  9
$TEXTSTYLE
  7
STANDARD
  9
$CLAYER
  8
0
  9
$CELTYPE
  6
BYLAYER
  9
$CECOLOR
 62
   256
  9
$DIMSCALE
 40
1.0
  9
$DIMASZ
 40
0.1875
  9
$DIMEXO
 40
0.0625
  9
$DIMDLI
 40
0.4443307087
  9
$DIMRND
 40
0.0
  9
$DIMDLE
 40
0.0
  9
$DIMEXE
 40
0.125
  9
$DIMTP
 40
0.01
  9
$DIMTM
 40
0.01
  9
$DIMTXT
 40
2.0
  9
$DIMCEN
 40
0.1052362205
  9
$DIMTSZ
 40
0.0
  9
$DIMTOL
 70
     1
  9
$DIMLIM
 70
     0
  9
$DIMTIH
 70
     1
  9
$DIMTOH
 70
     1
  9
$DIMSE1
 70
     0
  9
$DIMSE2
 70
     0
  9
$DIMTAD
 70
     0
  9
$DIMZIN
 70
     0
  9
$DIMBLK
  1

  9
$DIMASO
 70
     1
  9
$DIMSHO
 70
     1
  9
$DIMPOST
  1
\X
  9
$DIMAPOST
  1

  9
$DIMALT
 70
     1
  9
$DIMALTD
 70
     2
  9
$DIMALTF
 40
25.3999999999999986
  9
$DIMLFAC
 40
1.0
  9
$DIMTOFL
 70
     0
  9
$DIMTVP
 40
0.0
  9
$DIMTIX
 70
     0
  9
$DIMSOXD
 70
     0
  9
$DIMSAH
 70
     0
  9
$DIMBLK1
  1

  9
$DIMBLK2
  1

  9
$DIMSTYLE
  2
STANDARD
  9
$DIMCLRD
 70
     0
  9
$DIMCLRE
 70
     0
  9
$DIMCLRT
 70
     0
  9
$DIMTFAC
 40
1.0
  9
$DIMGAP
 40
0.09
  9
$LUNITS
 70
     2
  9
$LUPREC
 70
     4
  9
$SKETCHINC
 40
0.1
  9
$FILLETRAD
 40
0.0
  9
$AUNITS
 70
     0
  9
$AUPREC
 70
     0
  9
$MENU
  1
.
  9
$ELEVATION
 40
0.0
  9
$PELEVATION
 40
0.0
  9
$THICKNESS
 40
0.0
  9
$LIMCHECK
 70
     0
  9
$BLIPMODE
 70
     0
  9
$CHAMFERA
 40
0.0
  9
$CHAMFERB
 40
0.0
  9
$SKPOLY
 70
     0
  9
$TDCREATE
 40
2458060.468368056230247
  9
$TDUPDATE
 40
2459003.687210647854954
  9
$TDINDWG
 40
0.3013033565
  9
$TDUSRTIMER
 40
0.3013033565
  9
$USRTIMER
 70
     1
  9
$ANGBASE
 50
0.0
  9
$ANGDIR
 70
     0
  9
$PDMODE
 70
     0
  9
$PDSIZE
 40
0.3125
  9
$PLINEWID
 40
0.0
  9
$COORDS
 70
     1
  9
$SPLFRAME
 70
     0
  9
$SPLINETYPE
 70
     6
  9
$SPLINESEGS
 70
     8
  9
$ATTDIA
 70
     1
  9
$ATTREQ
 70
     1
  9
$HANDLING
 70
     1
  9
$HANDSEED
  5
6D6C
  9
$SURFTAB1
 70
     6
  9
$SURFTAB2
 70
     6
  9
$SURFTYPE
 70
     6
  9
$SURFU
 70
     6
  9
$SURFV
 70
     6
  9
$UCSNAME
  2

  9
$UCSORG
 10
0.0
 20
0.0
 30
0.0
  9
$UCSXDIR
 10
1.0
 20
0.0
 30
0.0
  9
$UCSYDIR
 10
0.0
 20
1.0
 30
0.0
  9
$PUCSNAME
  2

  9
$PUCSORG
 10
0.0
 20
0.0
 30
0.0
  9
$PUCSXDIR
 10
1.0
 20
0.0
 30
0.0
  9
$PUCSYDIR
 10
0.0
 20
1.0
 30
0.0
  9
$USERI1
 70
     0
  9
$USERI2
 70
     0
  9
$USERI3
 70
     0
  9
$USERI4
 70
     0
  9
$USERI5
 70
     0
  9
$USERR1
 40
0.0
  9
$USERR2
 40
0.0
  9
$USERR3
 40
0.0
  9
$USERR4
 40
0.0
  9
$USERR5
 40
0.0
  9
$WORLDVIEW
 70
     1
  9
$SHADEDGE
 70
     3
  9
$SHADEDIF
 70
    70
  9
$TILEMODE
 70
     1
  9
$MAXACTVP
 70
    64
  9
$PLIMCHECK
 70
     0
  9
$PEXTMIN
 10
1.0000000000000000E+20
 20
1.0000000000000000E+20
 30
1.0000000000000000E+20
  9
$PEXTMAX
 10
-1.0000000000000000E+20
 20
-1.0000000000000000E+20
 30
-1.0000000000000000E+20
  9
$PLIMMIN
 10
0.0
 20
0.0
  9
$PLIMMAX
 10
12.0
 20
9.0
  9
$UNITMODE
 70
     0
  9
$VISRETAIN
 70
     1
  9
$PLINEGEN
 70
     0
  9
$PSLTSCALE
 70
     1
  0
ENDSEC
  0
SECTION
  2
TABLES
  0
TABLE
  2
VPORT
 70
     1
  0
VPORT
  2
*ACTIVE
 70
     0
 10
0.0
 20
0.0
 11
1.0
 21
1.0
 12
0.0
 22
0.0
 13
0.0
 23
0.0
 14
1.0
 24
1.0
 15
0.0
 25
0.0
 16
0.0
 26
0.0
 36
228.4731141063851965
 17
4255.74365234375
 27
244.0417556762695881
 37
0.0
 40
79.7652389539625233
 41
2.1481900452488678
 42
50.0
 43
0.0
 44
0.0
 50
0.0
 51
0.0
 71
     0
 72
   100
 73
     1
 74
     1
 75
     0
 76
     0
 77
     0
 78
     0
  0
ENDTAB
  0
TABLE
  2
LTYPE
 70
     2
  0
LTYPE
  2
CONTINUOUS
 70
     0
  3
Solid line
 72
    65
 73
     0
 40
0.0
  0
LTYPE
  2
PHANTOM2
 70
     0
  3
___ _ _ ___ _ _ ___ _ _ ___ _ _
 72
    65
 73
     6
 40
1.25
 49
0.625
 49
-0.125
 49
0.125
 49
-0.125
 49
0.125
 49
-0.125
  0
ENDTAB
  0
TABLE
  2
LAYER
 70
     2
  0
LAYER
  2
0
 70
     0
 62
   255
  6
CONTINUOUS
  0
LAYER
  2
DEFPOINTS
 70
     0
 62
     7
  6
CONTINUOUS
  0
ENDTAB
  0
TABLE
  2
STYLE
 70
     1
  0
STYLE
  2
STANDARD
 70
     0
 40
0.0
 41
0.8
 50
0.0
 71
     0
 42
0.2
  3
txt
  4

  0
ENDTAB
  0
TABLE
  2
VIEW
 70
     0
  0
ENDTAB
  0
TABLE
  2
UCS
 70
     0
  0
ENDTAB
  0
TABLE
  2
APPID
 70
     9
  0
APPID
  2
ACAD
 70
     0
  0
APPID
  2
ACAD_MLEADERVER
 70
     0
  0
APPID
  2
ACAD_EXEMPT_FROM_CAD_STANDARDS
 70
     0
  0
APPID
  2
ACAD_NAV_VCDISPLAY
 70
     0
  0
APPID
  2
ACAECLAYERSTANDARD
 70
     0
  0
APPID
  2
ACCMTRANSPARENCY
 70
     0
  0
APPID
  2
ACAD_DSTYLE_DIMJAG
 70
     0
  0
APPID
  2
ACAD_DSTYLE_DIMTALN
 70
     0
  0
APPID
  2
ACDBATTR
 70
     0
  0
ENDTAB
  0
TABLE
  2
DIMSTYLE
 70
     1
  0
DIMSTYLE
  2
STANDARD
 70
     0
  3

  4

  5

  6

  7

 40
1.0
 41
0.1875
 42
0.0625
 43
0.38
 44
0.125
 45
0.0
 46
0.0
 47
0.01
 48
0.01
140
0.15625
141
0.09
142
0.0
143
25.3999999999999986
144
1.0
145
0.0
146
1.0
147
0.09
 71
     1
 72
     0
 73
     1
 74
     1
 75
     0
 76
     0
 77
     0
 78
     4
170
     0
171
     2
172
     0
173
     0
174
     0
175
     0
176
     0
177
     0
178
     0
  0
ENDTAB
  0
ENDSEC
  0
SECTION
  2
BLOCKS
  0
BLOCK
  8
0
  2
$MODEL_SPACE
 70
     0
 10
0.0
 20
0.0
 30
0.0
  3
$MODEL_SPACE
  1

  0
ENDBLK
  5
21
  8
0
  0
BLOCK
 67
     1
  8
0
  2
$PAPER_SPACE
 70
     0
 10
0.0
 20
0.0
 30
0.0
  3
$PAPER_SPACE
  1

  0
ENDBLK
  5
1D
 67
     1
  8
0
  0
ENDSEC
  0
SECTION
  2
ENTITIES
  0
ATTDEF
  5
3930
  8
DEFPOINTS
 10
4246.634296916706262
 20
205.4019638550799982
 30
0.0
 40
0.001
  1
K-20017T-FM
  3

  2
MODELNUMBER
 70
     0
1001
ACDBATTR
1070
     0
1070
     1
  0
ATTDEF
  5
3931
  8
DEFPOINTS
 10
4246.634296916706262
 20
205.4002971884133899
 30
0.0
 40
0.001
  1
SKYLINE
  3

  2
TRADENAME
 70
     0
1001
ACDBATTR
1070
     0
1070
     1
  0
ATTDEF
  5
3932
  8
DEFPOINTS
 10
4246.634296916706262
 20
205.3986305217466963
 30
0.0
 40
0.001
  1
SHOWER DOOR
  3

  2
PRODUCT
 70
     0
1001
ACDBATTR
1070
     0
1070
     1
  0
LINE
  5
6B80
  8
0
 10
4246.6267352488912366
 20
205.3980629323698963
 30
0.0
 11
4259.4326060892908572
 21
205.3980629323698963
 31
0.0
  0
LINE
  5
6B81
  8
0
 10
4256.8856337227898621
 20
282.6850142081698891
 30
0.0
 11
4256.7761773486899983
 21
282.6463155359699044
 31
0.0
  0
LINE
  5
6B82
  8
0
 10
4246.6267352488912366
 20
207.760267656769912
 30
0.0
 11
4259.4326060892908572
 21
207.760267656769912
 31
0.0
  0
LINE
  5
6B83
  8
0
 10
4248.0420416376900903
 20
209.5329371581698865
 30
0.0
 11
4256.7710001574905618
 21
209.5329371581698865
 31
0.0
  0
LINE
  5
6B84
  8
0
 10
4248.4789414208898961
 20
209.5364881292699124
 30
0.0
 11
4248.1142961163895961
 21
209.5364881292699124
 31
0.0
  0
LINE
  5
6B85
  8
0
 10
4248.0667655375900722
 20
209.5424330111698907
 30
0.0
 11
4248.0518656282902157
 21
209.5424330111698907
 31
0.0
  0
LINE
  5
6B86
  8
0
 10
4248.0864572666896493
 20
209.5936141134698971
 30
0.0
 11
4247.3961010252896813
 21
209.5936141134698971
 31
0.0
  0
LINE
  5
6B87
  8
0
 10
4248.429814574289594
 20
209.6228700189699055
 30
0.0
 11
4248.3421641908898891
 21
209.6228700189699055
 31
0.0
  0
LINE
  5
6B88
  8
0
 10
4248.0214934822906798
 20
209.6327125386698924
 30
0.0
 11
4248.429814574289594
 21
209.6327125386698924
 31
0.0
  0
LINE
  5
6B89
  8
0
 10
4247.5416214246852178
 20
209.6335149562698916
 30
0.0
 11
4248.0065051902192863
 21
209.6335149562698916
 31
0.0
  0
LINE
  5
6B8A
  8
0
 10
4247.5673705096905906
 20
210.4209165310699063
 30
0.0
 11
4247.9807563363901863
 21
210.4209165310699063
 31
0.0
  0
LINE
  5
6B8B
  8
0
 10
4258.6766951072895608
 20
211.6086928536699077
 30
0.0
 11
4259.0107613031896108
 21
211.6086928536699077
 31
0.0
  0
LINE
  5
6B8C
  8
0
 10
4258.6766951072895608
 20
211.785858207969909
 30
0.0
 11
4259.0107613031896108
 21
211.785858207969909
 31
0.0
  0
LINE
  5
6B8D
  8
0
 10
4247.7358648048902978
 20
212.231137735569888
 30
0.0
 11
4248.0214934822861323
 21
212.2311377355702859
 31
0.0
  0
LINE
  5
6B8E
  8
0
 10
4258.0130324456904418
 20
282.6482707528699052
 30
0.0
 11
4258.0644567471899791
 21
282.6846332252699199
 31
0.0
  0
LINE
  5
6B8F
  8
0
 10
4248.0766161277897481
 20
280.7870289461699258
 30
0.0
 11
4248.0792414169909534
 21
280.7907477617699215
 31
0.0
  0
LINE
  5
6B90
  8
0
 10
4248.0792414169909534
 20
209.5329371581698865
 30
0.0
 11
4248.0766161277897481
 21
209.5366559737699106
 31
0.0
  0
LINE
  5
6B91
  8
0
 10
4260.9815638729905913
 20
269.9313876020698899
 30
0.0
 11
4260.9676444480901409
 21
269.9256219875699117
 31
0.0
  0
LINE
  5
6B92
  8
0
 10
4260.9954832977891783
 20
269.6106613575698816
 30
0.0
 11
4260.9815638729905913
 21
269.6048957430699033
 31
0.0
  0
LINE
  5
6B93
  8
0
 10
4265.5773622614906344
 20
269.5909763182698953
 30
0.0
 11
4265.5495234117906875
 21
269.5712912788699214
 31
0.0
  0
LINE
  5
6B94
  8
0
 10
4245.910367030690395
 20
245.5689930856698879
 30
0.0
 11
4245.9103670049898938
 21
244.7208022877699136
 31
0.0
  0
LINE
  5
6B95
  8
0
 10
4246.6267352488912366
 20
205.3980629323698963
 30
0.0
 11
4246.6267352488912366
 21
207.760267656769912
 31
0.0
  0
LINE
  5
6B96
  8
0
 10
4247.3764159859902065
 20
207.760267656769912
 30
0.0
 11
4247.3764159859902065
 21
209.5739290741699108
 31
0.0
  0
LINE
  5
6B97
  8
0
 10
4247.3764159859902065
 20
280.7497558457699256
 30
0.0
 11
4247.3764159859902065
 21
282.5634172630698799
 31
0.0
  0
LINE
  5
6B98
  8
0
 10
4247.5378429505908571
 20
209.6267901560698874
 30
0.0
 11
4247.5378429505908571
 21
209.5936141134698971
 31
0.0
  0
LINE
  5
6B99
  8
0
 10
4247.5476854702901619
 20
209.6413889720699046
 30
0.0
 11
4247.5476854702901619
 21
210.401231491669904
 31
0.0
  0
LINE
  5
6B9A
  8
0
 10
4247.7161797654898692
 20
210.4209165310699063
 30
0.0
 11
4247.7161797654898692
 21
212.2114526961699141
 31
0.0
  0
LINE
  5
6B9B
  8
0
 10
4247.7161797654898692
 20
278.0775944284699221
 30
0.0
 11
4247.7161797654898692
 21
280.7300708063698949
 31
0.0
  0
LINE
  5
6B9C
  8
0
 10
4247.972085277289807
 20
278.0579093890698914
 30
0.0
 11
4247.972085277289807
 21
245.7350747434699088
 31
0.0
  0
LINE
  5
6B9D
  8
0
 10
4247.972085277289807
 20
244.5539723812698867
 30
0.0
 11
4247.972085277289807
 21
212.231137735569888
 31
0.0
  0
LINE
  5
6B9E
  8
0
 10
4248.0004413757897055
 20
209.6413889720699046
 30
0.0
 11
4248.0004413757897055
 21
210.401231491669904
 31
0.0
  0
LINE
  5
6B9F
  8
0
 10
4248.0017556989896548
 20
207.760267656769912
 30
0.0
 11
4248.0017556989896548
 21
209.5739290741699108
 31
0.0
  0
LINE
  5
6BA0
  8
0
 10
4248.0017556989896548
 20
280.7497558457699256
 30
0.0
 11
4248.0017556989896548
 21
282.5634172630698799
 31
0.0
  0
LINE
  5
6BA1
  8
0
 10
4248.0102838954899198
 20
209.6267901560698874
 30
0.0
 11
4248.0102838954899198
 21
209.5936141134698971
 31
0.0
  0
LINE
  5
6BA2
  8
0
 10
4248.0214934821897259
 20
280.4201141134698787
 30
0.0
 11
4248.0214934822906798
 21
209.6327125386698924
 31
0.0
  0
LINE
  5
6BA3
  8
0
 10
4248.031140395390139
 20
280.4201141134698787
 30
0.0
 11
4248.031140395390139
 21
280.7300708063698949
 31
0.0
  0
LINE
  5
6BA4
  8
0
 10
4248.0402524492901648
 20
207.760267656769912
 30
0.0
 11
4248.0402524492901648
 21
209.5227479717698884
 31
0.0
  0
LINE
  5
6BA5
  8
0
 10
4248.0402524492901648
 20
280.8009369481699196
 30
0.0
 11
4248.0402524492901648
 21
282.5634172630698799
 31
0.0
  0
LINE
  5
6BA6
  8
0
 10
4248.1026829373895453
 20
209.5561731686698863
 30
0.0
 11
4248.1026829373895453
 21
209.5739290741699108
 31
0.0
  0
LINE
  5
6BA7
  8
0
 10
4248.1026829373895453
 20
280.7497558457699256
 30
0.0
 11
4248.1026829373895453
 21
280.7675117512699217
 31
0.0
  0
LINE
  5
6BA8
  8
0
 10
4248.1041153383903293
 20
209.6327125386698924
 30
0.0
 11
4248.1041153383903293
 21
209.5463204027080053
 31
0.0
  0
LINE
  5
6BA9
  8
0
 10
4248.1689356709912317
 20
280.626807026869983
 30
0.0
 11
4248.1689356709912317
 21
280.4299566331699225
 31
0.0
  0
LINE
  5
6BAA
  8
0
 10
4248.2083057496902256
 20
280.5874369481699091
 30
0.0
 11
4248.2083057496902256
 21
280.626807026869983
 31
0.0
  0
LINE
  5
6BAB
  8
0
 10
4248.3342900016896238
 20
209.5364881292699124
 30
0.0
 11
4248.3342900016896238
 21
209.6149960032699084
 31
0.0
  0
LINE
  5
6BAC
  8
0
 10
4248.3652670834908349
 20
209.6327125386698924
 30
0.0
 11
4248.3652670834908349
 21
209.6228700189699055
 31
0.0
  0
LINE
  5
6BAD
  8
0
 10
4248.4051561434898758
 20
280.7744448221699258
 30
0.0
 11
4248.4051561434898758
 21
280.4201141134698787
 31
0.0
  0
LINE
  5
6BAE
  8
0
 10
4248.429814574289594
 20
280.7871967906698956
 30
0.0
 11
4248.429814574289594
 21
209.5364881292699124
 31
0.0
  0
LINE
  5
6BAF
  8
0
 10
4260.9815638729905913
 20
269.6048957430699033
 30
0.0
 11
4260.9676444480901409
 21
269.5712912788699214
 31
0.0
  0
LINE
  5
6BB0
  8
0
 10
4256.7709280039898658
 20
282.5634172630698799
 30
0.0
 11
4256.7709280039898658
 21
282.6388918418699063
 31
0.0
  0
LINE
  5
6BB1
  8
0
 10
4256.7710001574905618
 20
282.5634172630698799
 30
0.0
 11
4256.7710001574905618
 21
207.760267656769912
 31
0.0
  0
LINE
  5
6BB2
  8
0
 10
4258.0210901979899063
 20
282.6412280190698993
 30
0.0
 11
4258.0210901979899063
 21
282.5712912788699214
 31
0.0
  0
LINE
  5
6BB3
  8
0
 10
4258.0237488564907835
 20
282.5634172630698799
 30
0.0
 11
4258.0237488564907835
 21
207.760267656769912
 31
0.0
  0
LINE
  5
6BB4
  8
0
 10
4258.0413203401903957
 20
282.5712912788699214
 30
0.0
 11
4258.0413203401903957
 21
282.6303463969699123
 31
0.0
  0
LINE
  5
6BB5
  8
0
 10
4258.0543715910889659
 20
207.760267656769912
 30
0.0
 11
4258.0543715910889659
 21
282.5634172630698799
 31
0.0
  0
LINE
  5
6BB6
  8
0
 10
4258.0558887600900562
 20
282.6303463969699123
 30
0.0
 11
4258.0558887600900562
 21
282.6224723812699153
 31
0.0
  0
LINE
  5
6BB7
  8
0
 10
4258.1282697691904104
 20
282.6224723812699153
 30
0.0
 11
4258.1282697691904104
 21
282.6303463969699123
 31
0.0
  0
LINE
  5
6BB8
  8
0
 10
4258.3480709902896706
 20
282.5634172630698799
 30
0.0
 11
4258.3480709902896706
 21
207.760267656769912
 31
0.0
  0
LINE
  5
6BB9
  8
0
 10
4258.3565483362908708
 20
282.6224723812699153
 30
0.0
 11
4258.3565483362908708
 21
282.5712912788699214
 31
0.0
  0
LINE
  5
6BBA
  8
0
 10
4258.6489819487896966
 20
211.7763317649699104
 30
0.0
 11
4258.6489819487896966
 21
211.6182205339698896
 31
0.0
  0
LINE
  5
6BBB
  8
0
 10
4258.6907402232900495
 20
211.785858207969909
 30
0.0
 11
4258.6907402232900495
 21
211.6086928536699077
 31
0.0
  0
LINE
  5
6BBC
  8
0
 10
4258.7394249373901403
 20
282.5634172630698799
 30
0.0
 11
4258.7394249373901403
 21
278.7149920662698719
 31
0.0
  0
LINE
  5
6BBD
  8
0
 10
4258.7394249373901403
 20
278.537826711969899
 30
0.0
 11
4258.7394249373901403
 21
259.0299526961699144
 31
0.0
  0
LINE
  5
6BBE
  8
0
 10
4258.7394249373901403
 20
258.8527873418698846
 30
0.0
 11
4258.7394249373901403
 21
231.470897578069895
 31
0.0
  0
LINE
  5
6BBF
  8
0
 10
4258.7394249373901403
 20
231.2937322237698936
 30
0.0
 11
4258.7394249373901403
 21
211.785858207969909
 31
0.0
  0
LINE
  5
6BC0
  8
0
 10
4258.7394249373901403
 20
211.6086928536699077
 30
0.0
 11
4258.7394249373901403
 21
207.760267656769912
 31
0.0
  0
LINE
  5
6BC1
  8
0
 10
4258.7561282471906452
 20
282.5634172630698799
 30
0.0
 11
4258.7561282471906452
 21
278.7149920662698719
 31
0.0
  0
LINE
  5
6BC2
  8
0
 10
4258.7561282471906452
 20
278.537826711969899
 30
0.0
 11
4258.7561282471906452
 21
259.0299526961699144
 31
0.0
  0
LINE
  5
6BC3
  8
0
 10
4258.7561282471906452
 20
258.8527873418698846
 30
0.0
 11
4258.7561282471906452
 21
231.470897578069895
 31
0.0
  0
LINE
  5
6BC4
  8
0
 10
4258.7561282471906452
 20
231.2937322237698936
 30
0.0
 11
4258.7561282471906452
 21
211.785858207969909
 31
0.0
  0
LINE
  5
6BC5
  8
0
 10
4258.7561282471906452
 20
211.6086928536699077
 30
0.0
 11
4258.7561282471906452
 21
207.760267656769912
 31
0.0
  0
LINE
  5
6BC6
  8
0
 10
4248.0214934822906798
 20
244.5539723812698867
 30
0.0
 11
4246.1857705609609184
 21
244.5539723812698867
 31
0.0
  0
LINE
  5
6BC7
  8
0
 10
4248.0214934822906798
 20
245.7350747434699088
 30
0.0
 11
4246.1821112296538558
 21
245.7350747434699088
 31
0.0
  0
LINE
  5
6BC8
  8
0
 10
4258.8160150466901541
 20
211.785858207969909
 30
0.0
 11
4258.8160150466901541
 21
211.6086928536699077
 31
0.0
  0
LINE
  5
6BC9
  8
0
 10
4258.8577733211895975
 20
211.785858207969909
 30
0.0
 11
4258.8577733211895975
 21
211.6086928536699077
 31
0.0
  0
LINE
  5
6BCA
  8
0
 10
4258.9313281632903454
 20
282.5634172630698799
 30
0.0
 11
4258.9313281632903454
 21
278.7149920662698719
 31
0.0
  0
LINE
  5
6BCB
  8
0
 10
4258.9313281632903454
 20
278.537826711969899
 30
0.0
 11
4258.9313281632903454
 21
259.0299526961699144
 31
0.0
  0
LINE
  5
6BCC
  8
0
 10
4258.9313281632903454
 20
258.8527873418698846
 30
0.0
 11
4258.9313281632903454
 21
231.470897578069895
 31
0.0
  0
LINE
  5
6BCD
  8
0
 10
4258.9313281632903454
 20
231.2937322237698936
 30
0.0
 11
4258.9313281632903454
 21
211.785858207969909
 31
0.0
  0
LINE
  5
6BCE
  8
0
 10
4258.9313281632903454
 20
211.6086928536699077
 30
0.0
 11
4258.9313281632903454
 21
207.760267656769912
 31
0.0
  0
LINE
  5
6BCF
  8
0
 10
4258.9480314730899408
 20
282.5634172630698799
 30
0.0
 11
4258.9480314730899408
 21
278.7149920662698719
 31
0.0
  0
LINE
  5
6BD0
  8
0
 10
4258.9480314730899408
 20
278.537826711969899
 30
0.0
 11
4258.9480314730899408
 21
259.0299526961699144
 31
0.0
  0
LINE
  5
6BD1
  8
0
 10
4258.9480314730899408
 20
258.8527873418698846
 30
0.0
 11
4258.9480314730899408
 21
231.470897578069895
 31
0.0
  0
LINE
  5
6BD2
  8
0
 10
4258.9480314730899408
 20
231.2937322237698936
 30
0.0
 11
4258.9480314730899408
 21
211.785858207969909
 31
0.0
  0
LINE
  5
6BD3
  8
0
 10
4258.9480314730899408
 20
211.6086928536699077
 30
0.0
 11
4258.9480314730899408
 21
207.760267656769912
 31
0.0
  0
LINE
  5
6BD4
  8
0
 10
4258.983048144690656
 20
211.785858207969909
 30
0.0
 11
4258.983048144690656
 21
211.6086928536699077
 31
0.0
  0
LINE
  5
6BD5
  8
0
 10
4259.0185522139909153
 20
282.6303463969699123
 30
0.0
 11
4259.0185522139909153
 21
282.6224723812699153
 31
0.0
  0
LINE
  5
6BD6
  8
0
 10
4259.0916653230897282
 20
282.6303463969699123
 30
0.0
 11
4259.0916653230897282
 21
282.6224723812699153
 31
0.0
  0
LINE
  5
6BD7
  8
0
 10
4259.111895465291127
 20
282.6224723812699153
 30
0.0
 11
4259.111895465291127
 21
282.6412280190698993
 31
0.0
  0
LINE
  5
6BD8
  8
0
 10
4259.3366736886891886
 20
282.6145983654698739
 30
0.0
 11
4259.3366736886891886
 21
282.5712912788699214
 31
0.0
  0
LINE
  5
6BD9
  8
0
 10
4259.3393854201904105
 20
207.760267656769912
 30
0.0
 11
4259.3393854201904105
 21
282.5634172630698799
 31
0.0
  0
LINE
  5
6BDA
  8
0
 10
4259.4326060892908572
 20
205.3980629323698963
 30
0.0
 11
4259.4326060892908572
 21
207.760267656769912
 31
0.0
  0
LINE
  5
6BDB
  8
0
 10
4260.9676444480901409
 20
269.9256219875699117
 30
0.0
 11
4260.9676444480901409
 21
269.6106613575698816
 31
0.0
  0
LINE
  5
6BDC
  8
0
 10
4260.9954832977891783
 20
269.9256219875699117
 30
0.0
 11
4260.9954832977891783
 21
269.6106613575698816
 31
0.0
  0
LINE
  5
6BDD
  8
0
 10
4262.9211403152903586
 20
270.1224723812699153
 30
0.0
 11
4262.9211403152903586
 21
270.0240471843699197
 31
0.0
  0
LINE
  5
6BDE
  8
0
 10
4262.9211403152903586
 20
269.4138109638699916
 30
0.0
 11
4262.9211403152903586
 21
269.5122361607698735
 31
0.0
  0
LINE
  5
6BDF
  8
0
 10
4262.9931256351901538
 20
269.5712912788699214
 30
0.0
 11
4262.9931256351901538
 21
269.5122361607698735
 31
0.0
  0
LINE
  5
6BE0
  8
0
 10
4262.9931256351901538
 20
269.9649920662698719
 30
0.0
 11
4262.9931256351901538
 21
270.0240471843699197
 31
0.0
  0
LINE
  5
6BE1
  8
0
 10
4264.2689363277895609
 20
269.9649920662698719
 30
0.0
 11
4264.2689363277895609
 21
269.5909763182698953
 31
0.0
  0
LINE
  5
6BE2
  8
0
 10
4264.2967751773903728
 20
269.4138109638699916
 30
0.0
 11
4264.2967751773903728
 21
269.945307026869898
 31
0.0
  0
LINE
  5
6BE3
  8
0
 10
4264.4359694256891089
 20
270.1224723812699153
 30
0.0
 11
4264.4359694256891089
 21
269.4138109638699916
 31
0.0
  0
LINE
  5
6BE4
  8
0
 10
4265.4103291634901325
 20
270.1444448262631113
 30
0.0
 11
4265.4103291634901325
 21
269.4138109638695937
 31
0.0
  0
LINE
  5
6BE5
  8
0
 10
4265.5773622614906344
 20
269.945307026869898
 30
0.0
 11
4265.5773622614906344
 21
269.5909763182698953
 31
0.0
  0
LINE
  5
6BE6
  8
0
 10
4260.9676444480901409
 20
269.9649920662698719
 30
0.0
 11
4260.9815638729905913
 21
269.9313876020698899
 31
0.0
  0
LINE
  5
6BE7
  8
0
 10
4265.3407320393907867
 20
269.3153857670699267
 30
0.0
 11
4263.0022686685897497
 21
269.3153857670699267
 31
0.0
  0
LINE
  5
6BE8
  8
0
 10
4264.2967751773903728
 20
269.5122361607698735
 30
0.0
 11
4262.9211403152903586
 21
269.5122361607698735
 31
0.0
  0
LINE
  5
6BE9
  8
0
 10
4265.5495234117906875
 20
269.5712912788699214
 30
0.0
 11
4265.4103291634901325
 21
269.5712912788699214
 31
0.0
  0
LINE
  5
6BEA
  8
0
 10
4264.25501690289002
 20
269.5712912788699214
 30
0.0
 11
4259.3393854201904105
 21
269.5712912788699214
 31
0.0
  0
LINE
  5
6BEB
  8
0
 10
4265.5773622614906344
 20
269.6106613575698816
 30
0.0
 11
4265.4103291634901325
 21
269.6106613575698816
 31
0.0
  0
LINE
  5
6BEC
  8
0
 10
4264.2689363277895609
 20
269.6106613575698816
 30
0.0
 11
4260.9954832977891783
 21
269.6106613575698816
 31
0.0
  0
LINE
  5
6BED
  8
0
 10
4260.9954832977891783
 20
269.9256219875699117
 30
0.0
 11
4264.2689363277895609
 21
269.9256219875699117
 31
0.0
  0
LINE
  5
6BEE
  8
0
 10
4265.4103291634901325
 20
269.9256219875699117
 30
0.0
 11
4265.5773622614906344
 21
269.9256219875699117
 31
0.0
  0
LINE
  5
6BEF
  8
0
 10
4259.3393854201904105
 20
269.9649920662698719
 30
0.0
 11
4264.2689363277895609
 21
269.9649920662698719
 31
0.0
  0
LINE
  5
6BF0
  8
0
 10
4265.4103291634901325
 20
269.9649920662698719
 30
0.0
 11
4265.5495234117906875
 21
269.9649920662698719
 31
0.0
  0
LINE
  5
6BF1
  8
0
 10
4262.9931297255898244
 20
269.9846771056699026
 30
0.0
 11
4264.25501690289002
 21
269.9846771056699026
 31
0.0
  0
LINE
  5
6BF2
  8
0
 10
4262.9211405117912363
 20
270.0240471843699197
 30
0.0
 11
4264.2296787141776804
 21
270.0240471843699197
 31
0.0
  0
LINE
  5
6BF3
  8
0
 10
4263.0022686685897497
 20
270.2208975780699234
 30
0.0
 11
4265.3407320393907867
 21
270.2208975780699234
 31
0.0
  0
LINE
  5
6BF4
  8
0
 10
4260.9676444480901409
 20
269.6106613575698816
 30
0.0
 11
4260.9815638729905913
 21
269.6048957430699033
 31
0.0
  0
LINE
  5
6BF5
  8
0
 10
4260.9954832977891783
 20
269.9256219875699117
 30
0.0
 11
4260.9815638729905913
 21
269.9313876020698899
 31
0.0
  0
LINE
  5
6BF6
  8
0
 10
4265.5495234117906875
 20
269.9649920662698719
 30
0.0
 11
4265.5773622614906344
 21
269.945307026869898
 31
0.0
  0
LINE
  5
6BF7
  8
0
 10
4248.0214934821897259
 20
278.0579093890698914
 30
0.0
 11
4247.7358648048902978
 21
278.0579093890698914
 31
0.0
  0
LINE
  5
6BF8
  8
0
 10
4259.1085675145895948
 20
282.6476571260698734
 30
0.0
 11
4259.0571432130900575
 21
282.6840195983699005
 31
0.0
  0
LINE
  5
6BF9
  8
0
 10
4248.429814574289594
 20
280.4201141134698787
 30
0.0
 11
4248.0214934821897259
 21
280.4201141134698787
 31
0.0
  0
LINE
  5
6BFA
  8
0
 10
4248.1689356709912317
 20
280.4299566331699225
 30
0.0
 11
4248.4051561434898758
 21
280.4299566331699225
 31
0.0
  0
LINE
  5
6BFB
  8
0
 10
4248.2083057496902256
 20
280.5874369481699091
 30
0.0
 11
4248.4051561434898758
 21
280.5874369481699091
 31
0.0
  0
LINE
  5
6BFC
  8
0
 10
4248.4051561434898758
 20
280.626807026869983
 30
0.0
 11
4248.1689356709912317
 21
280.626807026869983
 31
0.0
  0
LINE
  5
6BFD
  8
0
 10
4248.0864572666896493
 20
280.7300708063698949
 30
0.0
 11
4247.3961010252896813
 21
280.7300708063698949
 31
0.0
  0
LINE
  5
6BFE
  8
0
 10
4248.4051561434898758
 20
280.7744448221699258
 30
0.0
 11
4248.429814574289594
 21
280.7744448221699258
 31
0.0
  0
LINE
  5
6BFF
  8
0
 10
4248.0518656282902157
 20
280.7812519087698888
 30
0.0
 11
4248.0667655375900722
 21
280.7812519087698888
 31
0.0
  0
LINE
  5
6C00
  8
0
 10
4248.4789414208898961
 20
280.7871967906698956
 30
0.0
 11
4248.1142961163895961
 21
280.7871967906698956
 31
0.0
  0
LINE
  5
6C01
  8
0
 10
4256.7793518123899048
 20
280.7907477617699215
 30
0.0
 11
4248.0420416376900903
 21
280.7907477617699215
 31
0.0
  0
LINE
  5
6C02
  8
0
 10
4259.3393854201904105
 20
282.5634172630698799
 30
0.0
 11
4247.3764159859902065
 21
282.5634172630698799
 31
0.0
  0
LINE
  5
6C03
  8
0
 10
4258.0210901979899063
 20
282.5712912788699214
 30
0.0
 11
4259.3366736886891886
 21
282.5712912788699214
 31
0.0
  0
LINE
  5
6C04
  8
0
 10
4258.0413203401903957
 20
282.6224723812699153
 30
0.0
 11
4259.3287972400894432
 21
282.6224723812699153
 31
0.0
  0
LINE
  5
6C05
  8
0
 10
4258.0413203401903957
 20
282.6303463969699123
 30
0.0
 11
4259.0916653230897282
 21
282.6303463969699123
 31
0.0
  0
LINE
  5
6C06
  8
0
 10
4256.7817075372031468
 20
282.6482707528699052
 30
0.0
 11
4258.0130324456904418
 21
282.6482707528699052
 31
0.0
  0
LINE
  5
6C07
  8
0
 10
4256.8882586040908791
 20
282.685464507169911
 30
0.0
 11
4259.0525971479901273
 21
282.685464507169911
 31
0.0
  0
ARC
  5
6C08
  8
0
 10
4248.2476758284901734
 20
209.6348942765698951
 30
0.0
 40
0.0218667772
 50
185.7261620012513958
 51
354.2738379987484905
  0
ARC
  5
6C09
  8
0
 10
4247.9807563363901863
 20
210.401231491669904
 30
0.0
 40
0.0196850394
 50
0.0
 51
90.0
  0
ARC
  5
6C0A
  8
0
 10
4247.5673705096905906
 20
210.401231491669904
 30
0.0
 40
0.0196850394
 50
90.0
 51
180.0
  0
ARC
  5
6C0B
  8
0
 10
4247.7358648048902978
 20
212.2114526961699141
 30
0.0
 40
0.0196850394
 50
90.0
 51
180.0
  0
ARC
  5
6C0C
  8
0
 10
4247.3961010252896813
 20
209.5739290741699108
 30
0.0
 40
0.0196850394
 50
90.0
 51
180.0000000005993002
  0
ARC
  5
6C0D
  8
0
 10
4247.5398114545896533
 20
209.6413889720699046
 30
0.0
 40
0.0078740157
 50
292.0242997843163266
 51
0.0
  0
ARC
  5
6C0E
  8
0
 10
4248.0083153915902585
 20
209.6413889720699046
 30
0.0
 40
0.0078740157
 50
180.0
 51
247.9757002156831049
  0
ARC
  5
6C0F
  8
0
 10
4248.3421640174929053
 20
209.614996003268601
 30
0.0
 40
0.0078740157032669
 50
89.9987382676776662
 51
179.9999999901235128
  0
ARC
  5
6C10
  8
0
 10
4247.7358648048902978
 20
278.0775944284699221
 30
0.0
 40
0.0196850394
 50
180.0
 51
270.0
  0
ARC
  5
6C11
  8
0
 10
4247.3961010252896813
 20
280.7497558457699256
 30
0.0
 40
0.0196850394
 50
180.0000000002995932
 51
270.0
  0
ARC
  5
6C12
  8
0
 10
4259.3282131698351805
 20
282.6140116815810757
 30
0.0
 40
0.0084808358838055
 50
3.966752771016234
 51
86.0509469194877568
  0
ARC
  5
6C13
  8
0
 10
4259.0525971479901273
 20
282.677590491469914
 30
0.0
 40
0.0078740157
 50
54.7356103176026707
 51
90.0
  0
ARC
  5
6C14
  8
0
 10
4259.1040214494896645
 20
282.6412280190698993
 30
0.0
 40
0.0078740157
 50
0.0
 51
54.7356103172120001
  0
ARC
  5
6C15
  8
0
 10
4256.88825843176528
 20
282.6775898879042757
 30
0.0
 40
0.0078746192674996
 50
89.9987461598207688
 51
109.4699541070494035
  0
ARC
  5
6C16
  8
0
 10
4258.0669953813739994
 20
282.6811739493393816
 30
0.0
 40
0.0042908336582461
 50
90.6496629967426202
 51
126.2735628957384932
  0
ARC
  5
6C17
  8
0
 10
4258.0112520056800349
 20
282.6381028149847907
 30
0.0
 40
0.010322641545776
 50
17.6229914602320505
 51
80.0680086362207959
  0
ARC
  5
6C18
  8
0
 10
4258.0053273254343367
 20
282.5817723234330856
 30
0.0
 40
0.0189293541721643
 50
284.1494954992862176
 51
326.3792840560507216
  0
ARC
  5
6C19
  8
0
 10
4258.7209961856005975
 20
211.6972761494699
 30
0.0
 40
0.1069384900097205
 50
132.3313702491550998
 51
227.6686297508404948
  0
ARC
  5
6C1A
  8
0
 10
4258.6770164241497696
 20
211.739850391597713
 30
0.0
 40
0.0460089383909681
 50
90.4001450652161651
 51
127.5408360927706042
  0
ARC
  5
6C1B
  8
0
 10
4258.6769559927943192
 20
211.6545201558622864
 30
0.0
 40
0.0458280447704464
 50
232.3806131234074996
 51
269.6738303120218916
  0
ARC
  5
6C1C
  8
0
 10
4258.9664602248785741
 20
211.6972761494699
 30
0.0
 40
0.1069384900097205
 50
312.3313702491594768
 51
47.6686297508448789
  0
ARC
  5
6C1D
  8
0
 10
4259.0104399863303115
 20
211.739850391597713
 30
0.0
 40
0.0460089383909681
 50
52.4591639072293603
 51
89.5998549347838349
  0
ARC
  5
6C1E
  8
0
 10
4259.0105004176848524
 20
211.6545201558622864
 30
0.0
 40
0.0458280447704464
 50
270.3261696879781084
 51
307.6193868765923867
  0
LINE
  5
6C1F
  8
0
 10
4258.6766951072895608
 20
231.2937322237698936
 30
0.0
 11
4259.0107613031896108
 21
231.2937322237698936
 31
0.0
  0
LINE
  5
6C20
  8
0
 10
4258.6766951072895608
 20
231.470897578069895
 30
0.0
 11
4259.0107613031896108
 21
231.470897578069895
 31
0.0
  0
LINE
  5
6C21
  8
0
 10
4258.6489819487896966
 20
231.4613711350698964
 30
0.0
 11
4258.6489819487896966
 21
231.303259904069904
 31
0.0
  0
LINE
  5
6C22
  8
0
 10
4258.6907402232900495
 20
231.470897578069895
 30
0.0
 11
4258.6907402232900495
 21
231.2937322237698936
 31
0.0
  0
LINE
  5
6C23
  8
0
 10
4258.8160150466901541
 20
231.470897578069895
 30
0.0
 11
4258.8160150466901541
 21
231.2937322237698936
 31
0.0
  0
LINE
  5
6C24
  8
0
 10
4258.8577733211895975
 20
231.470897578069895
 30
0.0
 11
4258.8577733211895975
 21
231.2937322237698936
 31
0.0
  0
LINE
  5
6C25
  8
0
 10
4258.983048144690656
 20
231.470897578069895
 30
0.0
 11
4258.983048144690656
 21
231.2937322237698936
 31
0.0
  0
ARC
  5
6C26
  8
0
 10
4258.7209961856005975
 20
231.382315519569886
 30
0.0
 40
0.1069384900097205
 50
132.3313702491550998
 51
227.6686297508404948
  0
ARC
  5
6C27
  8
0
 10
4258.6770164241497696
 20
231.424889761697699
 30
0.0
 40
0.0460089383909681
 50
90.4001450652161651
 51
127.5408360927706042
  0
ARC
  5
6C28
  8
0
 10
4258.6769559927943192
 20
231.3395595259623008
 30
0.0
 40
0.0458280447704464
 50
232.3806131234074996
 51
269.6738303120218916
  0
ARC
  5
6C29
  8
0
 10
4258.9664602248785741
 20
231.382315519569886
 30
0.0
 40
0.1069384900097205
 50
312.3313702491594768
 51
47.6686297508415819
  0
ARC
  5
6C2A
  8
0
 10
4259.0104399863303115
 20
231.424889761697699
 30
0.0
 40
0.0460089383909681
 50
52.4591639072293603
 51
89.5998549347838349
  0
ARC
  5
6C2B
  8
0
 10
4259.0105004176848524
 20
231.3395595259623008
 30
0.0
 40
0.0458280447704464
 50
270.3261696879781084
 51
307.6193868765923867
  0
LINE
  5
6C2C
  8
0
 10
4258.6766951072895608
 20
258.8527873418698846
 30
0.0
 11
4259.0107613031896108
 21
258.8527873418698846
 31
0.0
  0
LINE
  5
6C2D
  8
0
 10
4258.6766951072895608
 20
259.0299526961699144
 30
0.0
 11
4259.0107613031896108
 21
259.0299526961699144
 31
0.0
  0
LINE
  5
6C2E
  8
0
 10
4258.6489819487896966
 20
259.0204262531698873
 30
0.0
 11
4258.6489819487896966
 21
258.8623150221699234
 31
0.0
  0
LINE
  5
6C2F
  8
0
 10
4258.6907402232900495
 20
259.0299526961699144
 30
0.0
 11
4258.6907402232900495
 21
258.8527873418698846
 31
0.0
  0
LINE
  5
6C30
  8
0
 10
4258.8160150466901541
 20
259.0299526961699144
 30
0.0
 11
4258.8160150466901541
 21
258.8527873418698846
 31
0.0
  0
LINE
  5
6C31
  8
0
 10
4258.8577733211895975
 20
259.0299526961699144
 30
0.0
 11
4258.8577733211895975
 21
258.8527873418698846
 31
0.0
  0
LINE
  5
6C32
  8
0
 10
4258.983048144690656
 20
259.0299526961699144
 30
0.0
 11
4258.983048144690656
 21
258.8527873418698846
 31
0.0
  0
ARC
  5
6C33
  8
0
 10
4258.7209961856005975
 20
258.9413706376698769
 30
0.0
 40
0.1069384900097205
 50
132.3313702491550998
 51
227.6686297508404948
  0
ARC
  5
6C34
  8
0
 10
4258.6770164241497696
 20
258.9839448797977184
 30
0.0
 40
0.0460089383909681
 50
90.4001450652161651
 51
127.5408360927706042
  0
ARC
  5
6C35
  8
0
 10
4258.6769559927943192
 20
258.898614644062377
 30
0.0
 40
0.0458280447704464
 50
232.3806131234074996
 51
269.6738303120218916
  0
ARC
  5
6C36
  8
0
 10
4258.9664602248785741
 20
258.9413706376698769
 30
0.0
 40
0.1069384900097205
 50
312.3313702491594768
 51
47.6686297508448789
  0
ARC
  5
6C37
  8
0
 10
4259.0104399863303115
 20
258.9839448797977184
 30
0.0
 40
0.0460089383909681
 50
52.4591639072293603
 51
89.5998549347838349
  0
ARC
  5
6C38
  8
0
 10
4259.0105004176848524
 20
258.898614644062377
 30
0.0
 40
0.0458280447704464
 50
270.3261696879781084
 51
307.6193868765923867
  0
LINE
  5
6C39
  8
0
 10
4258.6766951072895608
 20
278.537826711969899
 30
0.0
 11
4259.0107613031896108
 21
278.537826711969899
 31
0.0
  0
LINE
  5
6C3A
  8
0
 10
4258.6766951072895608
 20
278.7149920662698719
 30
0.0
 11
4259.0107613031896108
 21
278.7149920662698719
 31
0.0
  0
LINE
  5
6C3B
  8
0
 10
4258.6489819487896966
 20
278.7054656232699017
 30
0.0
 11
4258.6489819487896966
 21
278.5473543922698809
 31
0.0
  0
LINE
  5
6C3C
  8
0
 10
4258.6907402232900495
 20
278.7149920662698719
 30
0.0
 11
4258.6907402232900495
 21
278.537826711969899
 31
0.0
  0
LINE
  5
6C3D
  8
0
 10
4258.8160150466901541
 20
278.7149920662698719
 30
0.0
 11
4258.8160150466901541
 21
278.537826711969899
 31
0.0
  0
LINE
  5
6C3E
  8
0
 10
4258.8577733211895975
 20
278.7149920662698719
 30
0.0
 11
4258.8577733211895975
 21
278.537826711969899
 31
0.0
  0
LINE
  5
6C3F
  8
0
 10
4258.983048144690656
 20
278.7149920662698719
 30
0.0
 11
4258.983048144690656
 21
278.537826711969899
 31
0.0
  0
ARC
  5
6C40
  8
0
 10
4258.7209961856005975
 20
278.6264100077698913
 30
0.0
 40
0.1069384900097205
 50
132.3313702491550998
 51
227.6686297508404948
  0
ARC
  5
6C41
  8
0
 10
4258.6770164241497696
 20
278.6689842498976759
 30
0.0
 40
0.0460089383909681
 50
90.4001450652161651
 51
127.5408360927706042
  0
ARC
  5
6C42
  8
0
 10
4258.6769559927943192
 20
278.5836540141622777
 30
0.0
 40
0.0458280447704464
 50
232.3806131234074996
 51
269.6738303120218916
  0
ARC
  5
6C43
  8
0
 10
4258.9664602248785741
 20
278.6264100077698913
 30
0.0
 40
0.1069384900097205
 50
312.3313702491594768
 51
47.6686297508415819
  0
ARC
  5
6C44
  8
0
 10
4259.0104399863303115
 20
278.6689842498976759
 30
0.0
 40
0.0460089383909681
 50
52.4591639072293603
 51
89.5998549347838349
  0
ARC
  5
6C45
  8
0
 10
4259.0105004176848524
 20
278.5836540141622777
 30
0.0
 40
0.0458280447704464
 50
270.3261696879781084
 51
307.6193868765923867
  0
ARC
  5
6C46
  8
0
 10
4248.0860508614496212
 20
280.74538924488661
 30
0.0
 40
0.0153238286276058
 50
271.5197269652164209
 51
324.4125515295974083
  0
ARC
  5
6C47
  8
0
 10
4248.0803096891222594
 20
280.7494827589276838
 30
0.0
 40
0.022374914848695
 50
324.4434958687596122
 51
0.6993149289057596
  0
ARC
  5
6C48
  8
0
 10
4248.1310058286380809
 20
280.7677521378503798
 30
0.0
 40
0.0283239113526766
 50
155.3499416051579942
 51
180.4862782436233033
  0
ARC
  5
6C49
  8
0
 10
4248.1163699741182427
 20
280.7755802179876241
 30
0.0
 40
0.0118002392667609
 50
100.1221371182365942
 51
160.2622903046379861
  0
ARC
  5
6C4A
  8
0
 10
4248.0661452769636526
 20
280.7935963117076881
 30
0.0
 40
0.0123599760167989
 50
272.8764820620759224
 51
327.9038750876709969
  0
ARC
  5
6C4B
  8
0
 10
4248.0684043476903753
 20
280.8006286500257147
 30
0.0
 40
0.0281535864721189
 50
179.372565354538807
 51
200.5462736354994036
  0
ARC
  5
6C4C
  8
0
 10
4248.1631241988761758
 20
280.8473778596062971
 30
0.0
 40
0.1336710686881419
 50
205.065408114171305
 51
206.8394429844470892
  0
ARC
  5
6C4D
  8
0
 10
4248.0535736318352065
 20
280.7920685467129829
 30
0.0
 40
0.0109506589986829
 50
207.415328417984
 51
261.0267876046004858
  0
ARC
  5
6C4E
  8
0
 10
4248.0254451228829566
 20
280.7517430184743148
 30
0.0
 40
0.0237726241668375
 50
184.7949953281010096
 51
245.7337838546964974
  0
ARC
  5
6C4F
  8
0
 10
4248.4788560823226362
 20
280.8115586552506215
 30
0.0
 40
0.0243620140488382
 50
270.2007038377280992
 51
301.3246385884755227
  0
ARC
  5
6C50
  8
0
 10
4246.0590097877557128
 20
245.5489655413070125
 30
0.0
 40
0.1499859052086769
 50
127.6800953022143972
 51
172.3264028545740985
  0
ARC
  5
6C51
  8
0
 10
4246.2057099816083792
 20
245.2839858394870873
 30
0.0
 40
0.4517057674971439
 50
92.9947032262392241
 51
121.8523145000258978
  0
ARC
  5
6C52
  8
0
 10
4246.0506541480226588
 20
244.735923558441101
 30
0.0
 40
0.141099735389263
 50
186.1520455512678041
 51
233.9796805295960098
  0
ARC
  5
6C53
  8
0
 10
4246.1846420556166777
 20
244.9348824505229061
 30
0.0
 40
0.3809117409356109
 50
235.2781383158153972
 51
270.169747164377327
  0
ARC
  5
6C54
  8
0
 10
4248.0024061591448117
 20
209.6267876477091932
 30
0.0
 40
0.0078777367445031
 50
0.0182436260523232
 51
67.9573980016542833
  0
ARC
  5
6C55
  8
0
 10
4247.5457194328164405
 20
209.6267884932784966
 30
0.0
 40
0.0078764824008077
 50
112.0364219329678974
 51
179.9879043813301962
  0
ARC
  5
6C56
  8
0
 10
4248.0292200740686894
 20
209.5692726077703867
 30
0.0
 40
0.0278563202485281
 50
119.093965011493097
 51
170.3772555365873984
  0
ARC
  5
6C57
  8
0
 10
4248.0846008726402943
 20
209.5755543161751007
 30
0.0
 40
0.0181549573725725
 50
354.8639739600429266
 51
84.131092184097767
  0
ARC
  5
6C58
  8
0
 10
4248.1212123704681289
 20
209.553836484079909
 30
0.0
 40
0.0186761876479575
 50
172.8125617178770028
 51
248.2643546243301955
  0
ARC
  5
6C59
  8
0
 10
4248.0660683810783667
 20
209.5299574908773081
 30
0.0
 40
0.0124949843446444
 50
32.4181166296796022
 51
86.8015262257972466
  0
ARC
  5
6C5A
  8
0
 10
4248.0545821086707292
 20
209.5297930002637941
 30
0.0
 40
0.0129286171483065
 50
102.1290190454432008
 51
165.9248894195839057
  0
ARC
  5
6C5B
  8
0
 10
4248.0693383697871468
 20
209.5228922586343003
 30
0.0
 40
0.0290862783775098
 50
159.7969355011773871
 51
180.284225508877995
  0
ARC
  5
6C5C
  8
0
 10
4248.4788121852379845
 20
209.5118129459168017
 30
0.0
 40
0.0246755217850241
 50
58.9985206244517784
 51
89.6999175384392657
  0
LINE
  5
6C5D
  8
0
 10
4252.0083112512902517
 20
270.004362144969889
 30
0.0
 11
4252.0083112512902517
 21
269.5319212001699043
 31
0.0
  0
LINE
  5
6C5E
  8
0
 10
4252.231022048489649
 20
270.1224723812699153
 30
0.0
 11
4252.231022048489649
 21
270.0831023024699107
 31
0.0
  0
LINE
  5
6C5F
  8
0
 10
4252.231022048489649
 20
269.4531810426698826
 30
0.0
 11
4252.231022048489649
 21
269.4138109638699916
 31
0.0
  0
LINE
  5
6C60
  8
0
 10
4252.5487806236906181
 20
270.004362144969889
 30
0.0
 11
4252.5487806236906181
 21
269.5319212001699043
 31
0.0
  0
LINE
  5
6C61
  8
0
 10
4252.6159895520895589
 20
270.004362144969889
 30
0.0
 11
4252.6159895520895589
 21
269.5319212001699043
 31
0.0
  0
LINE
  5
6C62
  8
0
 10
4252.868927394790262
 20
269.9059369481698809
 30
0.0
 11
4252.868927394790262
 21
269.6303463969699123
 31
0.0
  0
LINE
  5
6C63
  8
0
 10
4253.2169130153906735
 20
270.1224723812699153
 30
0.0
 11
4253.2169130153906735
 21
269.4138109638699916
 31
0.0
  0
LINE
  5
6C64
  8
0
 10
4253.3282684139903722
 20
269.4138109638699916
 30
0.0
 11
4253.3282684139903722
 21
270.1224723812699153
 31
0.0
  0
LINE
  5
6C65
  8
0
 10
4253.3561072636903191
 20
270.1027873418698846
 30
0.0
 11
4253.3561072636903191
 21
269.4334960032699087
 31
0.0
  0
LINE
  5
6C66
  8
0
 10
4253.2586712898901169
 20
269.3153857670699267
 30
0.0
 11
4252.3121504016899053
 21
269.3153857670699267
 31
0.0
  0
LINE
  5
6C67
  8
0
 10
4252.5487806236906181
 20
269.4531810426698826
 30
0.0
 11
4252.0755201796901019
 21
269.4531810426698826
 31
0.0
  0
LINE
  5
6C68
  8
0
 10
4252.8132496954904127
 20
269.5516062394700043
 30
0.0
 11
4252.6159895520895589
 21
269.5516062394700043
 31
0.0
  0
LINE
  5
6C69
  8
0
 10
4252.6159895520895589
 20
269.9846771056699026
 30
0.0
 11
4252.8023257971817657
 21
269.9846771056699026
 31
0.0
  0
LINE
  5
6C6A
  8
0
 10
4252.0755201796901019
 20
270.0831023024699107
 30
0.0
 11
4252.5487806236906181
 21
270.0831023024699107
 31
0.0
  0
LINE
  5
6C6B
  8
0
 10
4252.3121504016899053
 20
270.2208975780699234
 30
0.0
 11
4253.2586712898901169
 21
270.2208975780699234
 31
0.0
  0
ARC
  5
6C6C
  8
0
 10
4252.0814292810700863
 20
269.5262780592897229
 30
0.0
 40
0.07333547107517
 50
175.5867455577167959
 51
265.3783074019154924
  0
ARC
  5
6C6D
  8
0
 10
4252.0813962958673073
 20
270.0100334404813793
 30
0.0
 40
0.0733047565552042
 50
94.5977680007860471
 51
184.4371790396037909
  0
ARC
  5
6C6E
  8
0
 10
4252.5428715222124083
 20
270.0100052857658852
 30
0.0
 40
0.0733354711670959
 50
355.5867456292749011
 51
85.3783073303439011
  0
ARC
  5
6C6F
  8
0
 10
4252.4680465940064096
 20
270.006329683239187
 30
0.0
 40
0.0807580011878406
 50
358.6039427347932929
 51
71.9248366111871889
  0
ARC
  5
6C70
  8
0
 10
4252.5426023153286224
 20
269.526507841822081
 30
0.0
 40
0.0735866222088583
 50
274.8162043805514259
 51
4.2187426597843709
  0
ARC
  5
6C71
  8
0
 10
4252.4630962256442217
 20
269.5334541009378881
 30
0.0
 40
0.0856981088084252
 50
290.4961374204204958
 51
358.9750832332422874
  0
ARC
  5
6C72
  8
0
 10
4252.7941499664257208
 20
269.910224422569172
 30
0.0
 40
0.0749002418516454
 50
356.7184546296351755
 51
83.7333196767885397
  0
ARC
  5
6C73
  8
0
 10
4252.7860175943778813
 20
269.6299173609363038
 30
0.0
 40
0.0829109104780031
 50
289.1747329714124817
 51
0.2964876824324626
  0
ARC
  5
6C74
  8
0
 10
4252.3415379777979979
 20
270.1242514183888943
 30
0.0
 40
0.1105302474622357
 50
144.2096805188047881
 51
180.9222427570367984
  0
ARC
  5
6C75
  8
0
 10
4252.3162377065964392
 20
270.1404499046759042
 30
0.0
 40
0.0805514383229337
 50
92.9085257214106548
 51
143.0313286973311904
  0
ARC
  5
6C76
  8
0
 10
4253.2527137595652675
 20
270.1527624830097238
 30
0.0
 40
0.0683950535231206
 50
20.1953879717062783
 51
85.0029359461524479
  0
ARC
  5
6C77
  8
0
 10
4253.198736927288337
 20
270.1233111508993829
 30
0.0
 40
0.1295342023622422
 50
359.6289914576734077
 51
24.1824468320018511
  0
ARC
  5
6C78
  8
0
 10
4253.2516428279868705
 20
270.1075221293399977
 30
0.0
 40
0.1045716813438362
 50
357.4048794704967236
 51
59.9887743378819067
  0
ARC
  5
6C79
  8
0
 10
4252.3442119740848284
 20
269.4128720897992935
 30
0.0
 40
0.1131938193569646
 50
179.5247608140624038
 51
215.3436955171360125
  0
ARC
  5
6C7A
  8
0
 10
4252.3141940621826507
 20
269.3919844163074231
 30
0.0
 40
0.0766259069324105
 50
215.5880199086635969
 51
268.4717047802955108
  0
ARC
  5
6C7B
  8
0
 10
4253.2516027133679017
 20
269.3856079920229831
 30
0.0
 40
0.0705770901313402
 50
275.7480374353082766
 51
342.9994743179233865
  0
ARC
  5
6C7C
  8
0
 10
4253.195677600462659
 20
269.4134332472415849
 30
0.0
 40
0.1325913515340226
 50
338.5623490276425969
 51
0.163220283030323
  0
ARC
  5
6C7D
  8
0
 10
4253.2390443494623469
 20
269.43568471743788
 30
0.0
 40
0.1170833735300386
 50
303.6239947503835879
 51
358.9288710639523856
  0
ARC
  5
6C7E
  8
0
 10
4253.1164371411441607
 20
269.4110392382950749
 30
0.0
 40
0.1005140973592652
 50
287.8910610828630183
 51
1.580159549401781
  0
ARC
  5
6C7F
  8
0
 10
4253.1095125443862344
 20
270.1203476775198169
 30
0.0
 40
0.1074214854567497
 50
1.1333346954280239
 51
69.3954446722984528
  0
ARC
  5
6C80
  8
0
 10
4265.316589910615221
 20
269.4062757276416846
 30
0.0
 40
0.0940416254353261
 50
284.8753775699307766
 51
4.5958430623205739
  0
ARC
  5
6C81
  8
0
 10
4265.3214703421454033
 20
270.1334586037165195
 30
0.0
 40
0.0895353964460647
 50
7.0481009204131828
 51
77.5768802334658432
  0
ARC
  5
6C82
  8
0
 10
4264.2501142228211393
 20
269.5895217767929921
 30
0.0
 40
0.0188782236019913
 50
285.0522789221358266
 51
4.418941504362631
  0
ARC
  5
6C83
  8
0
 10
4264.2512192006443001
 20
269.9672279450613814
 30
0.0
 40
0.0178576523735711
 50
352.8073686263437025
 51
77.7214109422289141
  0
ARC
  5
6C84
  8
0
 10
4263.0118263278673112
 20
269.4059119939439029
 30
0.0
 40
0.0910293721986139
 50
175.0219635271367906
 51
263.9731023068767968
  0
ARC
  5
6C85
  8
0
 10
4264.5421135408341797
 20
270.1212360552677865
 30
0.0
 40
0.1061513150251792
 50
110.1385497516356935
 51
179.3326708804333975
  0
ARC
  5
6C86
  8
0
 10
4264.5420171414725701
 20
269.4149791252302748
 30
0.0
 40
0.1060541494882909
 50
180.6311122151190887
 51
249.897667152633403
  0
ARC
  5
6C87
  8
0
 10
4264.4281234335248882
 20
269.4328693089133253
 30
0.0
 40
0.1327237164389248
 50
188.2558761652051089
 51
242.2729032419698001
  0
ARC
  5
6C88
  8
0
 10
4264.223560394980268
 20
269.9508762427403212
 30
0.0
 40
0.0734262931706188
 50
355.6500689950495939
 51
85.2202298721636708
  0
ARC
  5
6C89
  8
0
 10
4264.2519145394053339
 20
269.5631361093330156
 30
0.0
 40
0.0509944058002491
 50
273.4878760397559176
 51
331.6082259296126722
  0
ARC
  5
6C8A
  8
0
 10
4263.0116166234711272
 20
270.130544202994372
 30
0.0
 40
0.0908356573598449
 50
95.9068024159294765
 51
185.0981317500364014
  0
LINE
  5
6C8B
  8
0
 10
4260.9676444480901409
 20
269.9256219875699117
 30
0.0
 11
4259.3393854201904105
 21
269.9256219875699117
 31
0.0
  0
LINE
  5
6C8C
  8
0
 10
4260.9676444480901409
 20
269.6106613575698816
 30
0.0
 11
4259.3393854201904105
 21
269.6106613575698816
 31
0.0
  0
ARC
  5
6C8D
  8
0
 10
4256.780677147872666
 20
282.6375659265366949
 30
0.0
 40
0.0098388951575
 50
117.2161117945199038
 51
172.2551061599073989
  0
ARC
  5
6C8F
  8
0
 10
4264.9836589874894344
 20
269.768164897564418
 30
0.0
 40
0.1468101286357501
 50
130.4929978021247052
 51
229.5335083657419943
  0
ARC
  5
6C90
  8
0
 10
4264.8597963152324155
 20
269.7675431104972859
 30
0.0
 40
0.1496848609748185
 50
315.5899619192263117
 51
47.4427112725560676
  0
ARC
  5
6C91
  8
0
 10
4264.9232262862160496
 20
269.8262525222921226
 30
0.0
 40
0.0639261748970698
 50
53.7435687196244487
 51
123.0882285617880996
  0
ARC
  5
6C92
  8
0
 10
4264.9234446772716183
 20
269.7105286924960978
 30
0.0
 40
0.0644324847116685
 50
237.0281029837576057
 51
312.1980856486467246
  0
ARC
  5
6C93
  8
0
 10
4264.793034412770794
 20
269.768120804202681
 30
0.0
 40
0.1468181914989945
 50
310.4966844163249107
 51
49.5298217514894574
  0
LINE
  5
6C94
  8
0
 10
4248.6461195275905993
 20
280.4567204128699132
 30
0.0
 11
4248.6461195275905993
 21
280.7907477617699215
 31
0.0
  0
LINE
  5
6C95
  8
0
 10
4249.8211168318903219
 20
280.7907477617699215
 30
0.0
 11
4249.8211168544903558
 21
280.456720412469906
 31
0.0
  0
LINE
  5
6C96
  8
0
 10
4249.9020120817904171
 20
280.7907477617699215
 30
0.0
 11
4249.9020120817904171
 21
280.4567204126699949
 31
0.0
  0
LINE
  5
6C97
  8
0
 10
4249.9368106438896575
 20
280.7907477617699215
 30
0.0
 11
4249.9368106438896575
 21
280.4764054520699119
 31
0.0
  0
LINE
  5
6C98
  8
0
 10
4248.7056897694901636
 20
280.3779802551699163
 30
0.0
 11
4249.8440281365901683
 21
280.3779802551699163
 31
0.0
  0
ARC
  5
6C99
  8
0
 10
4249.7300446118124455
 20
280.4630775144131007
 30
0.0
 40
0.0912938449811677
 50
291.2315035124224778
 51
356.0070680915150092
  0
ARC
  5
6C9A
  8
0
 10
4249.8364519446358827
 20
280.4402189758454256
 30
0.0
 40
0.0626981422041248
 50
276.9403522605132935
 51
317.4917754891084201
  0
ARC
  5
6C9B
  8
0
 10
4249.8083937533256176
 20
280.4548680950817925
 30
0.0
 40
0.0936366515033156
 50
322.4910345892640748
 51
1.1334974237316731
  0
ARC
  5
6C9C
  8
0
 10
4249.837716176705726
 20
280.4756156980366768
 30
0.0
 40
0.099097614188903
 50
330.3216859467243012
 51
0.456621002656319
  0
ARC
  5
6C9D
  8
0
 10
4249.87519535548563
 20
280.4524152192233828
 30
0.0
 40
0.0550709887842615
 50
277.80255903814151
 51
331.986511804106101
  0
ARC
  5
6C9E
  8
0
 10
4248.7843475690024206
 20
280.4681470551367966
 30
0.0
 40
0.1386995298698149
 50
184.7256197384758138
 51
208.2691821378761006
  0
ARC
  5
6C9F
  8
0
 10
4248.707824592281213
 20
280.4326655216405015
 30
0.0
 40
0.054726920590406
 50
213.5034791781621095
 51
267.7644022943853201
  0
ENDSEC
  0
EOF
