  0
SECTION
  2
HEADER
  9
$ACADVER
  1
AC1009
  9
$INSBASE
 10
4425.4610987758469
 20
436.14459508939387
 30
0.0
  9
$EXTMIN
 10
4424.264367503396
 20
430.45373512939392
 30
0.0
  9
$EXTMAX
 10
4426.657830048297
 20
436.14893239656573
 30
0.0
  9
$LIMMIN
 10
0.0
 20
0.0
  9
$LIMMAX
 10
11.692913385800001
 20
8.2677165353999982
  9
$ORTHOMODE
 70
     0
  9
$REGENMODE
 70
     1
  9
$FILLMODE
 70
     1
  9
$QTEXTMODE
 70
     0
  9
$MIRRTEXT
 70
     0
  9
$DRAGMODE
 70
     2
  9
$LTSCALE
 40
0.6431102362
  9
$OSMODE
 70
    19
  9
$ATTMODE
 70
     1
  9
$TEXTSIZE
 40
0.2
  9
$TRACEWID
 40
0.05
  9
$TEXTSTYLE
  7
STANDARD
  9
$CLAYER
  8
0
  9
$CELTYPE
  6
BYLAYER
  9
$CECOLOR
 62
   256
  9
$DIMSCALE
 40
1.0
  9
$DIMASZ
 40
0.1875
  9
$DIMEXO
 40
0.0625
  9
$DIMDLI
 40
0.4443307087
  9
$DIMRND
 40
0.0
  9
$DIMDLE
 40
0.0
  9
$DIMEXE
 40
0.125
  9
$DIMTP
 40
0.01
  9
$DIMTM
 40
0.01
  9
$DIMTXT
 40
2.0
  9
$DIMCEN
 40
0.1052362205
  9
$DIMTSZ
 40
0.0
  9
$DIMTOL
 70
     1
  9
$DIMLIM
 70
     0
  9
$DIMTIH
 70
     1
  9
$DIMTOH
 70
     1
  9
$DIMSE1
 70
     0
  9
$DIMSE2
 70
     0
  9
$DIMTAD
 70
     0
  9
$DIMZIN
 70
     0
  9
$DIMBLK
  1

  9
$DIMASO
 70
     1
  9
$DIMSHO
 70
     1
  9
$DIMPOST
  1
\X
  9
$DIMAPOST
  1

  9
$DIMALT
 70
     1
  9
$DIMALTD
 70
     2
  9
$DIMALTF
 40
25.399999999999999
  9
$DIMLFAC
 40
1.0
  9
$DIMTOFL
 70
     0
  9
$DIMTVP
 40
0.0
  9
$DIMTIX
 70
     0
  9
$DIMSOXD
 70
     0
  9
$DIMSAH
 70
     0
  9
$DIMBLK1
  1

  9
$DIMBLK2
  1

  9
$DIMSTYLE
  2
STANDARD
  9
$DIMCLRD
 70
     0
  9
$DIMCLRE
 70
     0
  9
$DIMCLRT
 70
     0
  9
$DIMTFAC
 40
1.0
  9
$DIMGAP
 40
0.09
  9
$LUNITS
 70
     2
  9
$LUPREC
 70
     4
  9
$SKETCHINC
 40
0.1
  9
$FILLETRAD
 40
0.0
  9
$AUNITS
 70
     0
  9
$AUPREC
 70
     0
  9
$MENU
  1
.
  9
$ELEVATION
 40
0.0
  9
$PELEVATION
 40
0.0
  9
$THICKNESS
 40
0.0
  9
$LIMCHECK
 70
     0
  9
$BLIPMODE
 70
     0
  9
$CHAMFERA
 40
0.0
  9
$CHAMFERB
 40
0.0
  9
$SKPOLY
 70
     0
  9
$TDCREATE
 40
2458060.4683680669
  9
$TDUPDATE
 40
2459206.8688781718
  9
$TDINDWG
 40
1.4395788773
  9
$TDUSRTIMER
 40
1.4395788773
  9
$USRTIMER
 70
     1
  9
$ANGBASE
 50
0.0
  9
$ANGDIR
 70
     0
  9
$PDMODE
 70
     0
  9
$PDSIZE
 40
0.3125
  9
$PLINEWID
 40
0.0
  9
$COORDS
 70
     1
  9
$SPLFRAME
 70
     0
  9
$SPLINETYPE
 70
     6
  9
$SPLINESEGS
 70
     8
  9
$ATTDIA
 70
     1
  9
$ATTREQ
 70
     1
  9
$HANDLING
 70
     1
  9
$HANDSEED
  5
1ADB6
  9
$SURFTAB1
 70
     6
  9
$SURFTAB2
 70
     6
  9
$SURFTYPE
 70
     6
  9
$SURFU
 70
     6
  9
$SURFV
 70
     6
  9
$UCSNAME
  2

  9
$UCSORG
 10
0.0
 20
0.0
 30
0.0
  9
$UCSXDIR
 10
1.0
 20
0.0
 30
0.0
  9
$UCSYDIR
 10
0.0
 20
1.0
 30
0.0
  9
$PUCSNAME
  2

  9
$PUCSORG
 10
0.0
 20
0.0
 30
0.0
  9
$PUCSXDIR
 10
1.0
 20
0.0
 30
0.0
  9
$PUCSYDIR
 10
0.0
 20
1.0
 30
0.0
  9
$USERI1
 70
     0
  9
$USERI2
 70
     0
  9
$USERI3
 70
     0
  9
$USERI4
 70
     0
  9
$USERI5
 70
     0
  9
$USERR1
 40
0.0
  9
$USERR2
 40
0.0
  9
$USERR3
 40
0.0
  9
$USERR4
 40
0.0
  9
$USERR5
 40
0.0
  9
$WORLDVIEW
 70
     1
  9
$SHADEDGE
 70
     3
  9
$SHADEDIF
 70
    70
  9
$TILEMODE
 70
     1
  9
$MAXACTVP
 70
    64
  9
$PLIMCHECK
 70
     0
  9
$PEXTMIN
 10
1.0000000000000000E+020
 20
1.0000000000000000E+020
 30
1.0000000000000000E+020
  9
$PEXTMAX
 10
-1.0000000000000000E+020
 20
-1.0000000000000000E+020
 30
-1.0000000000000000E+020
  9
$PLIMMIN
 10
0.0
 20
0.0
  9
$PLIMMAX
 10
12.0
 20
9.0
  9
$UNITMODE
 70
     0
  9
$VISRETAIN
 70
     1
  9
$PLINEGEN
 70
     0
  9
$PSLTSCALE
 70
     1
  0
ENDSEC
  0
SECTION
  2
TABLES
  0
TABLE
  2
VPORT
 70
     1
  0
VPORT
  2
*ACTIVE
 70
     0
 10
0.0
 20
0.0
 11
1.0
 21
1.0
 12
514.09574233053445
 22
300.72172866044082
 13
0.0
 23
0.0
 14
1.0
 24
1.0
 15
0.0
 25
0.0
 16
0.0
 26
0.0
 36
60.496018696580158
 17
3911.365356445312
 27
132.57960510253901
 37
0.0
 40
5.754419422463001
 41
2.3628472222222219
 42
50.0
 43
0.0
 44
0.0
 50
0.0
 51
0.0
 71
     0
 72
   100
 73
     1
 74
     1
 75
     0
 76
     0
 77
     0
 78
     0
  0
ENDTAB
  0
TABLE
  2
LTYPE
 70
     2
  0
LTYPE
  2
CONTINUOUS
 70
     0
  3
Solid line
 72
    65
 73
     0
 40
0.0
  0
LTYPE
  2
PHANTOM2
 70
     0
  3
___ _ _ ___ _ _ ___ _ _ ___ _ _
 72
    65
 73
     6
 40
1.25
 49
0.625
 49
-0.125
 49
0.125
 49
-0.125
 49
0.125
 49
-0.125
  0
ENDTAB
  0
TABLE
  2
LAYER
 70
     2
  0
LAYER
  2
0
 70
     0
 62
   255
  6
CONTINUOUS
  0
LAYER
  2
DEFPOINTS
 70
     0
 62
     7
  6
CONTINUOUS
  0
ENDTAB
  0
TABLE
  2
STYLE
 70
     1
  0
STYLE
  2
STANDARD
 70
     0
 40
0.0
 41
0.8
 50
0.0
 71
     0
 42
0.2
  3
txt
  4

  0
ENDTAB
  0
TABLE
  2
VIEW
 70
     0
  0
ENDTAB
  0
TABLE
  2
UCS
 70
     0
  0
ENDTAB
  0
TABLE
  2
APPID
 70
    11
  0
APPID
  2
ACAD
 70
     0
  0
APPID
  2
ACAD_MLEADERVER
 70
     0
  0
APPID
  2
ACAD_EXEMPT_FROM_CAD_STANDARDS
 70
     0
  0
APPID
  2
ACAD_NAV_VCDISPLAY
 70
     0
  0
APPID
  2
ACAECLAYERSTANDARD
 70
     0
  0
APPID
  2
ACCMTRANSPARENCY
 70
     0
  0
APPID
  2
ACAD_DSTYLE_DIMJAG
 70
     0
  0
APPID
  2
ACAD_DSTYLE_DIMTALN
 70
     0
  0
APPID
  2
ACDBATTR
 70
     0
  0
APPID
  2
ACADANNOTATIVE
 70
     0
  0
APPID
  2
DCO15
 70
     0
  0
ENDTAB
  0
TABLE
  2
DIMSTYLE
 70
     1
  0
DIMSTYLE
  2
STANDARD
 70
     0
  3

  4

  5

  6

  7

 40
1.0
 41
0.1875
 42
0.0625
 43
0.38
 44
0.125
 45
0.0
 46
0.0
 47
0.01
 48
0.01
140
0.15625
141
0.09
142
0.0
143
25.399999999999999
144
1.0
145
0.0
146
1.0
147
0.09
 71
     1
 72
     0
 73
     1
 74
     1
 75
     0
 76
     0
 77
     0
 78
     4
170
     0
171
     2
172
     0
173
     0
174
     0
175
     0
176
     0
177
     0
178
     0
  0
ENDTAB
  0
ENDSEC
  0
SECTION
  2
BLOCKS
  0
BLOCK
  8
0
  2
$MODEL_SPACE
 70
     0
 10
0.0
 20
0.0
 30
0.0
  3
$MODEL_SPACE
  1

  0
ENDBLK
  5
21
  8
0
  0
BLOCK
 67
     1
  8
0
  2
$PAPER_SPACE
 70
     0
 10
0.0
 20
0.0
 30
0.0
  3
$PAPER_SPACE
  1

  0
ENDBLK
  5
1D
 67
     1
  8
0
  0
ENDSEC
  0
SECTION
  2
ENTITIES
  0
ATTDEF
  5
159BF
  8
DEFPOINTS
 10
4425.4610999406577
 20
436.14793239656569
 30
0.0
 40
0.001
  1
K-20074IN-4
  3

  2
MODELNUMBER
 70
     0
1001
ACDBATTR
1070
     0
1070
     1
  0
ATTDEF
  5
159C0
  8
DEFPOINTS
 10
4425.4609741310023
 20
436.14626555618651
 30
0.0
 40
0.001
  1
ALEO
  3

  2
TRADENAME
 70
     0
1001
ACDBATTR
1070
     0
1070
     1
  0
ATTDEF
  5
159C1
  8
DEFPOINTS
 10
4425.4610999406577
 20
436.14459906323242
 30
0.0
 40
0.001
  1
BATHROOM SINK FAUCET
  3

  2
PRODUCT
 70
     0
1001
ACDBATTR
1070
     0
1070
     1
  0
LINE
  5
1AC92
  8
0
 10
4426.657830048297
 20
436.14459508939387
 30
0.0
 11
4424.264367503396
 21
436.14459508939387
 31
0.0
  0
LINE
  5
1AC93
  8
0
 10
4424.3427488356474
 20
435.90837461699402
 30
0.0
 11
4426.5794487160456
 21
435.90837461699402
 31
0.0
  0
LINE
  5
1AC94
  8
0
 10
4424.264367503396
 20
436.14459508939387
 30
0.0
 11
4424.2799964135966
 21
435.9658766173938
 31
0.0
  0
ARC
  5
1AC95
  8
0
 10
4424.3427488356438
 20
435.97136674311429
 30
0.0
 40
0.0629921261203943
 50
185.00000016536941
 51
270.00000000349138
  0
ARC
  5
1AC96
  8
0
 10
4425.4610987758433
 20
432.85758659214389
 30
0.0
 40
1.3089627273114439
 50
262.92022940339592
 51
277.07977059660419
  0
ARC
  5
1AC97
  8
0
 10
4425.3228925648764
 20
431.71578774087101
 30
0.0
 40
0.1588756734066317
 50
192.69078572972381
 51
261.63067356527131
  0
ARC
  5
1AC98
  8
0
 10
4523.9458172889072
 20
437.52645908145593
 30
0.0
 40
98.958590131580323
 50
182.1339402558925
 51
183.31430207929731
  0
ARC
  5
1AC99
  8
0
 10
4425.9855061973649
 20
431.8435915066006
 30
0.0
 40
0.8336404223705537
 50
182.62970143761919
 51
191.25503679256491
  0
ARC
  5
1AC9A
  8
0
 10
4425.232611254617
 20
434.28844002141108
 30
0.0
 40
0.1724968469540179
 50
108.11111225184391
 51
157.74205111046979
  0
ARC
  5
1AC9B
  8
0
 10
4432.9153302960076
 20
434.09915765025221
 30
0.0
 40
7.8636932506636681
 50
179.3755332399885
 51
181.8764252131709
  0
ARC
  5
1AC9C
  8
0
 10
4425.5751902669599
 20
434.20600019215573
 30
0.0
 40
0.5235130834660144
 50
163.60362519281
 51
182.3140552830067
  0
ARC
  5
1AC9D
  8
0
 10
4425.4611025915974
 20
433.91496126759392
 30
0.0
 40
0.6102400361999997
 50
309.68489989000528
 51
230.3141360074433
  0
ARC
  5
1AC9E
  8
0
 10
4425.2737536831173
 20
430.79931710235007
 30
0.0
 40
0.3305401769914805
 50
191.79895905821419
 51
262.96221260654369
  0
ARC
  5
1AC9F
  8
0
 10
4432.0493600827631
 20
431.72567957136221
 30
0.0
 40
7.1684062461447722
 50
182.11672508065971
 51
187.97014853011549
  0
ARC
  5
1ACA0
  8
0
 10
4493.0071694684066
 20
433.65925881427819
 30
0.0
 40
68.156786571588455
 50
180.2149559345678
 51
181.84835406632251
  0
ARC
  5
1ACA1
  8
0
 10
4425.4610987724991
 20
431.94300206896702
 30
0.0
 40
1.489266939573058
 50
261.1997112174023
 51
278.80028878259759
  0
LINE
  5
1ACA2
  8
0
 10
4424.8508625553968
 20
435.90837461699402
 30
0.0
 11
4424.8508625553968
 21
433.40355636096263
 31
0.0
  0
LINE
  5
1ACA3
  8
0
 10
4426.657830048297
 20
436.14459508939387
 30
0.0
 11
4426.6422011380973
 21
435.9658766173938
 31
0.0
  0
ARC
  5
1ACA4
  8
0
 10
4426.5794487160501
 20
435.97136674311429
 30
0.0
 40
0.0629921261203901
 50
269.99999999650862
 51
354.99999983463391
  0
ARC
  5
1ACA5
  8
0
 10
4425.5993049868166
 20
431.71578774087101
 30
0.0
 40
0.1588756734066317
 50
278.36932643472869
 51
347.30921427027619
  0
ARC
  5
1ACA6
  8
0
 10
4326.9763802627867
 20
437.52645908145593
 30
0.0
 40
98.958590131580323
 50
356.68569792070269
 51
357.86605974410747
  0
ARC
  5
1ACA7
  8
0
 10
4424.936691354329
 20
431.8435915066006
 30
0.0
 40
0.8336404223705537
 50
348.74496320743498
 51
357.3702985623807
  0
ARC
  5
1ACA8
  8
0
 10
4425.689586297075
 20
434.28844002141108
 30
0.0
 40
0.1724968469540179
 50
22.25794888953018
 51
71.88888774815608
  0
ARC
  5
1ACA9
  8
0
 10
4418.0068672556863
 20
434.09915765025221
 30
0.0
 40
7.8636932506636681
 50
358.12357478682901
 51
0.6244667600114383
  0
ARC
  5
1ACAA
  8
0
 10
4425.3470072847331
 20
434.20600019215573
 30
0.0
 40
0.5235130834660144
 50
357.68594471699322
 51
16.396374807189979
  0
ARC
  5
1ACAB
  8
0
 10
4425.6484438705829
 20
430.7993171012107
 30
0.0
 40
0.3305401747943206
 50
277.03778592045802
 51
348.20104106399401
  0
ARC
  5
1ACAC
  8
0
 10
4418.8728374689308
 20
431.72567957136221
 30
0.0
 40
7.1684062461447722
 50
352.02985146988442
 51
357.88327491934029
  0
ARC
  5
1ACAD
  8
0
 10
4357.9150280832873
 20
433.65925881427819
 30
0.0
 40
68.156786571588455
 50
358.15164593367751
 51
359.7850440654322
  0
LINE
  5
1ACAE
  8
0
 10
4426.0713349962962
 20
435.90837461699402
 30
0.0
 11
4426.0713349962962
 21
433.40355636096263
 31
0.0
  0
ARC
  5
1ACAF
  8
0
 10
4425.4610987758469
 20
433.38704741989721
 30
0.0
 40
1.1020626745867561
 50
75.168121249556791
 51
104.8318787504432
  0
ENDSEC
  0
EOF
