  0
SECTION
  2
HEADER
  9
$ACADVER
  1
AC1009
  9
$INSBASE
 10
4421.1642393192378
 20
434.14606624962607
 30
0.0
  9
$EXTMIN
 10
4419.9690506580328
 20
432.8468536511761
 30
0.0
  9
$EXTMAX
 10
4422.3594279804447
 20
436.8834113374262
 30
0.0
  9
$LIMMIN
 10
0.0
 20
0.0
  9
$LIMMAX
 10
11.692913385800001
 20
8.2677165353999982
  9
$ORTHOMODE
 70
     0
  9
$REGENMODE
 70
     1
  9
$FILLMODE
 70
     1
  9
$QTEXTMODE
 70
     0
  9
$MIRRTEXT
 70
     0
  9
$DRAGMODE
 70
     2
  9
$LTSCALE
 40
0.6431102362
  9
$OSMODE
 70
    19
  9
$ATTMODE
 70
     1
  9
$TEXTSIZE
 40
0.2
  9
$TRACEWID
 40
0.05
  9
$TEXTSTYLE
  7
STANDARD
  9
$CLAYER
  8
0
  9
$CELTYPE
  6
BYLAYER
  9
$CECOLOR
 62
   256
  9
$DIMSCALE
 40
1.0
  9
$DIMASZ
 40
0.1875
  9
$DIMEXO
 40
0.0625
  9
$DIMDLI
 40
0.4443307087
  9
$DIMRND
 40
0.0
  9
$DIMDLE
 40
0.0
  9
$DIMEXE
 40
0.125
  9
$DIMTP
 40
0.01
  9
$DIMTM
 40
0.01
  9
$DIMTXT
 40
2.0
  9
$DIMCEN
 40
0.1052362205
  9
$DIMTSZ
 40
0.0
  9
$DIMTOL
 70
     1
  9
$DIMLIM
 70
     0
  9
$DIMTIH
 70
     1
  9
$DIMTOH
 70
     1
  9
$DIMSE1
 70
     0
  9
$DIMSE2
 70
     0
  9
$DIMTAD
 70
     0
  9
$DIMZIN
 70
     0
  9
$DIMBLK
  1

  9
$DIMASO
 70
     1
  9
$DIMSHO
 70
     1
  9
$DIMPOST
  1
\X
  9
$DIMAPOST
  1

  9
$DIMALT
 70
     1
  9
$DIMALTD
 70
     2
  9
$DIMALTF
 40
25.399999999999999
  9
$DIMLFAC
 40
1.0
  9
$DIMTOFL
 70
     0
  9
$DIMTVP
 40
0.0
  9
$DIMTIX
 70
     0
  9
$DIMSOXD
 70
     0
  9
$DIMSAH
 70
     0
  9
$DIMBLK1
  1

  9
$DIMBLK2
  1

  9
$DIMSTYLE
  2
STANDARD
  9
$DIMCLRD
 70
     0
  9
$DIMCLRE
 70
     0
  9
$DIMCLRT
 70
     0
  9
$DIMTFAC
 40
1.0
  9
$DIMGAP
 40
0.09
  9
$LUNITS
 70
     2
  9
$LUPREC
 70
     4
  9
$SKETCHINC
 40
0.1
  9
$FILLETRAD
 40
0.0
  9
$AUNITS
 70
     0
  9
$AUPREC
 70
     0
  9
$MENU
  1
.
  9
$ELEVATION
 40
0.0
  9
$PELEVATION
 40
0.0
  9
$THICKNESS
 40
0.0
  9
$LIMCHECK
 70
     0
  9
$BLIPMODE
 70
     0
  9
$CHAMFERA
 40
0.0
  9
$CHAMFERB
 40
0.0
  9
$SKPOLY
 70
     0
  9
$TDCREATE
 40
2458060.4683680669
  9
$TDUPDATE
 40
2459206.8563231248
  9
$TDINDWG
 40
1.4421447106
  9
$TDUSRTIMER
 40
1.4421447106
  9
$USRTIMER
 70
     1
  9
$ANGBASE
 50
0.0
  9
$ANGDIR
 70
     0
  9
$PDMODE
 70
     0
  9
$PDSIZE
 40
0.3125
  9
$PLINEWID
 40
0.0
  9
$COORDS
 70
     1
  9
$SPLFRAME
 70
     0
  9
$SPLINETYPE
 70
     6
  9
$SPLINESEGS
 70
     8
  9
$ATTDIA
 70
     1
  9
$ATTREQ
 70
     1
  9
$HANDLING
 70
     1
  9
$HANDSEED
  5
1C420
  9
$SURFTAB1
 70
     6
  9
$SURFTAB2
 70
     6
  9
$SURFTYPE
 70
     6
  9
$SURFU
 70
     6
  9
$SURFV
 70
     6
  9
$UCSNAME
  2

  9
$UCSORG
 10
0.0
 20
0.0
 30
0.0
  9
$UCSXDIR
 10
1.0
 20
0.0
 30
0.0
  9
$UCSYDIR
 10
0.0
 20
1.0
 30
0.0
  9
$PUCSNAME
  2

  9
$PUCSORG
 10
0.0
 20
0.0
 30
0.0
  9
$PUCSXDIR
 10
1.0
 20
0.0
 30
0.0
  9
$PUCSYDIR
 10
0.0
 20
1.0
 30
0.0
  9
$USERI1
 70
     0
  9
$USERI2
 70
     0
  9
$USERI3
 70
     0
  9
$USERI4
 70
     0
  9
$USERI5
 70
     0
  9
$USERR1
 40
0.0
  9
$USERR2
 40
0.0
  9
$USERR3
 40
0.0
  9
$USERR4
 40
0.0
  9
$USERR5
 40
0.0
  9
$WORLDVIEW
 70
     1
  9
$SHADEDGE
 70
     3
  9
$SHADEDIF
 70
    70
  9
$TILEMODE
 70
     1
  9
$MAXACTVP
 70
    64
  9
$PLIMCHECK
 70
     0
  9
$PEXTMIN
 10
1.0000000000000000E+020
 20
1.0000000000000000E+020
 30
1.0000000000000000E+020
  9
$PEXTMAX
 10
-1.0000000000000000E+020
 20
-1.0000000000000000E+020
 30
-1.0000000000000000E+020
  9
$PLIMMIN
 10
0.0
 20
0.0
  9
$PLIMMAX
 10
12.0
 20
9.0
  9
$UNITMODE
 70
     0
  9
$VISRETAIN
 70
     1
  9
$PLINEGEN
 70
     0
  9
$PSLTSCALE
 70
     1
  0
ENDSEC
  0
SECTION
  2
TABLES
  0
TABLE
  2
VPORT
 70
     1
  0
VPORT
  2
*ACTIVE
 70
     0
 10
0.0
 20
0.0
 11
1.0
 21
1.0
 12
509.79888287392617
 22
302.28552739176212
 13
0.0
 23
0.0
 14
1.0
 24
1.0
 15
0.0
 25
0.0
 16
0.0
 26
0.0
 36
60.496018696580158
 17
3911.365356445312
 27
132.57960510253901
 37
0.0
 40
4.0785322895733307
 41
2.3628472222222219
 42
50.0
 43
0.0
 44
0.0
 50
0.0
 51
0.0
 71
     0
 72
   100
 73
     1
 74
     1
 75
     0
 76
     0
 77
     0
 78
     0
  0
ENDTAB
  0
TABLE
  2
LTYPE
 70
     2
  0
LTYPE
  2
CONTINUOUS
 70
     0
  3
Solid line
 72
    65
 73
     0
 40
0.0
  0
LTYPE
  2
PHANTOM2
 70
     0
  3
___ _ _ ___ _ _ ___ _ _ ___ _ _
 72
    65
 73
     6
 40
1.25
 49
0.625
 49
-0.125
 49
0.125
 49
-0.125
 49
0.125
 49
-0.125
  0
ENDTAB
  0
TABLE
  2
LAYER
 70
     2
  0
LAYER
  2
0
 70
     0
 62
   255
  6
CONTINUOUS
  0
LAYER
  2
DEFPOINTS
 70
     0
 62
     7
  6
CONTINUOUS
  0
ENDTAB
  0
TABLE
  2
STYLE
 70
     1
  0
STYLE
  2
STANDARD
 70
     0
 40
0.0
 41
0.8
 50
0.0
 71
     0
 42
0.2
  3
txt
  4

  0
ENDTAB
  0
TABLE
  2
VIEW
 70
     0
  0
ENDTAB
  0
TABLE
  2
UCS
 70
     0
  0
ENDTAB
  0
TABLE
  2
APPID
 70
    11
  0
APPID
  2
ACAD
 70
     0
  0
APPID
  2
ACAD_MLEADERVER
 70
     0
  0
APPID
  2
ACAD_EXEMPT_FROM_CAD_STANDARDS
 70
     0
  0
APPID
  2
ACAD_NAV_VCDISPLAY
 70
     0
  0
APPID
  2
ACAECLAYERSTANDARD
 70
     0
  0
APPID
  2
ACCMTRANSPARENCY
 70
     0
  0
APPID
  2
ACAD_DSTYLE_DIMJAG
 70
     0
  0
APPID
  2
ACAD_DSTYLE_DIMTALN
 70
     0
  0
APPID
  2
ACDBATTR
 70
     0
  0
APPID
  2
ACADANNOTATIVE
 70
     0
  0
APPID
  2
DCO15
 70
     0
  0
ENDTAB
  0
TABLE
  2
DIMSTYLE
 70
     1
  0
DIMSTYLE
  2
STANDARD
 70
     0
  3

  4

  5

  6

  7

 40
1.0
 41
0.1875
 42
0.0625
 43
0.38
 44
0.125
 45
0.0
 46
0.0
 47
0.01
 48
0.01
140
0.15625
141
0.09
142
0.0
143
25.399999999999999
144
1.0
145
0.0
146
1.0
147
0.09
 71
     1
 72
     0
 73
     1
 74
     1
 75
     0
 76
     0
 77
     0
 78
     4
170
     0
171
     2
172
     0
173
     0
174
     0
175
     0
176
     0
177
     0
178
     0
  0
ENDTAB
  0
ENDSEC
  0
SECTION
  2
BLOCKS
  0
BLOCK
  8
0
  2
$MODEL_SPACE
 70
     0
 10
0.0
 20
0.0
 30
0.0
  3
$MODEL_SPACE
  1

  0
ENDBLK
  5
21
  8
0
  0
BLOCK
 67
     1
  8
0
  2
$PAPER_SPACE
 70
     0
 10
0.0
 20
0.0
 30
0.0
  3
$PAPER_SPACE
  1

  0
ENDBLK
  5
1D
 67
     1
  8
0
  0
ENDSEC
  0
SECTION
  2
ENTITIES
  0
ATTDEF
  5
159BF
  8
DEFPOINTS
 10
4421.1642391875948
 20
434.14940091292158
 30
0.0
 40
0.001
  1
K-20076IN-4
  3

  2
MODELNUMBER
 70
     0
1001
ACDBATTR
1070
     0
1070
     1
  0
ATTDEF
  5
159C0
  8
DEFPOINTS
 10
4421.1641133779394
 20
434.14773407254251
 30
0.0
 40
0.001
  1
ALEO
  3

  2
TRADENAME
 70
     0
1001
ACDBATTR
1070
     0
1070
     1
  0
ATTDEF
  5
159C1
  8
DEFPOINTS
 10
4421.1642391875948
 20
434.14606757958819
 30
0.0
 40
0.001
  1
BATHROOM SINK FAUCET
  3

  2
PRODUCT
 70
     0
1001
ACDBATTR
1070
     0
1070
     1
  0
LINE
  5
1BD90
  8
0
 10
4420.4752606489892
 20
435.46862052097612
 30
0.0
 11
4421.8532179894892
 21
435.46862052097612
 31
0.0
  0
LINE
  5
1BD91
  8
0
 10
4420.4752606489892
 20
435.42925044217611
 30
0.0
 11
4421.8532179894892
 21
435.42925044217611
 31
0.0
  0
LINE
  5
1BD92
  8
0
 10
4421.518570027888
 20
432.8468536511761
 30
0.0
 11
4420.8099086105894
 21
432.8468536511761
 31
0.0
  0
LINE
  5
1BD93
  8
0
 10
4420.5421748951221
 20
433.3980347535761
 30
0.0
 11
4421.7863040627662
 21
433.3980347535761
 31
0.0
  0
LINE
  5
1BD94
  8
0
 10
4421.7707819324878
 20
434.36800650297607
 30
0.0
 11
4420.5576967059887
 21
434.36800650297607
 31
0.0
  0
LINE
  5
1BD95
  8
0
 10
4420.4752606489892
 20
435.548223033076
 30
0.0
 11
4420.4752606489892
 21
435.46862052097612
 31
0.0
  0
LINE
  5
1BD96
  8
0
 10
4420.4752606489892
 20
435.42925044217611
 30
0.0
 11
4420.4752606489892
 21
434.14605614259398
 31
0.0
  0
LINE
  5
1BD97
  8
0
 10
4420.7508534924891
 20
432.9059087692761
 30
0.0
 11
4420.7508534924891
 21
432.93543932279351
 31
0.0
  0
LINE
  5
1BD98
  8
0
 10
4420.7508534924891
 20
432.95511978447593
 30
0.0
 11
4420.7508534924891
 21
432.9748094015934
 31
0.0
  0
LINE
  5
1BD99
  8
0
 10
4420.7508534924891
 20
432.99448986327582
 30
0.0
 11
4420.7508534924891
 21
433.01417948029348
 31
0.0
  0
LINE
  5
1BD9A
  8
0
 10
4420.7508534924891
 20
433.03385994197589
 30
0.0
 11
4420.7508534924891
 21
433.05354955909348
 31
0.0
  0
LINE
  5
1BD9B
  8
0
 10
4420.7508534924891
 20
433.0732300207759
 30
0.0
 11
4420.7508534924891
 21
433.0929196377935
 31
0.0
  0
LINE
  5
1BD9C
  8
0
 10
4420.7508534924891
 20
433.11260009947591
 30
0.0
 11
4420.7508534924891
 21
433.13228971637608
 31
0.0
  0
LINE
  5
1BD9D
  8
0
 10
4420.7508534924891
 20
433.15197017817587
 30
0.0
 11
4420.7508534924891
 21
433.17165979517608
 31
0.0
  0
LINE
  5
1BD9E
  8
0
 10
4420.7508534924891
 20
433.19134025697582
 30
0.0
 11
4420.7508534924891
 21
433.21102987387599
 31
0.0
  0
LINE
  5
1BD9F
  8
0
 10
4420.7508534924891
 20
433.23071033567578
 30
0.0
 11
4420.7508534924891
 21
433.25039995267599
 31
0.0
  0
LINE
  5
1BDA0
  8
0
 10
4420.7508534924891
 20
433.27008041447579
 30
0.0
 11
4420.7508534924891
 21
433.28977003136248
 31
0.0
  0
LINE
  5
1BDA1
  8
0
 10
4420.7508534924891
 20
433.30945049316227
 30
0.0
 11
4420.7508534924891
 21
433.3980347535761
 31
0.0
  0
LINE
  5
1BDA2
  8
0
 10
4420.7509869996893
 20
433.26992240787598
 30
0.0
 11
4420.7677524844894
 21
433.26023947797609
 31
0.0
  0
LINE
  5
1BDA3
  8
0
 10
4420.7677524844894
 20
433.26023947797609
 30
0.0
 11
4420.7509867428889
 21
433.25055639977609
 31
0.0
  0
ARC
  5
1BDA4
  8
0
 10
4421.5774648925808
 20
433.27008482657612
 30
0.0
 40
0.0001602534074105
 50
279.60562574494872
 51
80.394374255051375
  0
LINE
  5
1BDA5
  8
0
 10
4421.5775084295892
 20
433.28961529307611
 30
0.0
 11
4421.5776251459893
 21
433.28976405537611
 31
0.0
  0
ARC
  5
1BDA6
  8
0
 10
4421.2776385443867
 20
419.6213629289872
 30
0.0
 40
13.65903232473161
 50
90.475683158512908
 51
92.209702095271709
  0
ARC
  5
1BDA7
  8
0
 10
4421.0511593139136
 20
446.9191946476983
 30
0.0
 40
13.639738882233621
 50
270.47501505217031
 51
272.21155793172392
  0
LINE
  5
1BDA8
  8
0
 10
4421.5776251459893
 20
433.3980347535761
 30
0.0
 11
4421.5776251459893
 21
433.32913413406249
 31
0.0
  0
LINE
  5
1BDA9
  8
0
 10
4421.5776251459893
 20
433.3094549052625
 30
0.0
 11
4421.5776251459893
 21
433.28976405537611
 31
0.0
  0
LINE
  5
1BDAA
  8
0
 10
4421.5776251459893
 20
433.27008482657612
 30
0.0
 11
4421.5776251459893
 21
433.25039397657611
 31
0.0
  0
LINE
  5
1BDAB
  8
0
 10
4421.5776251459893
 20
433.23071474777612
 30
0.0
 11
4421.5776251459893
 21
433.21102389787609
 31
0.0
  0
LINE
  5
1BDAC
  8
0
 10
4421.5776251459893
 20
433.19134466907599
 30
0.0
 11
4421.5776251459893
 21
433.17165381907603
 31
0.0
  0
LINE
  5
1BDAD
  8
0
 10
4421.5776251459893
 20
433.1519745902761
 30
0.0
 11
4421.5776251459893
 21
433.13228374050362
 31
0.0
  0
LINE
  5
1BDAE
  8
0
 10
4421.5776251459893
 20
433.1126072273114
 30
0.0
 11
4421.5776251459893
 21
433.09291366180349
 31
0.0
  0
LINE
  5
1BDAF
  8
0
 10
4421.5776251459893
 20
433.07323443287612
 30
0.0
 11
4421.5776251459893
 21
433.05354358300349
 31
0.0
  0
LINE
  5
1BDB0
  8
0
 10
4421.5776251459893
 20
433.03386435407612
 30
0.0
 11
4421.5776251459893
 21
433.01417350430353
 31
0.0
  0
LINE
  5
1BDB1
  8
0
 10
4421.5776251459893
 20
432.9944942753761
 30
0.0
 11
4421.5776251459893
 21
432.97480342550352
 31
0.0
  0
LINE
  5
1BDB2
  8
0
 10
4421.5776251459893
 20
432.95512419657598
 30
0.0
 11
4421.5776251459893
 21
432.93543334666521
 31
0.0
  0
LINE
  5
1BDB3
  8
0
 10
4421.5776251459893
 20
432.91575411786249
 30
0.0
 11
4421.5776251459893
 21
432.9059087692761
 31
0.0
  0
ARC
  5
1BDB4
  8
0
 10
4421.2778659655332
 20
419.58770389312082
 30
0.0
 40
13.673007728143411
 50
90.476149969104455
 51
92.208397181420864
  0
ARC
  5
1BDB5
  8
0
 10
4421.5592187743387
 20
433.2822432686458
 30
0.0
 40
0.0027105225964837
 50
279.36395472989199
 51
301.78754159883948
  0
LINE
  5
1BDB6
  8
0
 10
4421.5775084295892
 20
433.28961529307611
 30
0.0
 11
4421.5606465989886
 21
433.27993930477612
 31
0.0
  0
LINE
  5
1BDB7
  8
0
 10
4421.5606465989886
 20
433.27993930477612
 30
0.0
 11
4421.5774916333557
 21
433.27024283317581
 31
0.0
  0
LINE
  5
1BDB8
  8
0
 10
4421.1642393192878
 20
433.26023947797609
 30
0.0
 11
4421.3710506261377
 21
433.26352285108061
 31
0.0
  0
LINE
  5
1BDB9
  8
0
 10
4421.3710506261377
 20
433.26352285108061
 30
0.0
 11
4421.5774916333557
 21
433.26992681997632
 31
0.0
  0
ARC
  5
1BDBA
  8
0
 10
4420.7510137469853
 20
433.27008041447579
 30
0.0
 40
0.0001602544957342
 50
99.607924642110817
 51
260.39207535683221
  0
LINE
  5
1BDBB
  8
0
 10
4420.7509867428889
 20
433.25055639977609
 30
0.0
 11
4420.7508534924891
 21
433.25039995267599
 31
0.0
  0
ARC
  5
1BDBC
  8
0
 10
4420.7693256007551
 20
433.25790002990129
 30
0.0
 40
0.0028191686859011
 50
102.17877425494051
 51
123.91809017345111
  0
ARC
  5
1BDBD
  8
0
 10
4421.3050826158287
 20
419.18348202256772
 30
0.0
 40
14.08738774139956
 50
90.572894635665534
 51
92.181960321310385
  0
ARC
  5
1BDBE
  8
0
 10
4421.0741030202807
 20
445.37928278180709
 30
0.0
 40
12.10945259940107
 50
270.4264230127938
 51
272.29802410444671
  0
LINE
  5
1BDBF
  8
0
 10
4420.7509869996893
 20
433.30929248656253
 30
0.0
 11
4420.7677524844894
 21
433.29960955666257
 31
0.0
  0
LINE
  5
1BDC0
  8
0
 10
4420.7677524844894
 20
433.29960955666257
 30
0.0
 11
4420.7509867428889
 21
433.28992647846252
 31
0.0
  0
ARC
  5
1BDC1
  8
0
 10
4421.5774648925808
 20
433.3094549052625
 30
0.0
 40
0.00016025340741
 50
279.60562574399722
 51
80.394374256108335
  0
LINE
  5
1BDC2
  8
0
 10
4421.5775084295892
 20
433.32898537176249
 30
0.0
 11
4421.5776251459893
 21
433.32913413406249
 31
0.0
  0
ARC
  5
1BDC3
  8
0
 10
4421.2776385443867
 20
419.66073300767368
 30
0.0
 40
13.65903232473161
 50
90.475683158512908
 51
92.209702095271709
  0
ARC
  5
1BDC4
  8
0
 10
4421.0511593139136
 20
446.95856472638479
 30
0.0
 40
13.639738882233621
 50
270.47501505217031
 51
272.21155793172392
  0
ARC
  5
1BDC5
  8
0
 10
4421.2778659655332
 20
419.62707397180719
 30
0.0
 40
13.673007728143411
 50
90.476149969104455
 51
92.208397181420864
  0
ARC
  5
1BDC6
  8
0
 10
4421.5592187743387
 20
433.32161334733229
 30
0.0
 40
0.0027105225964837
 50
279.36395472989199
 51
301.78754159883948
  0
LINE
  5
1BDC7
  8
0
 10
4421.5775084295892
 20
433.32898537176249
 30
0.0
 11
4421.5606465989886
 21
433.3193093834625
 31
0.0
  0
LINE
  5
1BDC8
  8
0
 10
4421.5606465989886
 20
433.3193093834625
 30
0.0
 11
4421.5774916333557
 21
433.3096129118623
 31
0.0
  0
LINE
  5
1BDC9
  8
0
 10
4421.1642393192878
 20
433.29960955666257
 30
0.0
 11
4421.3710506261377
 21
433.3028929297671
 31
0.0
  0
LINE
  5
1BDCA
  8
0
 10
4421.3710506261377
 20
433.3028929297671
 30
0.0
 11
4421.5774916333557
 21
433.30929689866281
 31
0.0
  0
ARC
  5
1BDCB
  8
0
 10
4420.7510137469853
 20
433.30945049316227
 30
0.0
 40
0.0001602544957342
 50
99.607924642110817
 51
260.39207535683221
  0
LINE
  5
1BDCC
  8
0
 10
4420.7509867428889
 20
433.28992647846252
 30
0.0
 11
4420.7508534924891
 21
433.28977003136248
 31
0.0
  0
ARC
  5
1BDCD
  8
0
 10
4420.7693256007551
 20
433.29727010858772
 30
0.0
 40
0.0028191686859011
 50
102.17877425494051
 51
123.91809017345111
  0
ARC
  5
1BDCE
  8
0
 10
4421.3050826158287
 20
419.2228521012542
 30
0.0
 40
14.08738774139956
 50
90.572894635665534
 51
92.181960321310385
  0
ARC
  5
1BDCF
  8
0
 10
4421.0741030202807
 20
445.41865286049358
 30
0.0
 40
12.10945259940107
 50
270.4264230127938
 51
272.29802410444671
  0
LINE
  5
1BDD0
  8
0
 10
4420.7509869996893
 20
433.23055232907609
 30
0.0
 11
4420.7677524844894
 21
433.22086939917608
 31
0.0
  0
LINE
  5
1BDD1
  8
0
 10
4420.7677524844894
 20
433.22086939917608
 30
0.0
 11
4420.7509867428889
 21
433.21118632097608
 31
0.0
  0
ARC
  5
1BDD2
  8
0
 10
4421.5774648925808
 20
433.23071474777612
 30
0.0
 40
0.0001602534074125
 50
279.60562574737997
 51
80.394374252513956
  0
LINE
  5
1BDD3
  8
0
 10
4421.5775084295892
 20
433.25024521427611
 30
0.0
 11
4421.5776251459893
 21
433.25039397657611
 31
0.0
  0
ARC
  5
1BDD4
  8
0
 10
4421.2776385443867
 20
419.58199285018719
 30
0.0
 40
13.65903232473161
 50
90.475683158512908
 51
92.209702095271709
  0
ARC
  5
1BDD5
  8
0
 10
4421.0511593139136
 20
446.8798245688983
 30
0.0
 40
13.639738882233621
 50
270.47501505217031
 51
272.21155793172392
  0
ARC
  5
1BDD6
  8
0
 10
4421.2778659655332
 20
419.54833381432081
 30
0.0
 40
13.673007728143411
 50
90.476149969104455
 51
92.208397181420864
  0
ARC
  5
1BDD7
  8
0
 10
4421.5592187743387
 20
433.2428731898458
 30
0.0
 40
0.0027105225964837
 50
279.36395472989199
 51
301.78754159883948
  0
LINE
  5
1BDD8
  8
0
 10
4421.5775084295892
 20
433.25024521427611
 30
0.0
 11
4421.5606465989886
 21
433.24056922597612
 31
0.0
  0
LINE
  5
1BDD9
  8
0
 10
4421.5606465989886
 20
433.24056922597612
 30
0.0
 11
4421.5774916333557
 21
433.23087275437592
 31
0.0
  0
LINE
  5
1BDDA
  8
0
 10
4421.1642393192878
 20
433.22086939917608
 30
0.0
 11
4421.3710506261377
 21
433.2241527722806
 31
0.0
  0
LINE
  5
1BDDB
  8
0
 10
4421.3710506261377
 20
433.2241527722806
 30
0.0
 11
4421.5774916333557
 21
433.23055674117631
 31
0.0
  0
ARC
  5
1BDDC
  8
0
 10
4420.7510137469853
 20
433.23071033567578
 30
0.0
 40
0.0001602544957333
 50
99.607924642163852
 51
260.3920753568853
  0
LINE
  5
1BDDD
  8
0
 10
4420.7509867428889
 20
433.21118632097608
 30
0.0
 11
4420.7508534924891
 21
433.21102987387599
 31
0.0
  0
ARC
  5
1BDDE
  8
0
 10
4420.7693256007551
 20
433.21852995110129
 30
0.0
 40
0.0028191686859011
 50
102.17877425494051
 51
123.91809017345111
  0
ARC
  5
1BDDF
  8
0
 10
4421.3050826158287
 20
419.14411194376771
 30
0.0
 40
14.08738774139956
 50
90.572894635665534
 51
92.181960321310385
  0
ARC
  5
1BDE0
  8
0
 10
4421.0741030202807
 20
445.33991270300709
 30
0.0
 40
12.10945259940107
 50
270.4264230127938
 51
272.29802410444671
  0
LINE
  5
1BDE1
  8
0
 10
4420.7509869996893
 20
433.19118225037607
 30
0.0
 11
4420.7677524844894
 21
433.18149932047612
 31
0.0
  0
LINE
  5
1BDE2
  8
0
 10
4420.7677524844894
 20
433.18149932047612
 30
0.0
 11
4420.7509867428889
 21
433.17181624227601
 31
0.0
  0
ARC
  5
1BDE3
  8
0
 10
4421.5774648925808
 20
433.19134466907599
 30
0.0
 40
0.0001602534074117
 50
279.60562574743301
 51
80.394374252566976
  0
LINE
  5
1BDE4
  8
0
 10
4421.5775084295892
 20
433.21087513557609
 30
0.0
 11
4421.5776251459893
 21
433.21102389787609
 31
0.0
  0
ARC
  5
1BDE5
  8
0
 10
4421.2776385443867
 20
419.54262277148729
 30
0.0
 40
13.65903232473161
 50
90.475683158512908
 51
92.209702095271709
  0
ARC
  5
1BDE6
  8
0
 10
4421.0511593139136
 20
446.84045449019828
 30
0.0
 40
13.639738882233621
 50
270.47501505217031
 51
272.21155793172392
  0
ARC
  5
1BDE7
  8
0
 10
4421.2778659655332
 20
419.5089637356208
 30
0.0
 40
13.673007728143411
 50
90.476149969104455
 51
92.208397181420864
  0
ARC
  5
1BDE8
  8
0
 10
4421.5592187743387
 20
433.20350311114578
 30
0.0
 40
0.0027105225964837
 50
279.36395472989199
 51
301.78754159883948
  0
LINE
  5
1BDE9
  8
0
 10
4421.5775084295892
 20
433.21087513557609
 30
0.0
 11
4421.5606465989886
 21
433.2011991472761
 31
0.0
  0
LINE
  5
1BDEA
  8
0
 10
4421.5606465989886
 20
433.2011991472761
 30
0.0
 11
4421.5774916333557
 21
433.19150267567579
 31
0.0
  0
LINE
  5
1BDEB
  8
0
 10
4421.1642393192878
 20
433.18149932047612
 30
0.0
 11
4421.3710506261377
 21
433.18478269358059
 31
0.0
  0
LINE
  5
1BDEC
  8
0
 10
4421.3710506261377
 20
433.18478269358059
 30
0.0
 11
4421.5774916333557
 21
433.1911866624763
 31
0.0
  0
ARC
  5
1BDED
  8
0
 10
4420.7510137469853
 20
433.19134025697582
 30
0.0
 40
0.0001602544957343
 50
99.607924642427804
 51
260.39207535656823
  0
LINE
  5
1BDEE
  8
0
 10
4420.7509867428889
 20
433.17181624227601
 30
0.0
 11
4420.7508534924891
 21
433.17165979517608
 31
0.0
  0
ARC
  5
1BDEF
  8
0
 10
4420.7693256007551
 20
433.17915987240133
 30
0.0
 40
0.0028191686859011
 50
102.17877425494051
 51
123.91809017345111
  0
ARC
  5
1BDF0
  8
0
 10
4421.3050826158287
 20
419.10474186506769
 30
0.0
 40
14.08738774139956
 50
90.572894635665534
 51
92.181960321310385
  0
ARC
  5
1BDF1
  8
0
 10
4421.0741030202807
 20
445.30054262430718
 30
0.0
 40
12.10945259940107
 50
270.4264230127938
 51
272.29802410444671
  0
LINE
  5
1BDF2
  8
0
 10
4420.7509869996893
 20
433.15181217157613
 30
0.0
 11
4420.7677524844894
 21
433.14212924167612
 31
0.0
  0
LINE
  5
1BDF3
  8
0
 10
4420.7677524844894
 20
433.14212924167612
 30
0.0
 11
4420.7509867428889
 21
433.13244616347612
 31
0.0
  0
ARC
  5
1BDF4
  8
0
 10
4421.5774648925808
 20
433.1519745902761
 30
0.0
 40
0.0001602534074118
 50
279.60562574775003
 51
80.394374252250003
  0
LINE
  5
1BDF5
  8
0
 10
4421.5775084295892
 20
433.17150505677608
 30
0.0
 11
4421.5776251459893
 21
433.17165381907608
 31
0.0
  0
ARC
  5
1BDF6
  8
0
 10
4421.2776385443867
 20
419.50325269268728
 30
0.0
 40
13.65903232473161
 50
90.475683158512908
 51
92.209702095271709
  0
ARC
  5
1BDF7
  8
0
 10
4421.0511593139136
 20
446.80108441139828
 30
0.0
 40
13.639738882233621
 50
270.47501505217031
 51
272.21155793172392
  0
ARC
  5
1BDF8
  8
0
 10
4421.2778659655332
 20
419.46959365682079
 30
0.0
 40
13.673007728143411
 50
90.476149969104455
 51
92.208397181420864
  0
ARC
  5
1BDF9
  8
0
 10
4421.5592187743387
 20
433.16413303234577
 30
0.0
 40
0.0027105225964837
 50
279.36395472989199
 51
301.78754159883948
  0
LINE
  5
1BDFA
  8
0
 10
4421.5775084295892
 20
433.17150505677608
 30
0.0
 11
4421.5606465989886
 21
433.1618290684761
 31
0.0
  0
LINE
  5
1BDFB
  8
0
 10
4421.5606465989886
 20
433.1618290684761
 30
0.0
 11
4421.5774916333557
 21
433.1521325968759
 31
0.0
  0
LINE
  5
1BDFC
  8
0
 10
4421.1642393192878
 20
433.14212924167612
 30
0.0
 11
4421.3710506261377
 21
433.14541261478058
 31
0.0
  0
LINE
  5
1BDFD
  8
0
 10
4421.3710506261377
 20
433.14541261478058
 30
0.0
 11
4421.5774916333557
 21
433.15181658367629
 31
0.0
  0
ARC
  5
1BDFE
  8
0
 10
4420.7510137469853
 20
433.15197017817587
 30
0.0
 40
0.0001602544957326
 50
99.607924642533817
 51
260.39207535662121
  0
LINE
  5
1BDFF
  8
0
 10
4420.7509867428889
 20
433.13244616347612
 30
0.0
 11
4420.7508534924891
 21
433.13228971637608
 31
0.0
  0
ARC
  5
1BE00
  8
0
 10
4420.7693256007551
 20
433.13978979360132
 30
0.0
 40
0.0028191686859011
 50
102.17877425494051
 51
123.91809017345111
  0
ARC
  5
1BE01
  8
0
 10
4421.3050826158287
 20
419.06537178626769
 30
0.0
 40
14.08738774139956
 50
90.572894635665534
 51
92.181960321310385
  0
ARC
  5
1BE02
  8
0
 10
4421.0741030202807
 20
445.26117254550718
 30
0.0
 40
12.10945259940107
 50
270.4264230127938
 51
272.29802410444671
  0
LINE
  5
1BE03
  8
0
 10
4420.7509869995893
 20
433.11244209287611
 30
0.0
 11
4420.7677524843903
 21
433.10275916297599
 31
0.0
  0
LINE
  5
1BE04
  8
0
 10
4420.7677524843903
 20
433.10275916297599
 30
0.0
 11
4420.750986742788
 21
433.0930760847761
 31
0.0
  0
ARC
  5
1BE05
  8
0
 10
4421.5774649202212
 20
433.11260451157608
 30
0.0
 40
0.000160248780905
 50
279.59584659307808
 51
80.404153407027891
  0
LINE
  5
1BE06
  8
0
 10
4421.5775084294883
 20
433.13213497807612
 30
0.0
 11
4421.5776251459893
 21
433.13228374050362
 31
0.0
  0
ARC
  5
1BE07
  8
0
 10
4421.2776385442858
 20
419.46388261398732
 30
0.0
 40
13.65903232473161
 50
90.475683158512908
 51
92.209702095271709
  0
ARC
  5
1BE08
  8
0
 10
4421.0511593138144
 20
446.76171433269832
 30
0.0
 40
13.639738882233621
 50
270.47501505217031
 51
272.21155793172392
  0
ARC
  5
1BE09
  8
0
 10
4421.2778659654332
 20
419.43022357812089
 30
0.0
 40
13.673007728143411
 50
90.476149969104455
 51
92.208397181420864
  0
ARC
  5
1BE0A
  8
0
 10
4421.5592187742377
 20
433.12476295364581
 30
0.0
 40
0.0027105225964837
 50
279.36395472989199
 51
301.78754159883948
  0
LINE
  5
1BE0B
  8
0
 10
4421.5775084294883
 20
433.13213497807612
 30
0.0
 11
4421.5606465988903
 21
433.12245898977608
 31
0.0
  0
LINE
  5
1BE0C
  8
0
 10
4421.5606465988903
 20
433.12245898977608
 30
0.0
 11
4421.5774916332548
 21
433.11276251817588
 31
0.0
  0
LINE
  5
1BE0D
  8
0
 10
4421.1642393191887
 20
433.10275916297599
 30
0.0
 11
4421.3710506260377
 21
433.10604253608062
 31
0.0
  0
LINE
  5
1BE0E
  8
0
 10
4421.3710506260377
 20
433.10604253608062
 30
0.0
 11
4421.5774916332548
 21
433.11244650497628
 31
0.0
  0
ARC
  5
1BE0F
  8
0
 10
4420.7510137468853
 20
433.11260009947591
 30
0.0
 40
0.0001602544957342
 50
99.607924642110817
 51
260.39207535683221
  0
LINE
  5
1BE10
  8
0
 10
4420.750986742788
 20
433.0930760847761
 30
0.0
 11
4420.7508534923882
 21
433.09291963767612
 31
0.0
  0
ARC
  5
1BE11
  8
0
 10
4420.7693256006542
 20
433.10041971490119
 30
0.0
 40
0.0028191686859011
 50
102.17877425494051
 51
123.91809017345111
  0
ARC
  5
1BE12
  8
0
 10
4421.3050826157296
 20
419.02600170756767
 30
0.0
 40
14.08738774139956
 50
90.572894635665534
 51
92.181960321310385
  0
ARC
  5
1BE13
  8
0
 10
4421.0741030201798
 20
445.22180246680711
 30
0.0
 40
12.10945259940107
 50
270.4264230127938
 51
272.29802410444671
  0
LINE
  5
1BE14
  8
0
 10
4420.7509869995893
 20
433.07307201417609
 30
0.0
 11
4420.7677524843903
 21
433.06338908427608
 31
0.0
  0
LINE
  5
1BE15
  8
0
 10
4420.7677524843903
 20
433.06338908427608
 30
0.0
 11
4420.750986742788
 21
433.05370600607608
 31
0.0
  0
ARC
  5
1BE16
  8
0
 10
4421.5774648926008
 20
433.07323443287612
 30
0.0
 40
0.0001602533873828
 50
279.60558343444728
 51
80.394416565552675
  0
LINE
  5
1BE17
  8
0
 10
4421.5775084294883
 20
433.09276489937599
 30
0.0
 11
4421.5776251459893
 21
433.09291366180349
 31
0.0
  0
ARC
  5
1BE18
  8
0
 10
4421.2776385442858
 20
419.42451253528731
 30
0.0
 40
13.65903232473161
 50
90.475683158512908
 51
92.209702095271709
  0
ARC
  5
1BE19
  8
0
 10
4421.0511593138144
 20
446.7223442539983
 30
0.0
 40
13.639738882233621
 50
270.47501505217031
 51
272.21155793172392
  0
ARC
  5
1BE1A
  8
0
 10
4421.2778659654332
 20
419.39085349942081
 30
0.0
 40
13.673007728143411
 50
90.476149969104455
 51
92.208397181420864
  0
ARC
  5
1BE1B
  8
0
 10
4421.5592187742377
 20
433.0853928749458
 30
0.0
 40
0.0027105225964837
 50
279.36395472989199
 51
301.78754159883948
  0
LINE
  5
1BE1C
  8
0
 10
4421.5775084294883
 20
433.09276489937599
 30
0.0
 11
4421.5606465988903
 21
433.08308891107612
 31
0.0
  0
LINE
  5
1BE1D
  8
0
 10
4421.5606465988903
 20
433.08308891107612
 30
0.0
 11
4421.5774916332548
 21
433.07339243947592
 31
0.0
  0
LINE
  5
1BE1E
  8
0
 10
4421.1642393191887
 20
433.06338908427608
 30
0.0
 11
4421.3710506260377
 21
433.06667245738072
 31
0.0
  0
LINE
  5
1BE1F
  8
0
 10
4421.3710506260377
 20
433.06667245738072
 30
0.0
 11
4421.5774916332548
 21
433.07307642627632
 31
0.0
  0
ARC
  5
1BE20
  8
0
 10
4420.7510137468853
 20
433.0732300207759
 30
0.0
 40
0.0001602544957333
 50
99.607924642163852
 51
260.3920753568853
  0
LINE
  5
1BE21
  8
0
 10
4420.750986742788
 20
433.05370600607608
 30
0.0
 11
4420.7508534923882
 21
433.0535495589761
 31
0.0
  0
ARC
  5
1BE22
  8
0
 10
4420.7693256006542
 20
433.06104963620118
 30
0.0
 40
0.0028191686859011
 50
102.17877425494051
 51
123.91809017345111
  0
ARC
  5
1BE23
  8
0
 10
4421.3050826157296
 20
418.98663162886771
 30
0.0
 40
14.08738774139956
 50
90.572894635665534
 51
92.181960321310385
  0
ARC
  5
1BE24
  8
0
 10
4421.0741030201798
 20
445.18243238810709
 30
0.0
 40
12.10945259940107
 50
270.4264230127938
 51
272.29802410444671
  0
LINE
  5
1BE25
  8
0
 10
4420.7509869995893
 20
433.03370193537609
 30
0.0
 11
4420.7677524843903
 21
433.02401900547608
 31
0.0
  0
LINE
  5
1BE26
  8
0
 10
4420.7677524843903
 20
433.02401900547608
 30
0.0
 11
4420.750986742788
 21
433.01433592727608
 31
0.0
  0
ARC
  5
1BE27
  8
0
 10
4421.5774648926008
 20
433.03386435407612
 30
0.0
 40
0.0001602533873838
 50
279.60558343471132
 51
80.394416565183221
  0
LINE
  5
1BE28
  8
0
 10
4421.5775084294883
 20
433.05339482057599
 30
0.0
 11
4421.5776251459893
 21
433.05354358300349
 31
0.0
  0
ARC
  5
1BE29
  8
0
 10
4421.2776385442858
 20
419.3851424564873
 30
0.0
 40
13.65903232473161
 50
90.475683158512908
 51
92.209702095271709
  0
ARC
  5
1BE2A
  8
0
 10
4421.0511593138144
 20
446.6829741751983
 30
0.0
 40
13.639738882233621
 50
270.47501505217031
 51
272.21155793172392
  0
ARC
  5
1BE2B
  8
0
 10
4421.2778659654332
 20
419.35148342062081
 30
0.0
 40
13.673007728143411
 50
90.476149969104455
 51
92.208397181420864
  0
ARC
  5
1BE2C
  8
0
 10
4421.5592187742377
 20
433.04602279614591
 30
0.0
 40
0.0027105225964837
 50
279.36395472989199
 51
301.78754159883948
  0
LINE
  5
1BE2D
  8
0
 10
4421.5775084294883
 20
433.05339482057599
 30
0.0
 11
4421.5606465988903
 21
433.043718832276
 31
0.0
  0
LINE
  5
1BE2E
  8
0
 10
4421.5606465988903
 20
433.043718832276
 30
0.0
 11
4421.5774916332548
 21
433.03402236067592
 31
0.0
  0
LINE
  5
1BE2F
  8
0
 10
4421.1642393191887
 20
433.02401900547608
 30
0.0
 11
4421.3710506260377
 21
433.0273023785806
 31
0.0
  0
LINE
  5
1BE30
  8
0
 10
4421.3710506260377
 20
433.0273023785806
 30
0.0
 11
4421.5774916332548
 21
433.03370634747642
 31
0.0
  0
ARC
  5
1BE31
  8
0
 10
4420.7510137468853
 20
433.03385994197589
 30
0.0
 40
0.0001602544957336
 50
99.607924642797798
 51
260.39207535625133
  0
LINE
  5
1BE32
  8
0
 10
4420.750986742788
 20
433.01433592727608
 30
0.0
 11
4420.7508534923882
 21
433.01417948017598
 31
0.0
  0
ARC
  5
1BE33
  8
0
 10
4420.7693256006542
 20
433.02167955740123
 30
0.0
 40
0.0028191686859011
 50
102.17877425494051
 51
123.91809017345111
  0
ARC
  5
1BE34
  8
0
 10
4421.3050826157296
 20
418.94726155006771
 30
0.0
 40
14.08738774139956
 50
90.572894635665534
 51
92.181960321310385
  0
ARC
  5
1BE35
  8
0
 10
4421.0741030201798
 20
445.1430623093072
 30
0.0
 40
12.10945259940107
 50
270.4264230127938
 51
272.29802410444671
  0
LINE
  5
1BE36
  8
0
 10
4420.7509869995893
 20
432.99433185667613
 30
0.0
 11
4420.7677524843903
 21
432.98464892677612
 31
0.0
  0
LINE
  5
1BE37
  8
0
 10
4420.7677524843903
 20
432.98464892677612
 30
0.0
 11
4420.750986742788
 21
432.97496584857612
 31
0.0
  0
ARC
  5
1BE38
  8
0
 10
4421.5774648926008
 20
432.9944942753761
 30
0.0
 40
0.0001602533873829
 50
279.6055834347643
 51
80.394416565235687
  0
LINE
  5
1BE39
  8
0
 10
4421.5775084294883
 20
433.01402474187609
 30
0.0
 11
4421.5776251459893
 21
433.01417350430353
 31
0.0
  0
ARC
  5
1BE3A
  8
0
 10
4421.2776385442858
 20
419.34577237778723
 30
0.0
 40
13.65903232473161
 50
90.475683158512908
 51
92.209702095271709
  0
ARC
  5
1BE3B
  8
0
 10
4421.0511593138144
 20
446.64360409649828
 30
0.0
 40
13.639738882233621
 50
270.47501505217031
 51
272.21155793172392
  0
ARC
  5
1BE3C
  8
0
 10
4421.2778659654332
 20
419.31211334192079
 30
0.0
 40
13.673007728143411
 50
90.476149969104455
 51
92.208397181420864
  0
ARC
  5
1BE3D
  8
0
 10
4421.5592187742377
 20
433.00665271744589
 30
0.0
 40
0.0027105225964837
 50
279.36395472989199
 51
301.78754159883948
  0
LINE
  5
1BE3E
  8
0
 10
4421.5775084294883
 20
433.01402474187609
 30
0.0
 11
4421.5606465988903
 21
433.00434875357598
 31
0.0
  0
LINE
  5
1BE3F
  8
0
 10
4421.5606465988903
 20
433.00434875357598
 30
0.0
 11
4421.5774916332548
 21
432.9946522819759
 31
0.0
  0
LINE
  5
1BE40
  8
0
 10
4421.1642393191887
 20
432.98464892677612
 30
0.0
 11
4421.3710506260377
 21
432.9879322998807
 31
0.0
  0
LINE
  5
1BE41
  8
0
 10
4421.3710506260377
 20
432.9879322998807
 30
0.0
 11
4421.5774916332548
 21
432.99433626877629
 31
0.0
  0
ARC
  5
1BE42
  8
0
 10
4420.7510137468853
 20
432.99448986327582
 30
0.0
 40
0.0001602544957351
 50
99.607924642057839
 51
260.39207535677969
  0
LINE
  5
1BE43
  8
0
 10
4420.750986742788
 20
432.97496584857612
 30
0.0
 11
4420.7508534923882
 21
432.97480940147608
 31
0.0
  0
ARC
  5
1BE44
  8
0
 10
4420.7693256006542
 20
432.98230947870132
 30
0.0
 40
0.0028191686859011
 50
102.17877425494051
 51
123.91809017345111
  0
ARC
  5
1BE45
  8
0
 10
4421.3050826157296
 20
418.90789147136769
 30
0.0
 40
14.08738774139956
 50
90.572894635665534
 51
92.181960321310385
  0
ARC
  5
1BE46
  8
0
 10
4421.0741030201798
 20
445.10369223060712
 30
0.0
 40
12.10945259940107
 50
270.4264230127938
 51
272.29802410444671
  0
LINE
  5
1BE47
  8
0
 10
4420.7509869995893
 20
432.95496177787612
 30
0.0
 11
4420.7677524843903
 21
432.94527884797611
 31
0.0
  0
LINE
  5
1BE48
  8
0
 10
4420.7677524843903
 20
432.94527884797611
 30
0.0
 11
4420.750986742788
 21
432.93559576977611
 31
0.0
  0
ARC
  5
1BE49
  8
0
 10
4421.5774648926008
 20
432.95512419657598
 30
0.0
 40
0.0001602533873838
 50
279.60558343471132
 51
80.394416565183221
  0
LINE
  5
1BE4A
  8
0
 10
4421.5775084294883
 20
432.97465466307608
 30
0.0
 11
4421.5776251459893
 21
432.97480342550352
 31
0.0
  0
ARC
  5
1BE4B
  8
0
 10
4421.2776385442858
 20
419.30640229898728
 30
0.0
 40
13.65903232473161
 50
90.475683158512908
 51
92.209702095271709
  0
ARC
  5
1BE4C
  8
0
 10
4421.0511593138144
 20
446.60423401769827
 30
0.0
 40
13.639738882233621
 50
270.47501505217031
 51
272.21155793172392
  0
ARC
  5
1BE4D
  8
0
 10
4421.2778659654332
 20
419.27274326312079
 30
0.0
 40
13.673007728143411
 50
90.476149969104455
 51
92.208397181420864
  0
ARC
  5
1BE4E
  8
0
 10
4421.5592187742377
 20
432.96728263864588
 30
0.0
 40
0.0027105225964837
 50
279.36395472989199
 51
301.78754159883948
  0
LINE
  5
1BE4F
  8
0
 10
4421.5775084294883
 20
432.97465466307608
 30
0.0
 11
4421.5606465988903
 21
432.96497867477609
 31
0.0
  0
LINE
  5
1BE50
  8
0
 10
4421.5606465988903
 20
432.96497867477609
 30
0.0
 11
4421.5774916332548
 21
432.95528220317578
 31
0.0
  0
LINE
  5
1BE51
  8
0
 10
4421.1642393191887
 20
432.94527884797611
 30
0.0
 11
4421.3710506260377
 21
432.94856222108069
 31
0.0
  0
LINE
  5
1BE52
  8
0
 10
4421.3710506260377
 20
432.94856222108069
 30
0.0
 11
4421.5774916332548
 21
432.95496618997629
 31
0.0
  0
ARC
  5
1BE53
  8
0
 10
4420.7510137468853
 20
432.95511978447593
 30
0.0
 40
0.0001602544957333
 50
99.607924642163852
 51
260.3920753568853
  0
LINE
  5
1BE54
  8
0
 10
4420.750986742788
 20
432.93559576977611
 30
0.0
 11
4420.7508534923882
 21
432.93543932267607
 31
0.0
  0
ARC
  5
1BE55
  8
0
 10
4420.7693256006542
 20
432.94293939990132
 30
0.0
 40
0.0028191686859011
 50
102.17877425494051
 51
123.91809017345111
  0
ARC
  5
1BE56
  8
0
 10
4421.3050826157296
 20
418.86852139256769
 30
0.0
 40
14.08738774139956
 50
90.572894635665534
 51
92.181960321310385
  0
ARC
  5
1BE57
  8
0
 10
4421.0741030201798
 20
445.06432215180712
 30
0.0
 40
12.10945259940107
 50
270.4264230127938
 51
272.29802410444671
  0
ARC
  5
1BE58
  8
0
 10
4421.5774648925826
 20
432.91575411786249
 30
0.0
 40
0.0001602534069899
 50
279.60562485440681
 51
80.394375145487714
  0
LINE
  5
1BE59
  8
0
 10
4421.5775084295883
 20
432.93528458436259
 30
0.0
 11
4421.5776251459893
 21
432.93543334666521
 31
0.0
  0
ARC
  5
1BE5A
  8
0
 10
4421.0511593139117
 20
446.56486393898467
 30
0.0
 40
13.639738882233621
 50
270.47501505217031
 51
272.21155793172392
  0
ARC
  5
1BE5B
  8
0
 10
4421.5592187743359
 20
432.92791255993228
 30
0.0
 40
0.0027105225964837
 50
279.36395472989199
 51
301.78754159883948
  0
LINE
  5
1BE5C
  8
0
 10
4421.5775084295883
 20
432.93528458436259
 30
0.0
 11
4421.5606465989868
 21
432.92560859606249
 31
0.0
  0
LINE
  5
1BE5D
  8
0
 10
4421.5606465989868
 20
432.92560859606249
 30
0.0
 11
4421.577491633353
 21
432.9159121244623
 31
0.0
  0
LINE
  5
1BE5E
  8
0
 10
4421.1642393192869
 20
432.90590876926251
 30
0.0
 11
4421.371050626135
 21
432.90919214236709
 31
0.0
  0
LINE
  5
1BE5F
  8
0
 10
4421.371050626135
 20
432.90919214236709
 30
0.0
 11
4421.577491633353
 21
432.91559611126269
 31
0.0
  0
ARC
  5
1BE60
  8
0
 10
4421.074103020278
 20
445.02495207309357
 30
0.0
 40
12.10945259940107
 50
270.4264230127938
 51
272.29802410444671
  0
ARC
  5
1BE61
  8
0
 10
4421.1636339660299
 20
432.22665718264528
 30
0.0
 40
0.6989368881671783
 50
89.950375789761367
 51
99.626946594188595
  0
ARC
  5
1BE62
  8
0
 10
4421.1636339664992
 20
433.60484539879258
 30
0.0
 40
0.6989368916799924
 50
260.37305341558948
 51
270.04962416756041
  0
ARC
  5
1BE63
  8
0
 10
4421.076121609638
 20
474.20292753642508
 30
0.0
 40
41.287186695580878
 50
269.95923857667719
 51
270.12226671699989
  0
LINE
  5
1BE64
  8
0
 10
4420.7508534924891
 20
432.9059087692761
 30
0.0
 11
4421.5776251459893
 21
432.9059087692761
 31
0.0
  0
LINE
  5
1BE65
  8
0
 10
4420.7508534924891
 20
432.9059087692761
 30
0.0
 11
4420.8099086105894
 21
432.8468536511761
 31
0.0
  0
LINE
  5
1BE66
  8
0
 10
4421.5776251459893
 20
432.9059087692761
 30
0.0
 11
4421.518570027888
 21
432.8468536511761
 31
0.0
  0
ARC
  5
1BE67
  8
0
 10
4420.5421825361054
 20
433.40590353591358
 30
0.0
 40
0.0078687860473984
 50
179.9679548296119
 51
269.94436293394779
  0
LINE
  5
1BE68
  8
0
 10
4420.5343137512882
 20
433.769769423676
 30
0.0
 11
4420.5343137512882
 21
433.4059079368763
 31
0.0
  0
ARC
  5
1BE69
  8
0
 10
4419.688409487384
 20
433.79188308821938
 30
0.0
 40
0.8461932627083996
 50
358.50251241128581
 51
15.2493041718849
  0
ARC
  5
1BE6A
  8
0
 10
4423.2325877281637
 20
434.6960000304021
 30
0.0
 40
2.811634916075378
 50
191.27952873388699
 51
194.02847130739229
  0
LINE
  5
1BE6B
  8
0
 10
4420.5381526595893
 20
434.34832145467612
 30
0.0
 11
4420.5395727073892
 21
434.14606609017608
 31
0.0
  0
ARC
  5
1BE6C
  8
0
 10
4421.4738678749127
 20
434.54928806612691
 30
0.0
 40
1.0175929549418039
 50
203.34400325986121
 51
222.48186178177741
  0
LINE
  5
1BE6D
  8
0
 10
4420.893223238375
 20
433.74303817525799
 30
0.0
 11
4420.9084616064893
 21
433.74133486807608
 31
0.0
  0
LINE
  5
1BE6E
  8
0
 10
4420.9084616064893
 20
433.74133486807608
 30
0.0
 11
4420.9213063255893
 21
433.74499624707607
 31
0.0
  0
LINE
  5
1BE6F
  8
0
 10
4420.9213063255893
 20
433.74499624707607
 30
0.0
 11
4420.9180215187889
 21
433.75046054487609
 31
0.0
  0
LINE
  5
1BE70
  8
0
 10
4420.9180215187889
 20
433.75046054487609
 30
0.0
 11
4420.9018919928894
 21
433.75226346357613
 31
0.0
  0
LINE
  5
1BE71
  8
0
 10
4420.9018919928894
 20
433.75226346357613
 30
0.0
 11
4420.8902451215927
 21
433.74894353026519
 31
0.0
  0
LINE
  5
1BE72
  8
0
 10
4420.8923320805889
 20
433.74953841657612
 30
0.0
 11
4420.8923320805889
 21
433.74465850566531
 31
0.0
  0
LINE
  5
1BE73
  8
0
 10
4420.9084616064893
 20
433.7515291282761
 30
0.0
 11
4420.9084616064893
 21
433.74133486807608
 31
0.0
  0
LINE
  5
1BE74
  8
0
 10
4420.9017938233883
 20
433.76076965357612
 30
0.0
 11
4420.9050786302896
 21
433.7553053557761
 31
0.0
  0
LINE
  5
1BE75
  8
0
 10
4420.9050786302896
 20
433.7553053557761
 30
0.0
 11
4420.9212081561891
 21
433.75350243717611
 31
0.0
  0
LINE
  5
1BE76
  8
0
 10
4420.9212081561891
 20
433.75350243717611
 30
0.0
 11
4420.9340528752882
 21
433.7571638161761
 31
0.0
  0
LINE
  5
1BE77
  8
0
 10
4420.9340528752882
 20
433.7571638161761
 30
0.0
 11
4420.9307680684888
 21
433.76262811397612
 31
0.0
  0
LINE
  5
1BE78
  8
0
 10
4420.9307680684888
 20
433.76262811397612
 30
0.0
 11
4420.9146385425902
 21
433.76443103267599
 31
0.0
  0
LINE
  5
1BE79
  8
0
 10
4420.9146385425902
 20
433.76443103267599
 30
0.0
 11
4420.9017938233883
 21
433.76076965357612
 31
0.0
  0
LINE
  5
1BE7A
  8
0
 10
4420.9050786302896
 20
433.76170598567609
 30
0.0
 11
4420.9050786302896
 21
433.7553053557761
 31
0.0
  0
LINE
  5
1BE7B
  8
0
 10
4420.9212081561891
 20
433.76369669737608
 30
0.0
 11
4420.9212081561891
 21
433.75350243717611
 31
0.0
  0
LINE
  5
1BE7C
  8
0
 10
4420.914933050688
 20
433.73891246257608
 30
0.0
 11
4420.9182178575893
 21
433.73344816477612
 31
0.0
  0
LINE
  5
1BE7D
  8
0
 10
4420.9182178575893
 20
433.73344816477612
 30
0.0
 11
4420.9343473834888
 21
433.73164524617607
 31
0.0
  0
LINE
  5
1BE7E
  8
0
 10
4420.9343473834888
 20
433.73164524617607
 30
0.0
 11
4420.9471921025879
 21
433.73530662517612
 31
0.0
  0
LINE
  5
1BE7F
  8
0
 10
4420.9471921025879
 20
433.73530662517612
 30
0.0
 11
4420.9439072957894
 21
433.74077092297608
 31
0.0
  0
LINE
  5
1BE80
  8
0
 10
4420.9439072957894
 20
433.74077092297608
 30
0.0
 11
4420.927777769889
 21
433.74257384167612
 31
0.0
  0
LINE
  5
1BE81
  8
0
 10
4420.927777769889
 20
433.74257384167612
 30
0.0
 11
4420.914933050688
 21
433.73891246257608
 31
0.0
  0
LINE
  5
1BE82
  8
0
 10
4420.9182178575893
 20
433.73984879467611
 30
0.0
 11
4420.9182178575893
 21
433.73344816477612
 31
0.0
  0
LINE
  5
1BE83
  8
0
 10
4420.9343473834888
 20
433.74183950637598
 30
0.0
 11
4420.9343473834888
 21
433.73164524617607
 31
0.0
  0
LINE
  5
1BE84
  8
0
 10
4420.9276796003887
 20
433.75108003167611
 30
0.0
 11
4420.9309644072891
 21
433.74561573387609
 31
0.0
  0
LINE
  5
1BE85
  8
0
 10
4420.9309644072891
 20
433.74561573387609
 30
0.0
 11
4420.9470939331886
 21
433.74381281527599
 31
0.0
  0
LINE
  5
1BE86
  8
0
 10
4420.9470939331886
 20
433.74381281527599
 30
0.0
 11
4420.9599386522887
 21
433.74747419427598
 31
0.0
  0
LINE
  5
1BE87
  8
0
 10
4420.9599386522887
 20
433.74747419427598
 30
0.0
 11
4420.9566538454892
 21
433.75293849207611
 31
0.0
  0
LINE
  5
1BE88
  8
0
 10
4420.9566538454892
 20
433.75293849207611
 30
0.0
 11
4420.9405243195888
 21
433.75474141077609
 31
0.0
  0
LINE
  5
1BE89
  8
0
 10
4420.9405243195888
 20
433.75474141077609
 30
0.0
 11
4420.9276796003887
 21
433.75108003167611
 31
0.0
  0
LINE
  5
1BE8A
  8
0
 10
4420.9309644072891
 20
433.75201636377608
 30
0.0
 11
4420.9309644072891
 21
433.74561573387609
 31
0.0
  0
LINE
  5
1BE8B
  8
0
 10
4420.9470939331886
 20
433.75400707547612
 30
0.0
 11
4420.9470939331886
 21
433.74381281527599
 31
0.0
  0
LINE
  5
1BE8C
  8
0
 10
4420.9145403731882
 20
433.77293722267598
 30
0.0
 11
4420.9178251800886
 21
433.76747292487607
 31
0.0
  0
LINE
  5
1BE8D
  8
0
 10
4420.9178251800886
 20
433.76747292487607
 30
0.0
 11
4420.933954705989
 21
433.76567000627608
 31
0.0
  0
LINE
  5
1BE8E
  8
0
 10
4420.933954705989
 20
433.76567000627608
 30
0.0
 11
4420.946799425089
 21
433.76933138527608
 31
0.0
  0
LINE
  5
1BE8F
  8
0
 10
4420.946799425089
 20
433.76933138527608
 30
0.0
 11
4420.9435146182886
 21
433.77479568307598
 31
0.0
  0
LINE
  5
1BE90
  8
0
 10
4420.9435146182886
 20
433.77479568307598
 30
0.0
 11
4420.9273850923892
 21
433.77659860177607
 31
0.0
  0
LINE
  5
1BE91
  8
0
 10
4420.9273850923892
 20
433.77659860177607
 30
0.0
 11
4420.9145403731882
 21
433.77293722267598
 31
0.0
  0
LINE
  5
1BE92
  8
0
 10
4420.9178251800886
 20
433.77387355477612
 30
0.0
 11
4420.9178251800886
 21
433.76747292487607
 31
0.0
  0
LINE
  5
1BE93
  8
0
 10
4420.933954705989
 20
433.77586426647611
 30
0.0
 11
4420.933954705989
 21
433.76567000627608
 31
0.0
  0
LINE
  5
1BE94
  8
0
 10
4420.927286922888
 20
433.78510479177601
 30
0.0
 11
4420.9305717297893
 21
433.77964049397599
 31
0.0
  0
LINE
  5
1BE95
  8
0
 10
4420.9305717297893
 20
433.77964049397599
 30
0.0
 11
4420.9467012556888
 21
433.77783757537611
 31
0.0
  0
LINE
  5
1BE96
  8
0
 10
4420.9467012556888
 20
433.77783757537611
 30
0.0
 11
4420.9595459747879
 21
433.7814989543761
 31
0.0
  0
LINE
  5
1BE97
  8
0
 10
4420.9595459747879
 20
433.7814989543761
 30
0.0
 11
4420.9562611679894
 21
433.78696325217612
 31
0.0
  0
LINE
  5
1BE98
  8
0
 10
4420.9562611679894
 20
433.78696325217612
 30
0.0
 11
4420.940131642089
 21
433.78876617087599
 31
0.0
  0
LINE
  5
1BE99
  8
0
 10
4420.940131642089
 20
433.78876617087599
 30
0.0
 11
4420.927286922888
 21
433.78510479177601
 31
0.0
  0
LINE
  5
1BE9A
  8
0
 10
4420.9305717297893
 20
433.78604112387609
 30
0.0
 11
4420.9305717297893
 21
433.77964049397599
 31
0.0
  0
LINE
  5
1BE9B
  8
0
 10
4420.9467012556888
 20
433.78803183557608
 30
0.0
 11
4420.9467012556888
 21
433.77783757537611
 31
0.0
  0
LINE
  5
1BE9C
  8
0
 10
4420.9404261501886
 20
433.76324760077608
 30
0.0
 11
4420.943710957089
 21
433.75778330297612
 31
0.0
  0
LINE
  5
1BE9D
  8
0
 10
4420.943710957089
 20
433.75778330297612
 30
0.0
 11
4420.9598404829894
 21
433.75598038437607
 31
0.0
  0
LINE
  5
1BE9E
  8
0
 10
4420.9598404829894
 20
433.75598038437607
 30
0.0
 11
4420.9726852020895
 21
433.75964176337601
 31
0.0
  0
LINE
  5
1BE9F
  8
0
 10
4420.9726852020895
 20
433.75964176337601
 30
0.0
 11
4420.9694003952882
 21
433.76510606117608
 31
0.0
  0
LINE
  5
1BEA0
  8
0
 10
4420.9694003952882
 20
433.76510606117608
 30
0.0
 11
4420.9532708693887
 21
433.76690897987612
 31
0.0
  0
LINE
  5
1BEA1
  8
0
 10
4420.9532708693887
 20
433.76690897987612
 30
0.0
 11
4420.9404261501886
 21
433.76324760077608
 31
0.0
  0
LINE
  5
1BEA2
  8
0
 10
4420.943710957089
 20
433.76418393287599
 30
0.0
 11
4420.943710957089
 21
433.75778330297612
 31
0.0
  0
LINE
  5
1BEA3
  8
0
 10
4420.9598404829894
 20
433.76617464457598
 30
0.0
 11
4420.9598404829894
 21
433.75598038437607
 31
0.0
  0
LINE
  5
1BEA4
  8
0
 10
4420.9531726998894
 20
433.77541516987611
 30
0.0
 11
4420.9564575067889
 21
433.76995087207609
 31
0.0
  0
LINE
  5
1BEA5
  8
0
 10
4420.9564575067889
 20
433.76995087207609
 30
0.0
 11
4420.9725870326893
 21
433.7681479534761
 31
0.0
  0
LINE
  5
1BEA6
  8
0
 10
4420.9725870326893
 20
433.7681479534761
 30
0.0
 11
4420.9854317517893
 21
433.77180933247598
 31
0.0
  0
LINE
  5
1BEA7
  8
0
 10
4420.9854317517893
 20
433.77180933247598
 30
0.0
 11
4420.9821469449889
 21
433.77727363027611
 31
0.0
  0
LINE
  5
1BEA8
  8
0
 10
4420.9821469449889
 20
433.77727363027611
 30
0.0
 11
4420.9660174190894
 21
433.77907654897609
 31
0.0
  0
LINE
  5
1BEA9
  8
0
 10
4420.9660174190894
 20
433.77907654897609
 30
0.0
 11
4420.9531726998894
 21
433.77541516987611
 31
0.0
  0
LINE
  5
1BEAA
  8
0
 10
4420.9564575067889
 20
433.77635150197608
 30
0.0
 11
4420.9564575067889
 21
433.76995087207609
 31
0.0
  0
LINE
  5
1BEAB
  8
0
 10
4420.9725870326893
 20
433.77834221367613
 30
0.0
 11
4420.9725870326893
 21
433.7681479534761
 31
0.0
  0
LINE
  5
1BEAC
  8
0
 10
4420.9280722779886
 20
433.71705527157599
 30
0.0
 11
4420.931357084889
 21
433.71159097377608
 31
0.0
  0
LINE
  5
1BEAD
  8
0
 10
4420.931357084889
 20
433.71159097377608
 30
0.0
 11
4420.9474866107894
 21
433.70978805517609
 31
0.0
  0
LINE
  5
1BEAE
  8
0
 10
4420.9474866107894
 20
433.70978805517609
 30
0.0
 11
4420.9603313298894
 21
433.71344943417608
 31
0.0
  0
LINE
  5
1BEAF
  8
0
 10
4420.9603313298894
 20
433.71344943417608
 30
0.0
 11
4420.9570465230881
 21
433.7189137319761
 31
0.0
  0
LINE
  5
1BEB0
  8
0
 10
4420.9570465230881
 20
433.7189137319761
 30
0.0
 11
4420.9409169971896
 21
433.72071665067608
 31
0.0
  0
LINE
  5
1BEB1
  8
0
 10
4420.9409169971896
 20
433.72071665067608
 30
0.0
 11
4420.9280722779886
 21
433.71705527157599
 31
0.0
  0
LINE
  5
1BEB2
  8
0
 10
4420.931357084889
 20
433.71799160367613
 30
0.0
 11
4420.931357084889
 21
433.71159097377608
 31
0.0
  0
LINE
  5
1BEB3
  8
0
 10
4420.9474866107894
 20
433.71998231537611
 30
0.0
 11
4420.9474866107894
 21
433.70978805517609
 31
0.0
  0
LINE
  5
1BEB4
  8
0
 10
4420.9408188276893
 20
433.72922284067607
 30
0.0
 11
4420.9441036345879
 21
433.72375854287611
 31
0.0
  0
LINE
  5
1BEB5
  8
0
 10
4420.9441036345879
 20
433.72375854287611
 30
0.0
 11
4420.9602331604892
 21
433.72195562427612
 31
0.0
  0
LINE
  5
1BEB6
  8
0
 10
4420.9602331604892
 20
433.72195562427612
 30
0.0
 11
4420.9730778795893
 21
433.72561700327611
 31
0.0
  0
LINE
  5
1BEB7
  8
0
 10
4420.9730778795893
 20
433.72561700327611
 30
0.0
 11
4420.9697930727889
 21
433.73108130107607
 31
0.0
  0
LINE
  5
1BEB8
  8
0
 10
4420.9697930727889
 20
433.73108130107607
 30
0.0
 11
4420.9536635468894
 21
433.73288421977611
 31
0.0
  0
LINE
  5
1BEB9
  8
0
 10
4420.9536635468894
 20
433.73288421977611
 30
0.0
 11
4420.9408188276893
 21
433.72922284067607
 31
0.0
  0
LINE
  5
1BEBA
  8
0
 10
4420.9441036345879
 20
433.7301591727761
 30
0.0
 11
4420.9441036345879
 21
433.72375854287611
 31
0.0
  0
LINE
  5
1BEBB
  8
0
 10
4420.9602331604892
 20
433.73214988447609
 30
0.0
 11
4420.9602331604892
 21
433.72195562427612
 31
0.0
  0
LINE
  5
1BEBC
  8
0
 10
4420.9535653773892
 20
433.74139040977599
 30
0.0
 11
4420.9568501842887
 21
433.73592611197608
 31
0.0
  0
LINE
  5
1BEBD
  8
0
 10
4420.9568501842887
 20
433.73592611197608
 30
0.0
 11
4420.9729797101891
 21
433.73412319337609
 31
0.0
  0
LINE
  5
1BEBE
  8
0
 10
4420.9729797101891
 20
433.73412319337609
 30
0.0
 11
4420.9858244292891
 21
433.73778457237609
 31
0.0
  0
LINE
  5
1BEBF
  8
0
 10
4420.9858244292891
 20
433.73778457237609
 30
0.0
 11
4420.9825396224878
 21
433.7432488701761
 31
0.0
  0
LINE
  5
1BEC0
  8
0
 10
4420.9825396224878
 20
433.7432488701761
 30
0.0
 11
4420.9664100965892
 21
433.74505178887608
 31
0.0
  0
LINE
  5
1BEC1
  8
0
 10
4420.9664100965892
 20
433.74505178887608
 30
0.0
 11
4420.9535653773892
 21
433.74139040977599
 31
0.0
  0
LINE
  5
1BEC2
  8
0
 10
4420.9568501842887
 20
433.74232674187613
 30
0.0
 11
4420.9568501842887
 21
433.73592611197608
 31
0.0
  0
LINE
  5
1BEC3
  8
0
 10
4420.9729797101891
 20
433.74431745357612
 30
0.0
 11
4420.9729797101891
 21
433.73412319337609
 31
0.0
  0
LINE
  5
1BEC4
  8
0
 10
4420.966311927089
 20
433.75355797887607
 30
0.0
 11
4420.9695967339894
 21
433.74809368107611
 31
0.0
  0
LINE
  5
1BEC5
  8
0
 10
4420.9695967339894
 20
433.74809368107611
 30
0.0
 11
4420.985726259888
 21
433.74629076247612
 31
0.0
  0
LINE
  5
1BEC6
  8
0
 10
4420.985726259888
 20
433.74629076247612
 30
0.0
 11
4420.9985709789889
 21
433.74995214147611
 31
0.0
  0
LINE
  5
1BEC7
  8
0
 10
4420.9985709789889
 20
433.74995214147611
 30
0.0
 11
4420.9952861721886
 21
433.75541643927608
 31
0.0
  0
LINE
  5
1BEC8
  8
0
 10
4420.9952861721886
 20
433.75541643927608
 30
0.0
 11
4420.9791566462882
 21
433.757219357976
 31
0.0
  0
LINE
  5
1BEC9
  8
0
 10
4420.9791566462882
 20
433.757219357976
 30
0.0
 11
4420.966311927089
 21
433.75355797887607
 31
0.0
  0
LINE
  5
1BECA
  8
0
 10
4420.9695967339894
 20
433.7544943109761
 30
0.0
 11
4420.9695967339894
 21
433.74809368107611
 31
0.0
  0
LINE
  5
1BECB
  8
0
 10
4420.985726259888
 20
433.75648502267609
 30
0.0
 11
4420.985726259888
 21
433.74629076247612
 31
0.0
  0
LINE
  5
1BECC
  8
0
 10
4420.9790584768889
 20
433.76572554797599
 30
0.0
 11
4420.9823432837893
 21
433.76026125017609
 31
0.0
  0
LINE
  5
1BECD
  8
0
 10
4420.9823432837893
 20
433.76026125017609
 30
0.0
 11
4420.9984728096888
 21
433.75845833157598
 31
0.0
  0
LINE
  5
1BECE
  8
0
 10
4420.9984728096888
 20
433.75845833157598
 30
0.0
 11
4421.0113175287888
 21
433.76211971057609
 31
0.0
  0
LINE
  5
1BECF
  8
0
 10
4421.0113175287888
 20
433.76211971057609
 30
0.0
 11
4421.0080327219894
 21
433.76758400837599
 31
0.0
  0
LINE
  5
1BED0
  8
0
 10
4421.0080327219894
 20
433.76758400837599
 30
0.0
 11
4420.991903196089
 21
433.76938692707608
 31
0.0
  0
LINE
  5
1BED1
  8
0
 10
4420.991903196089
 20
433.76938692707608
 30
0.0
 11
4420.9790584768889
 21
433.76572554797599
 31
0.0
  0
LINE
  5
1BED2
  8
0
 10
4420.9823432837893
 20
433.76666188007607
 30
0.0
 11
4420.9823432837893
 21
433.76026125017609
 31
0.0
  0
LINE
  5
1BED3
  8
0
 10
4420.9984728096888
 20
433.76865259177612
 30
0.0
 11
4420.9984728096888
 21
433.75845833157598
 31
0.0
  0
LINE
  5
1BED4
  8
0
 10
4420.9918050265887
 20
433.77789311707608
 30
0.0
 11
4420.9950898334891
 21
433.772428819276
 31
0.0
  0
LINE
  5
1BED5
  8
0
 10
4420.9950898334891
 20
433.772428819276
 30
0.0
 11
4421.0112193593886
 21
433.77062590067612
 31
0.0
  0
LINE
  5
1BED6
  8
0
 10
4421.0112193593886
 20
433.77062590067612
 30
0.0
 11
4421.0240640784896
 21
433.77428727967612
 31
0.0
  0
LINE
  5
1BED7
  8
0
 10
4421.0240640784896
 20
433.77428727967612
 30
0.0
 11
4421.0207792716892
 21
433.77975157747608
 31
0.0
  0
LINE
  5
1BED8
  8
0
 10
4421.0207792716892
 20
433.77975157747608
 30
0.0
 11
4421.0046497457879
 21
433.78155449617611
 31
0.0
  0
LINE
  5
1BED9
  8
0
 10
4421.0046497457879
 20
433.78155449617611
 30
0.0
 11
4420.9918050265887
 21
433.77789311707608
 31
0.0
  0
LINE
  5
1BEDA
  8
0
 10
4420.9950898334891
 20
433.7788294491761
 30
0.0
 11
4420.9950898334891
 21
433.772428819276
 31
0.0
  0
LINE
  5
1BEDB
  8
0
 10
4421.0112193593886
 20
433.78082016087609
 30
0.0
 11
4421.0112193593886
 21
433.77062590067612
 31
0.0
  0
LINE
  5
1BEDC
  8
0
 10
4420.9422971648828
 20
433.79350669401339
 30
0.0
 11
4420.9433182794892
 21
433.79180806317601
 31
0.0
  0
LINE
  5
1BEDD
  8
0
 10
4420.9433182794892
 20
433.79180806317601
 30
0.0
 11
4420.9594478053887
 21
433.79000514457613
 31
0.0
  0
LINE
  5
1BEDE
  8
0
 10
4420.9594478053887
 20
433.79000514457613
 30
0.0
 11
4420.9722925244887
 21
433.79366652357612
 31
0.0
  0
LINE
  5
1BEDF
  8
0
 10
4420.9722925244887
 20
433.79366652357612
 30
0.0
 11
4420.9690077176892
 21
433.79913082137608
 31
0.0
  0
LINE
  5
1BEE0
  8
0
 10
4420.9690077176892
 20
433.79913082137608
 30
0.0
 11
4420.9595568904742
 21
433.80018721157762
 31
0.0
  0
LINE
  5
1BEE1
  8
0
 10
4420.9433182794892
 20
433.79393587335051
 30
0.0
 11
4420.9433182794892
 21
433.79180806317601
 31
0.0
  0
LINE
  5
1BEE2
  8
0
 10
4420.9594478053887
 20
433.80014782488098
 30
0.0
 11
4420.9594478053887
 21
433.79000514457613
 31
0.0
  0
LINE
  5
1BEE3
  8
0
 10
4420.9669242101927
 20
433.8027617974667
 30
0.0
 11
4420.9721943550903
 21
433.80217271367599
 31
0.0
  0
LINE
  5
1BEE4
  8
0
 10
4420.9721943550903
 20
433.80217271367599
 30
0.0
 11
4420.9850390741904
 21
433.80583409267598
 31
0.0
  0
LINE
  5
1BEE5
  8
0
 10
4420.9850390741904
 20
433.80583409267598
 30
0.0
 11
4420.9837266982004
 21
433.80801723879893
 31
0.0
  0
LINE
  5
1BEE6
  8
0
 10
4420.9721943550903
 20
433.80450138029721
 30
0.0
 11
4420.9721943550903
 21
433.80217271367599
 31
0.0
  0
LINE
  5
1BEE7
  8
0
 10
4420.9659192495892
 20
433.78758273907607
 30
0.0
 11
4420.9692040564887
 21
433.78211844127611
 31
0.0
  0
LINE
  5
1BEE8
  8
0
 10
4420.9692040564887
 20
433.78211844127611
 30
0.0
 11
4420.9853335823891
 21
433.78031552267612
 31
0.0
  0
LINE
  5
1BEE9
  8
0
 10
4420.9853335823891
 20
433.78031552267612
 30
0.0
 11
4420.9981783014891
 21
433.78397690167611
 31
0.0
  0
LINE
  5
1BEEA
  8
0
 10
4420.9981783014891
 20
433.78397690167611
 30
0.0
 11
4420.9948934946888
 21
433.78944119947607
 31
0.0
  0
LINE
  5
1BEEB
  8
0
 10
4420.9948934946888
 20
433.78944119947607
 30
0.0
 11
4420.9787639687893
 21
433.79124411817611
 31
0.0
  0
LINE
  5
1BEEC
  8
0
 10
4420.9787639687893
 20
433.79124411817611
 30
0.0
 11
4420.9659192495892
 21
433.78758273907607
 31
0.0
  0
LINE
  5
1BEED
  8
0
 10
4420.9692040564887
 20
433.7885190711761
 30
0.0
 11
4420.9692040564887
 21
433.78211844127611
 31
0.0
  0
LINE
  5
1BEEE
  8
0
 10
4420.9853335823891
 20
433.79050978287609
 30
0.0
 11
4420.9853335823891
 21
433.78031552267612
 31
0.0
  0
LINE
  5
1BEEF
  8
0
 10
4420.978665799289
 20
433.79975030817599
 30
0.0
 11
4420.9819506061885
 21
433.79428601037608
 31
0.0
  0
LINE
  5
1BEF0
  8
0
 10
4420.9819506061885
 20
433.79428601037608
 30
0.0
 11
4420.9980801320889
 21
433.79248309177609
 31
0.0
  0
LINE
  5
1BEF1
  8
0
 10
4420.9980801320889
 20
433.79248309177609
 30
0.0
 11
4421.010924851189
 21
433.79614447077608
 31
0.0
  0
LINE
  5
1BEF2
  8
0
 10
4421.010924851189
 20
433.79614447077608
 30
0.0
 11
4421.0076400443886
 21
433.8016087685761
 31
0.0
  0
LINE
  5
1BEF3
  8
0
 10
4421.0076400443886
 20
433.8016087685761
 30
0.0
 11
4420.9915105184891
 21
433.80341168727608
 31
0.0
  0
LINE
  5
1BEF4
  8
0
 10
4420.9915105184891
 20
433.80341168727608
 30
0.0
 11
4420.978665799289
 21
433.79975030817599
 31
0.0
  0
LINE
  5
1BEF5
  8
0
 10
4420.9819506061885
 20
433.80068664027613
 30
0.0
 11
4420.9819506061885
 21
433.79428601037608
 31
0.0
  0
LINE
  5
1BEF6
  8
0
 10
4420.9980801320889
 20
433.80267735197612
 30
0.0
 11
4420.9980801320889
 21
433.79248309177609
 31
0.0
  0
LINE
  5
1BEF7
  8
0
 10
4420.9923330168767
 20
433.81038634037969
 30
0.0
 11
4420.9946971559893
 21
433.80645357947611
 31
0.0
  0
LINE
  5
1BEF8
  8
0
 10
4420.9946971559893
 20
433.80645357947611
 30
0.0
 11
4421.0108266818888
 21
433.80465066087612
 31
0.0
  0
LINE
  5
1BEF9
  8
0
 10
4421.0108266818888
 20
433.80465066087612
 30
0.0
 11
4421.023671400988
 21
433.80831203987611
 31
0.0
  0
LINE
  5
1BEFA
  8
0
 10
4421.023671400988
 20
433.80831203987611
 30
0.0
 11
4421.0203865941894
 21
433.81377633767607
 31
0.0
  0
LINE
  5
1BEFB
  8
0
 10
4421.0203865941894
 20
433.81377633767607
 30
0.0
 11
4421.0113227022366
 21
433.81478947720638
 31
0.0
  0
LINE
  5
1BEFC
  8
0
 10
4420.9946971559893
 20
433.8109996638579
 30
0.0
 11
4420.9946971559893
 21
433.80645357947611
 31
0.0
  0
LINE
  5
1BEFD
  8
0
 10
4421.0108266818888
 20
433.81468940949662
 30
0.0
 11
4421.0108266818888
 21
433.80465066087612
 31
0.0
  0
LINE
  5
1BEFE
  8
0
 10
4421.0224427941821
 20
433.81694458747972
 30
0.0
 11
4421.0235732315887
 21
433.81681822997598
 31
0.0
  0
LINE
  5
1BEFF
  8
0
 10
4421.0235732315887
 20
433.81681822997598
 30
0.0
 11
4421.0268487971962
 21
433.81775192786648
 31
0.0
  0
LINE
  5
1BF00
  8
0
 10
4421.0235732315887
 20
433.8171542372836
 30
0.0
 11
4421.0235732315887
 21
433.81681822997598
 31
0.0
  0
LINE
  5
1BF01
  8
0
 10
4421.0045515763886
 20
433.79006068627609
 30
0.0
 11
4421.007836383289
 21
433.78459638847607
 31
0.0
  0
LINE
  5
1BF02
  8
0
 10
4421.007836383289
 20
433.78459638847607
 30
0.0
 11
4421.0239659091894
 21
433.78279346987608
 31
0.0
  0
LINE
  5
1BF03
  8
0
 10
4421.0239659091894
 20
433.78279346987608
 30
0.0
 11
4421.0368106282885
 21
433.78645484887608
 31
0.0
  0
LINE
  5
1BF04
  8
0
 10
4421.0368106282885
 20
433.78645484887608
 30
0.0
 11
4421.0335258214891
 21
433.79191914667598
 31
0.0
  0
LINE
  5
1BF05
  8
0
 10
4421.0335258214891
 20
433.79191914667598
 30
0.0
 11
4421.0173962955896
 21
433.79372206537607
 31
0.0
  0
LINE
  5
1BF06
  8
0
 10
4421.0173962955896
 20
433.79372206537607
 30
0.0
 11
4421.0045515763886
 21
433.79006068627609
 31
0.0
  0
LINE
  5
1BF07
  8
0
 10
4421.007836383289
 20
433.79099701837612
 30
0.0
 11
4421.007836383289
 21
433.78459638847607
 31
0.0
  0
LINE
  5
1BF08
  8
0
 10
4421.0239659091894
 20
433.79298773007599
 30
0.0
 11
4421.0239659091894
 21
433.78279346987608
 31
0.0
  0
LINE
  5
1BF09
  8
0
 10
4421.0172981260903
 20
433.80222825537612
 30
0.0
 11
4421.020582932988
 21
433.7967639575761
 31
0.0
  0
LINE
  5
1BF0A
  8
0
 10
4421.020582932988
 20
433.7967639575761
 30
0.0
 11
4421.0367124588893
 21
433.79496103897611
 31
0.0
  0
LINE
  5
1BF0B
  8
0
 10
4421.0367124588893
 20
433.79496103897611
 30
0.0
 11
4421.0495571779893
 21
433.79862241797599
 31
0.0
  0
LINE
  5
1BF0C
  8
0
 10
4421.0495571779893
 20
433.79862241797599
 30
0.0
 11
4421.0462723711889
 21
433.80408671577612
 31
0.0
  0
LINE
  5
1BF0D
  8
0
 10
4421.0462723711889
 20
433.80408671577612
 30
0.0
 11
4421.0301428452894
 21
433.8058896344761
 31
0.0
  0
LINE
  5
1BF0E
  8
0
 10
4421.0301428452894
 20
433.8058896344761
 30
0.0
 11
4421.0172981260903
 21
433.80222825537612
 31
0.0
  0
LINE
  5
1BF0F
  8
0
 10
4421.020582932988
 20
433.80316458747598
 30
0.0
 11
4421.020582932988
 21
433.7967639575761
 31
0.0
  0
LINE
  5
1BF10
  8
0
 10
4421.0367124588893
 20
433.80515529917608
 30
0.0
 11
4421.0367124588893
 21
433.79496103897611
 31
0.0
  0
LINE
  5
1BF11
  8
0
 10
4421.0300446757892
 20
433.81439582447609
 30
0.0
 11
4421.0333294826878
 21
433.80893152667608
 31
0.0
  0
LINE
  5
1BF12
  8
0
 10
4421.0333294826878
 20
433.80893152667608
 30
0.0
 11
4421.0494590085891
 21
433.80712860807608
 31
0.0
  0
LINE
  5
1BF13
  8
0
 10
4421.0494590085891
 20
433.80712860807608
 30
0.0
 11
4421.0623037276891
 21
433.81078998707608
 31
0.0
  0
LINE
  5
1BF14
  8
0
 10
4421.0623037276891
 20
433.81078998707608
 30
0.0
 11
4421.0590189208879
 21
433.81625428487609
 31
0.0
  0
LINE
  5
1BF15
  8
0
 10
4421.0590189208879
 20
433.81625428487609
 30
0.0
 11
4421.0428893949893
 21
433.81805720357607
 31
0.0
  0
LINE
  5
1BF16
  8
0
 10
4421.0428893949893
 20
433.81805720357607
 30
0.0
 11
4421.0300446757892
 21
433.81439582447609
 31
0.0
  0
LINE
  5
1BF17
  8
0
 10
4421.0333294826878
 20
433.81533215657612
 30
0.0
 11
4421.0333294826878
 21
433.80893152667608
 31
0.0
  0
LINE
  5
1BF18
  8
0
 10
4421.0494590085891
 20
433.81732286827611
 30
0.0
 11
4421.0494590085891
 21
433.80712860807608
 31
0.0
  0
LINE
  5
1BF19
  8
0
 10
4421.0465679495828
 20
433.82104411048613
 30
0.0
 11
4421.062205558288
 21
433.81929617717611
 31
0.0
  0
LINE
  5
1BF1A
  8
0
 10
4421.062205558288
 20
433.81929617717611
 30
0.0
 11
4421.075050277389
 21
433.82295755617611
 31
0.0
  0
LINE
  5
1BF1B
  8
0
 10
4421.075050277389
 20
433.82295755617611
 30
0.0
 11
4421.0739687751511
 21
433.8247566422894
 31
0.0
  0
LINE
  5
1BF1C
  8
0
 10
4421.062205558288
 20
433.82328485015643
 30
0.0
 11
4421.062205558288
 21
433.81929617717611
 31
0.0
  0
LINE
  5
1BF1D
  8
0
 10
4420.953958054989
 20
433.70736564967621
 30
0.0
 11
4420.9572428618903
 21
433.70190135187607
 31
0.0
  0
LINE
  5
1BF1E
  8
0
 10
4420.9572428618903
 20
433.70190135187607
 30
0.0
 11
4420.9733723877889
 21
433.70009843327608
 31
0.0
  0
LINE
  5
1BF1F
  8
0
 10
4420.9733723877889
 20
433.70009843327608
 30
0.0
 11
4420.986217106888
 21
433.70375981227608
 31
0.0
  0
LINE
  5
1BF20
  8
0
 10
4420.986217106888
 20
433.70375981227608
 30
0.0
 11
4420.9829323000886
 21
433.70922411007598
 31
0.0
  0
LINE
  5
1BF21
  8
0
 10
4420.9829323000886
 20
433.70922411007598
 30
0.0
 11
4420.9668027741891
 21
433.71102702877607
 31
0.0
  0
LINE
  5
1BF22
  8
0
 10
4420.9668027741891
 20
433.71102702877607
 30
0.0
 11
4420.953958054989
 21
433.70736564967621
 31
0.0
  0
LINE
  5
1BF23
  8
0
 10
4420.9572428618903
 20
433.70830198177612
 30
0.0
 11
4420.9572428618903
 21
433.70190135187607
 31
0.0
  0
LINE
  5
1BF24
  8
0
 10
4420.9733723877889
 20
433.71029269347599
 30
0.0
 11
4420.9733723877889
 21
433.70009843327608
 31
0.0
  0
LINE
  5
1BF25
  8
0
 10
4420.9667046046889
 20
433.71953321877612
 30
0.0
 11
4420.9699894115893
 21
433.7140689209761
 31
0.0
  0
LINE
  5
1BF26
  8
0
 10
4420.9699894115893
 20
433.7140689209761
 30
0.0
 11
4420.9861189374888
 21
433.712266002376
 31
0.0
  0
LINE
  5
1BF27
  8
0
 10
4420.9861189374888
 20
433.712266002376
 30
0.0
 11
4420.9989636565888
 21
433.71592738137599
 31
0.0
  0
LINE
  5
1BF28
  8
0
 10
4420.9989636565888
 20
433.71592738137599
 30
0.0
 11
4420.9956788497893
 21
433.72139167917601
 31
0.0
  0
LINE
  5
1BF29
  8
0
 10
4420.9956788497893
 20
433.72139167917601
 30
0.0
 11
4420.9795493238889
 21
433.7231945978761
 31
0.0
  0
LINE
  5
1BF2A
  8
0
 10
4420.9795493238889
 20
433.7231945978761
 30
0.0
 11
4420.9667046046889
 21
433.71953321877612
 31
0.0
  0
LINE
  5
1BF2B
  8
0
 10
4420.9699894115893
 20
433.72046955087609
 30
0.0
 11
4420.9699894115893
 21
433.7140689209761
 31
0.0
  0
LINE
  5
1BF2C
  8
0
 10
4420.9861189374888
 20
433.72246026257608
 30
0.0
 11
4420.9861189374888
 21
433.712266002376
 31
0.0
  0
LINE
  5
1BF2D
  8
0
 10
4420.9794511543896
 20
433.73170078787609
 30
0.0
 11
4420.9827359612891
 21
433.72623649007608
 31
0.0
  0
LINE
  5
1BF2E
  8
0
 10
4420.9827359612891
 20
433.72623649007608
 30
0.0
 11
4420.9988654871886
 21
433.72443357147608
 31
0.0
  0
LINE
  5
1BF2F
  8
0
 10
4420.9988654871886
 20
433.72443357147608
 30
0.0
 11
4421.0117102062886
 21
433.72809495047608
 31
0.0
  0
LINE
  5
1BF30
  8
0
 10
4421.0117102062886
 20
433.72809495047608
 30
0.0
 11
4421.0084253994892
 21
433.73355924827609
 31
0.0
  0
LINE
  5
1BF31
  8
0
 10
4421.0084253994892
 20
433.73355924827609
 30
0.0
 11
4420.9922958735879
 21
433.73536216697607
 31
0.0
  0
LINE
  5
1BF32
  8
0
 10
4420.9922958735879
 20
433.73536216697607
 30
0.0
 11
4420.9794511543896
 21
433.73170078787609
 31
0.0
  0
LINE
  5
1BF33
  8
0
 10
4420.9827359612891
 20
433.73263711997612
 30
0.0
 11
4420.9827359612891
 21
433.72623649007608
 31
0.0
  0
LINE
  5
1BF34
  8
0
 10
4420.9988654871886
 20
433.73462783167599
 30
0.0
 11
4420.9988654871886
 21
433.72443357147608
 31
0.0
  0
LINE
  5
1BF35
  8
0
 10
4420.9921977040894
 20
433.74386835697612
 30
0.0
 11
4420.995482510988
 21
433.7384040591761
 31
0.0
  0
LINE
  5
1BF36
  8
0
 10
4420.995482510988
 20
433.7384040591761
 30
0.0
 11
4421.0116120368893
 21
433.73660114057611
 31
0.0
  0
LINE
  5
1BF37
  8
0
 10
4421.0116120368893
 20
433.73660114057611
 30
0.0
 11
4421.0244567559894
 21
433.74026251957599
 31
0.0
  0
LINE
  5
1BF38
  8
0
 10
4421.0244567559894
 20
433.74026251957599
 30
0.0
 11
4421.0211719491881
 21
433.74572681737612
 31
0.0
  0
LINE
  5
1BF39
  8
0
 10
4421.0211719491881
 20
433.74572681737612
 30
0.0
 11
4421.0050424232886
 21
433.7475297360761
 31
0.0
  0
LINE
  5
1BF3A
  8
0
 10
4421.0050424232886
 20
433.7475297360761
 30
0.0
 11
4420.9921977040894
 21
433.74386835697612
 31
0.0
  0
LINE
  5
1BF3B
  8
0
 10
4420.995482510988
 20
433.74480468907598
 30
0.0
 11
4420.995482510988
 21
433.7384040591761
 31
0.0
  0
LINE
  5
1BF3C
  8
0
 10
4421.0116120368893
 20
433.74679540077608
 30
0.0
 11
4421.0116120368893
 21
433.73660114057611
 31
0.0
  0
LINE
  5
1BF3D
  8
0
 10
4421.0049442538902
 20
433.75603592607609
 30
0.0
 11
4421.0082290607879
 21
433.75057162827608
 31
0.0
  0
LINE
  5
1BF3E
  8
0
 10
4421.0082290607879
 20
433.75057162827608
 30
0.0
 11
4421.0243585866892
 21
433.74876870967609
 31
0.0
  0
LINE
  5
1BF3F
  8
0
 10
4421.0243585866892
 20
433.74876870967609
 30
0.0
 11
4421.0372033057893
 21
433.75243008867608
 31
0.0
  0
LINE
  5
1BF40
  8
0
 10
4421.0372033057893
 20
433.75243008867608
 30
0.0
 11
4421.0339184989889
 21
433.7578943864761
 31
0.0
  0
LINE
  5
1BF41
  8
0
 10
4421.0339184989889
 20
433.7578943864761
 30
0.0
 11
4421.0177889730894
 21
433.75969730517608
 31
0.0
  0
LINE
  5
1BF42
  8
0
 10
4421.0177889730894
 20
433.75969730517608
 30
0.0
 11
4421.0049442538902
 21
433.75603592607609
 31
0.0
  0
LINE
  5
1BF43
  8
0
 10
4421.0082290607879
 20
433.75697225817601
 30
0.0
 11
4421.0082290607879
 21
433.75057162827608
 31
0.0
  0
LINE
  5
1BF44
  8
0
 10
4421.0243585866892
 20
433.75896296987611
 30
0.0
 11
4421.0243585866892
 21
433.74876870967609
 31
0.0
  0
LINE
  5
1BF45
  8
0
 10
4421.0176908035892
 20
433.76820349517612
 30
0.0
 11
4421.0209756104887
 21
433.76273919737611
 31
0.0
  0
LINE
  5
1BF46
  8
0
 10
4421.0209756104887
 20
433.76273919737611
 30
0.0
 11
4421.0371051363891
 21
433.76093627877611
 31
0.0
  0
LINE
  5
1BF47
  8
0
 10
4421.0371051363891
 20
433.76093627877611
 30
0.0
 11
4421.0499498554891
 21
433.76459765777611
 31
0.0
  0
LINE
  5
1BF48
  8
0
 10
4421.0499498554891
 20
433.76459765777611
 30
0.0
 11
4421.0466650486878
 21
433.77006195557613
 31
0.0
  0
LINE
  5
1BF49
  8
0
 10
4421.0466650486878
 20
433.77006195557613
 30
0.0
 11
4421.0305355227893
 21
433.7718648742761
 31
0.0
  0
LINE
  5
1BF4A
  8
0
 10
4421.0305355227893
 20
433.7718648742761
 30
0.0
 11
4421.0176908035892
 21
433.76820349517612
 31
0.0
  0
LINE
  5
1BF4B
  8
0
 10
4421.0209756104887
 20
433.76913982727598
 30
0.0
 11
4421.0209756104887
 21
433.76273919737611
 31
0.0
  0
LINE
  5
1BF4C
  8
0
 10
4421.0371051363891
 20
433.77113053897608
 30
0.0
 11
4421.0371051363891
 21
433.76093627877611
 31
0.0
  0
LINE
  5
1BF4D
  8
0
 10
4421.0304373533891
 20
433.78037106437608
 30
0.0
 11
4421.0337221602904
 21
433.77490676657612
 31
0.0
  0
LINE
  5
1BF4E
  8
0
 10
4421.0337221602904
 20
433.77490676657612
 30
0.0
 11
4421.049851686189
 21
433.77310384797607
 31
0.0
  0
LINE
  5
1BF4F
  8
0
 10
4421.049851686189
 20
433.77310384797607
 30
0.0
 11
4421.062696405289
 21
433.77676522697612
 31
0.0
  0
LINE
  5
1BF50
  8
0
 10
4421.062696405289
 20
433.77676522697612
 30
0.0
 11
4421.0594115984904
 21
433.78222952477608
 31
0.0
  0
LINE
  5
1BF51
  8
0
 10
4421.0594115984904
 20
433.78222952477608
 30
0.0
 11
4421.0432820725891
 21
433.78403244347612
 31
0.0
  0
LINE
  5
1BF52
  8
0
 10
4421.0432820725891
 20
433.78403244347612
 30
0.0
 11
4421.0304373533891
 21
433.78037106437608
 31
0.0
  0
LINE
  5
1BF53
  8
0
 10
4421.0337221602904
 20
433.78130739647611
 30
0.0
 11
4421.0337221602904
 21
433.77490676657612
 31
0.0
  0
LINE
  5
1BF54
  8
0
 10
4421.049851686189
 20
433.7832981081761
 30
0.0
 11
4421.049851686189
 21
433.77310384797607
 31
0.0
  0
LINE
  5
1BF55
  8
0
 10
4421.0431839030889
 20
433.792538633476
 30
0.0
 11
4421.0464687099893
 21
433.78707433567598
 31
0.0
  0
LINE
  5
1BF56
  8
0
 10
4421.0464687099893
 20
433.78707433567598
 30
0.0
 11
4421.0625982358888
 21
433.7852714170761
 31
0.0
  0
LINE
  5
1BF57
  8
0
 10
4421.0625982358888
 20
433.7852714170761
 30
0.0
 11
4421.0754429549888
 21
433.7889327960761
 31
0.0
  0
LINE
  5
1BF58
  8
0
 10
4421.0754429549888
 20
433.7889327960761
 30
0.0
 11
4421.0721581481894
 21
433.79439709387611
 31
0.0
  0
LINE
  5
1BF59
  8
0
 10
4421.0721581481894
 20
433.79439709387611
 30
0.0
 11
4421.056028622289
 21
433.79620001257598
 31
0.0
  0
LINE
  5
1BF5A
  8
0
 10
4421.056028622289
 20
433.79620001257598
 30
0.0
 11
4421.0431839030889
 21
433.792538633476
 31
0.0
  0
LINE
  5
1BF5B
  8
0
 10
4421.0464687099893
 20
433.79347496557608
 30
0.0
 11
4421.0464687099893
 21
433.78707433567598
 31
0.0
  0
LINE
  5
1BF5C
  8
0
 10
4421.0625982358888
 20
433.79546567727613
 30
0.0
 11
4421.0625982358888
 21
433.7852714170761
 31
0.0
  0
LINE
  5
1BF5D
  8
0
 10
4421.0559304527887
 20
433.80470620257609
 30
0.0
 11
4421.0592152596892
 21
433.79924190477612
 31
0.0
  0
LINE
  5
1BF5E
  8
0
 10
4421.0592152596892
 20
433.79924190477612
 30
0.0
 11
4421.0753447855886
 21
433.79743898617608
 31
0.0
  0
LINE
  5
1BF5F
  8
0
 10
4421.0753447855886
 20
433.79743898617608
 30
0.0
 11
4421.0881895046887
 21
433.80110036517613
 31
0.0
  0
LINE
  5
1BF60
  8
0
 10
4421.0881895046887
 20
433.80110036517613
 30
0.0
 11
4421.0849046978892
 21
433.80656466297609
 31
0.0
  0
LINE
  5
1BF61
  8
0
 10
4421.0849046978892
 20
433.80656466297609
 30
0.0
 11
4421.0687751719879
 21
433.80836758167601
 31
0.0
  0
LINE
  5
1BF62
  8
0
 10
4421.0687751719879
 20
433.80836758167601
 30
0.0
 11
4421.0559304527887
 21
433.80470620257609
 31
0.0
  0
LINE
  5
1BF63
  8
0
 10
4421.0592152596892
 20
433.80564253467611
 30
0.0
 11
4421.0592152596892
 21
433.79924190477612
 31
0.0
  0
LINE
  5
1BF64
  8
0
 10
4421.0753447855886
 20
433.8076332463761
 30
0.0
 11
4421.0753447855886
 21
433.79743898617608
 31
0.0
  0
LINE
  5
1BF65
  8
0
 10
4421.0686770024886
 20
433.81687377167611
 30
0.0
 11
4421.0719618093881
 21
433.81140947387598
 31
0.0
  0
LINE
  5
1BF66
  8
0
 10
4421.0719618093881
 20
433.81140947387598
 30
0.0
 11
4421.0880913352894
 21
433.80960655527599
 31
0.0
  0
LINE
  5
1BF67
  8
0
 10
4421.0880913352894
 20
433.80960655527599
 30
0.0
 11
4421.1009360543894
 21
433.8132679342761
 31
0.0
  0
LINE
  5
1BF68
  8
0
 10
4421.1009360543894
 20
433.8132679342761
 30
0.0
 11
4421.0976512475881
 21
433.81873223207612
 31
0.0
  0
LINE
  5
1BF69
  8
0
 10
4421.0976512475881
 20
433.81873223207612
 30
0.0
 11
4421.0815217216887
 21
433.82053515077598
 31
0.0
  0
LINE
  5
1BF6A
  8
0
 10
4421.0815217216887
 20
433.82053515077598
 30
0.0
 11
4421.0686770024886
 21
433.81687377167611
 31
0.0
  0
LINE
  5
1BF6B
  8
0
 10
4421.0719618093881
 20
433.81781010377608
 30
0.0
 11
4421.0719618093881
 21
433.81140947387598
 31
0.0
  0
LINE
  5
1BF6C
  8
0
 10
4421.0880913352894
 20
433.81980081547613
 30
0.0
 11
4421.0880913352894
 21
433.80960655527599
 31
0.0
  0
LINE
  5
1BF6D
  8
0
 10
4421.083370945259
 20
433.82580183991189
 30
0.0
 11
4421.084708359188
 21
433.82357704307611
 31
0.0
  0
LINE
  5
1BF6E
  8
0
 10
4421.084708359188
 20
433.82357704307611
 30
0.0
 11
4421.1008378850893
 21
433.82177412447601
 31
0.0
  0
LINE
  5
1BF6F
  8
0
 10
4421.1008378850893
 20
433.82177412447601
 30
0.0
 11
4421.1136826041893
 21
433.82543550347611
 31
0.0
  0
LINE
  5
1BF70
  8
0
 10
4421.1136826041893
 20
433.82543550347611
 30
0.0
 11
4421.1119786219133
 21
433.82827008924289
 31
0.0
  0
LINE
  5
1BF71
  8
0
 10
4421.084708359188
 20
433.82594107747212
 30
0.0
 11
4421.084708359188
 21
433.82357704307611
 31
0.0
  0
LINE
  5
1BF72
  8
0
 10
4421.1008378850893
 20
433.82743586971611
 30
0.0
 11
4421.1008378850893
 21
433.82177412447601
 31
0.0
  0
LINE
  5
1BF73
  8
0
 10
4420.9798438319885
 20
433.69767602777608
 30
0.0
 11
4420.983128638889
 21
433.69221172997612
 31
0.0
  0
LINE
  5
1BF74
  8
0
 10
4420.983128638889
 20
433.69221172997612
 30
0.0
 11
4420.9992581647903
 21
433.69040881137607
 31
0.0
  0
LINE
  5
1BF75
  8
0
 10
4420.9992581647903
 20
433.69040881137607
 30
0.0
 11
4421.0121028838894
 21
433.69407019037612
 31
0.0
  0
LINE
  5
1BF76
  8
0
 10
4421.0121028838894
 20
433.69407019037612
 30
0.0
 11
4421.008818077089
 21
433.69953448817608
 31
0.0
  0
LINE
  5
1BF77
  8
0
 10
4421.008818077089
 20
433.69953448817608
 30
0.0
 11
4420.9926885511904
 21
433.70133740687612
 31
0.0
  0
LINE
  5
1BF78
  8
0
 10
4420.9926885511904
 20
433.70133740687612
 30
0.0
 11
4420.9798438319885
 21
433.69767602777608
 31
0.0
  0
LINE
  5
1BF79
  8
0
 10
4420.983128638889
 20
433.69861235987611
 30
0.0
 11
4420.983128638889
 21
433.69221172997612
 31
0.0
  0
LINE
  5
1BF7A
  8
0
 10
4420.9992581647903
 20
433.7006030715761
 30
0.0
 11
4420.9992581647903
 21
433.69040881137607
 31
0.0
  0
LINE
  5
1BF7B
  8
0
 10
4420.9925903816893
 20
433.70984359687611
 30
0.0
 11
4420.9958751885879
 21
433.70437929907609
 31
0.0
  0
LINE
  5
1BF7C
  8
0
 10
4420.9958751885879
 20
433.70437929907609
 30
0.0
 11
4421.0120047144892
 21
433.7025763804761
 31
0.0
  0
LINE
  5
1BF7D
  8
0
 10
4421.0120047144892
 20
433.7025763804761
 30
0.0
 11
4421.0248494335892
 21
433.7062377594761
 31
0.0
  0
LINE
  5
1BF7E
  8
0
 10
4421.0248494335892
 20
433.7062377594761
 30
0.0
 11
4421.0215646267889
 21
433.71170205727611
 31
0.0
  0
LINE
  5
1BF7F
  8
0
 10
4421.0215646267889
 20
433.71170205727611
 30
0.0
 11
4421.0054351008894
 21
433.71350497597598
 31
0.0
  0
LINE
  5
1BF80
  8
0
 10
4421.0054351008894
 20
433.71350497597598
 30
0.0
 11
4420.9925903816893
 21
433.70984359687611
 31
0.0
  0
LINE
  5
1BF81
  8
0
 10
4420.9958751885879
 20
433.71077992897608
 30
0.0
 11
4420.9958751885879
 21
433.70437929907609
 31
0.0
  0
LINE
  5
1BF82
  8
0
 10
4421.0120047144892
 20
433.71277064067613
 30
0.0
 11
4421.0120047144892
 21
433.7025763804761
 31
0.0
  0
LINE
  5
1BF83
  8
0
 10
4421.0053369313891
 20
433.72201116597608
 30
0.0
 11
4421.0086217382886
 21
433.71654686817612
 31
0.0
  0
LINE
  5
1BF84
  8
0
 10
4421.0086217382886
 20
433.71654686817612
 30
0.0
 11
4421.024751264189
 21
433.71474394957608
 31
0.0
  0
LINE
  5
1BF85
  8
0
 10
4421.024751264189
 20
433.71474394957608
 30
0.0
 11
4421.0375959832891
 21
433.71840532857613
 31
0.0
  0
LINE
  5
1BF86
  8
0
 10
4421.0375959832891
 20
433.71840532857613
 30
0.0
 11
4421.0343111764896
 21
433.72386962637609
 31
0.0
  0
LINE
  5
1BF87
  8
0
 10
4421.0343111764896
 20
433.72386962637609
 30
0.0
 11
4421.0181816505892
 21
433.72567254507612
 31
0.0
  0
LINE
  5
1BF88
  8
0
 10
4421.0181816505892
 20
433.72567254507612
 30
0.0
 11
4421.0053369313891
 21
433.72201116597608
 31
0.0
  0
LINE
  5
1BF89
  8
0
 10
4421.0086217382886
 20
433.72294749807611
 30
0.0
 11
4421.0086217382886
 21
433.71654686817612
 31
0.0
  0
LINE
  5
1BF8A
  8
0
 10
4421.024751264189
 20
433.7249382097761
 30
0.0
 11
4421.024751264189
 21
433.71474394957608
 31
0.0
  0
LINE
  5
1BF8B
  8
0
 10
4421.018083481089
 20
433.734178735076
 30
0.0
 11
4421.0213682879894
 21
433.72871443727598
 31
0.0
  0
LINE
  5
1BF8C
  8
0
 10
4421.0213682879894
 20
433.72871443727598
 30
0.0
 11
4421.037497813888
 21
433.7269115186761
 31
0.0
  0
LINE
  5
1BF8D
  8
0
 10
4421.037497813888
 20
433.7269115186761
 30
0.0
 11
4421.050342532988
 21
433.7305728976761
 31
0.0
  0
LINE
  5
1BF8E
  8
0
 10
4421.050342532988
 20
433.7305728976761
 30
0.0
 11
4421.0470577261895
 21
433.73603719547611
 31
0.0
  0
LINE
  5
1BF8F
  8
0
 10
4421.0470577261895
 20
433.73603719547611
 30
0.0
 11
4421.0309282002891
 21
433.73784011417598
 31
0.0
  0
LINE
  5
1BF90
  8
0
 10
4421.0309282002891
 20
433.73784011417598
 30
0.0
 11
4421.018083481089
 21
433.734178735076
 31
0.0
  0
LINE
  5
1BF91
  8
0
 10
4421.0213682879894
 20
433.73511506717608
 30
0.0
 11
4421.0213682879894
 21
433.72871443727598
 31
0.0
  0
LINE
  5
1BF92
  8
0
 10
4421.037497813888
 20
433.73710577887613
 30
0.0
 11
4421.037497813888
 21
433.7269115186761
 31
0.0
  0
LINE
  5
1BF93
  8
0
 10
4421.0308300308889
 20
433.74634630417609
 30
0.0
 11
4421.0341148377893
 21
433.74088200637613
 31
0.0
  0
LINE
  5
1BF94
  8
0
 10
4421.0341148377893
 20
433.74088200637613
 30
0.0
 11
4421.0502443636888
 21
433.73907908777608
 31
0.0
  0
LINE
  5
1BF95
  8
0
 10
4421.0502443636888
 20
433.73907908777608
 30
0.0
 11
4421.0630890827879
 21
433.74274046677613
 31
0.0
  0
LINE
  5
1BF96
  8
0
 10
4421.0630890827879
 20
433.74274046677613
 30
0.0
 11
4421.0598042759893
 21
433.74820476457609
 31
0.0
  0
LINE
  5
1BF97
  8
0
 10
4421.0598042759893
 20
433.74820476457609
 30
0.0
 11
4421.0436747500889
 21
433.75000768327601
 31
0.0
  0
LINE
  5
1BF98
  8
0
 10
4421.0436747500889
 20
433.75000768327601
 30
0.0
 11
4421.0308300308889
 21
433.74634630417609
 31
0.0
  0
LINE
  5
1BF99
  8
0
 10
4421.0341148377893
 20
433.74728263627611
 30
0.0
 11
4421.0341148377893
 21
433.74088200637613
 31
0.0
  0
LINE
  5
1BF9A
  8
0
 10
4421.0502443636888
 20
433.7492733479761
 30
0.0
 11
4421.0502443636888
 21
433.73907908777608
 31
0.0
  0
LINE
  5
1BF9B
  8
0
 10
4421.0435765805887
 20
433.75851387327612
 30
0.0
 11
4421.0468613874891
 21
433.75304957547598
 31
0.0
  0
LINE
  5
1BF9C
  8
0
 10
4421.0468613874891
 20
433.75304957547598
 30
0.0
 11
4421.0629909133886
 21
433.75124665687599
 31
0.0
  0
LINE
  5
1BF9D
  8
0
 10
4421.0629909133886
 20
433.75124665687599
 30
0.0
 11
4421.0758356324886
 21
433.7549080358761
 31
0.0
  0
LINE
  5
1BF9E
  8
0
 10
4421.0758356324886
 20
433.7549080358761
 30
0.0
 11
4421.0725508256892
 21
433.76037233367612
 31
0.0
  0
LINE
  5
1BF9F
  8
0
 10
4421.0725508256892
 20
433.76037233367612
 30
0.0
 11
4421.0564212997879
 21
433.7621752523761
 31
0.0
  0
LINE
  5
1BFA0
  8
0
 10
4421.0564212997879
 20
433.7621752523761
 30
0.0
 11
4421.0435765805887
 21
433.75851387327612
 31
0.0
  0
LINE
  5
1BFA1
  8
0
 10
4421.0468613874891
 20
433.75945020537608
 30
0.0
 11
4421.0468613874891
 21
433.75304957547598
 31
0.0
  0
LINE
  5
1BFA2
  8
0
 10
4421.0629909133886
 20
433.76144091707607
 30
0.0
 11
4421.0629909133886
 21
433.75124665687599
 31
0.0
  0
LINE
  5
1BFA3
  8
0
 10
4421.0563231303886
 20
433.77068144247608
 30
0.0
 11
4421.059607937289
 21
433.76521714467611
 31
0.0
  0
LINE
  5
1BFA4
  8
0
 10
4421.059607937289
 20
433.76521714467611
 30
0.0
 11
4421.0757374631903
 21
433.76341422607601
 31
0.0
  0
LINE
  5
1BFA5
  8
0
 10
4421.0757374631903
 20
433.76341422607601
 30
0.0
 11
4421.0885821822894
 21
433.76707560507612
 31
0.0
  0
LINE
  5
1BFA6
  8
0
 10
4421.0885821822894
 20
433.76707560507612
 30
0.0
 11
4421.0852973754891
 21
433.77253990287608
 31
0.0
  0
LINE
  5
1BFA7
  8
0
 10
4421.0852973754891
 20
433.77253990287608
 30
0.0
 11
4421.0691678495896
 21
433.77434282157611
 31
0.0
  0
LINE
  5
1BFA8
  8
0
 10
4421.0691678495896
 20
433.77434282157611
 30
0.0
 11
4421.0563231303886
 21
433.77068144247608
 31
0.0
  0
LINE
  5
1BFA9
  8
0
 10
4421.059607937289
 20
433.77161777457599
 30
0.0
 11
4421.059607937289
 21
433.76521714467611
 31
0.0
  0
LINE
  5
1BFAA
  8
0
 10
4421.0757374631903
 20
433.77360848627609
 30
0.0
 11
4421.0757374631903
 21
433.76341422607601
 31
0.0
  0
LINE
  5
1BFAB
  8
0
 10
4421.0690696800893
 20
433.7828490115761
 30
0.0
 11
4421.0723544869879
 21
433.77738471377609
 31
0.0
  0
LINE
  5
1BFAC
  8
0
 10
4421.0723544869879
 20
433.77738471377609
 30
0.0
 11
4421.0884840128892
 21
433.77558179517609
 31
0.0
  0
LINE
  5
1BFAD
  8
0
 10
4421.0884840128892
 20
433.77558179517609
 30
0.0
 11
4421.1013287319893
 21
433.77924317417609
 31
0.0
  0
LINE
  5
1BFAE
  8
0
 10
4421.1013287319893
 20
433.77924317417609
 30
0.0
 11
4421.0980439251889
 21
433.78470747197611
 31
0.0
  0
LINE
  5
1BFAF
  8
0
 10
4421.0980439251889
 20
433.78470747197611
 30
0.0
 11
4421.0819143992894
 21
433.78651039067609
 31
0.0
  0
LINE
  5
1BFB0
  8
0
 10
4421.0819143992894
 20
433.78651039067609
 30
0.0
 11
4421.0690696800893
 21
433.7828490115761
 31
0.0
  0
LINE
  5
1BFB1
  8
0
 10
4421.0723544869879
 20
433.78378534367607
 30
0.0
 11
4421.0723544869879
 21
433.77738471377609
 31
0.0
  0
LINE
  5
1BFB2
  8
0
 10
4421.0884840128892
 20
433.785776055376
 30
0.0
 11
4421.0884840128892
 21
433.77558179517609
 31
0.0
  0
LINE
  5
1BFB3
  8
0
 10
4421.0818162297892
 20
433.79501658067608
 30
0.0
 11
4421.0851010366887
 21
433.78955228287612
 31
0.0
  0
LINE
  5
1BFB4
  8
0
 10
4421.0851010366887
 20
433.78955228287612
 30
0.0
 11
4421.1012305625891
 21
433.78774936427612
 31
0.0
  0
LINE
  5
1BFB5
  8
0
 10
4421.1012305625891
 20
433.78774936427612
 30
0.0
 11
4421.1140752816891
 21
433.791410743276
 31
0.0
  0
LINE
  5
1BFB6
  8
0
 10
4421.1140752816891
 20
433.791410743276
 30
0.0
 11
4421.1107904748878
 21
433.79687504107608
 31
0.0
  0
LINE
  5
1BFB7
  8
0
 10
4421.1107904748878
 20
433.79687504107608
 30
0.0
 11
4421.0946609489893
 21
433.79867795977611
 31
0.0
  0
LINE
  5
1BFB8
  8
0
 10
4421.0946609489893
 20
433.79867795977611
 30
0.0
 11
4421.0818162297892
 21
433.79501658067608
 31
0.0
  0
LINE
  5
1BFB9
  8
0
 10
4421.0851010366887
 20
433.79595291277599
 30
0.0
 11
4421.0851010366887
 21
433.78955228287612
 31
0.0
  0
LINE
  5
1BFBA
  8
0
 10
4421.1012305625891
 20
433.79794362447609
 30
0.0
 11
4421.1012305625891
 21
433.78774936427612
 31
0.0
  0
LINE
  5
1BFBB
  8
0
 10
4421.094562779489
 20
433.80718414977611
 30
0.0
 11
4421.0978475863903
 21
433.80171985197609
 31
0.0
  0
LINE
  5
1BFBC
  8
0
 10
4421.0978475863903
 20
433.80171985197609
 30
0.0
 11
4421.113977112288
 21
433.7999169333761
 31
0.0
  0
LINE
  5
1BFBD
  8
0
 10
4421.113977112288
 20
433.7999169333761
 30
0.0
 11
4421.126821831388
 21
433.80357831237609
 31
0.0
  0
LINE
  5
1BFBE
  8
0
 10
4421.126821831388
 20
433.80357831237609
 30
0.0
 11
4421.1235370245886
 21
433.80904261017611
 31
0.0
  0
LINE
  5
1BFBF
  8
0
 10
4421.1235370245886
 20
433.80904261017611
 30
0.0
 11
4421.1074074986891
 21
433.81084552887609
 31
0.0
  0
LINE
  5
1BFC0
  8
0
 10
4421.1074074986891
 20
433.81084552887609
 30
0.0
 11
4421.094562779489
 21
433.80718414977611
 31
0.0
  0
LINE
  5
1BFC1
  8
0
 10
4421.0978475863903
 20
433.80812048187607
 30
0.0
 11
4421.0978475863903
 21
433.80171985197609
 31
0.0
  0
LINE
  5
1BFC2
  8
0
 10
4421.113977112288
 20
433.81011119357612
 30
0.0
 11
4421.113977112288
 21
433.7999169333761
 31
0.0
  0
LINE
  5
1BFC3
  8
0
 10
4421.1073093292889
 20
433.81935171897612
 30
0.0
 11
4421.1105941361893
 21
433.8138874211761
 31
0.0
  0
LINE
  5
1BFC4
  8
0
 10
4421.1105941361893
 20
433.8138874211761
 30
0.0
 11
4421.1267236620888
 21
433.81208450257611
 31
0.0
  0
LINE
  5
1BFC5
  8
0
 10
4421.1267236620888
 20
433.81208450257611
 30
0.0
 11
4421.1395683811879
 21
433.81574588157611
 31
0.0
  0
LINE
  5
1BFC6
  8
0
 10
4421.1395683811879
 20
433.81574588157611
 30
0.0
 11
4421.1362835743894
 21
433.82121017937612
 31
0.0
  0
LINE
  5
1BFC7
  8
0
 10
4421.1362835743894
 20
433.82121017937612
 30
0.0
 11
4421.120154048489
 21
433.82301309807599
 31
0.0
  0
LINE
  5
1BFC8
  8
0
 10
4421.120154048489
 20
433.82301309807599
 30
0.0
 11
4421.1073093292889
 21
433.81935171897612
 31
0.0
  0
LINE
  5
1BFC9
  8
0
 10
4421.1105941361893
 20
433.82028805107609
 30
0.0
 11
4421.1105941361893
 21
433.8138874211761
 31
0.0
  0
LINE
  5
1BFCA
  8
0
 10
4421.1267236620888
 20
433.82227876277608
 30
0.0
 11
4421.1267236620888
 21
433.81208450257611
 31
0.0
  0
LINE
  5
1BFCB
  8
0
 10
4421.1216523450421
 20
433.82886355633741
 30
0.0
 11
4421.1233406858892
 21
433.82605499027608
 31
0.0
  0
LINE
  5
1BFCC
  8
0
 10
4421.1233406858892
 20
433.82605499027608
 30
0.0
 11
4421.1394702117886
 21
433.82425207167609
 31
0.0
  0
LINE
  5
1BFCD
  8
0
 10
4421.1394702117886
 20
433.82425207167609
 30
0.0
 11
4421.1523149308887
 21
433.82791345067608
 31
0.0
  0
LINE
  5
1BFCE
  8
0
 10
4421.1523149308887
 20
433.82791345067608
 30
0.0
 11
4421.1511063270273
 21
433.8299239711796
 31
0.0
  0
LINE
  5
1BFCF
  8
0
 10
4421.1233406858892
 20
433.82895468553181
 30
0.0
 11
4421.1233406858892
 21
433.82605499027608
 31
0.0
  0
LINE
  5
1BFD0
  8
0
 10
4421.1394702117886
 20
433.82963914176747
 30
0.0
 11
4421.1394702117886
 21
433.82425207167609
 31
0.0
  0
LINE
  5
1BFD1
  8
0
 10
4421.1459416559883
 20
433.82182966617609
 30
0.0
 11
4421.1492264628887
 21
433.81636536837613
 31
0.0
  0
LINE
  5
1BFD2
  8
0
 10
4421.1492264628887
 20
433.81636536837613
 30
0.0
 11
4421.1653559887891
 21
433.81456244977608
 31
0.0
  0
LINE
  5
1BFD3
  8
0
 10
4421.1653559887891
 20
433.81456244977608
 30
0.0
 11
4421.1782007078891
 21
433.81822382877613
 31
0.0
  0
LINE
  5
1BFD4
  8
0
 10
4421.1782007078891
 20
433.81822382877613
 30
0.0
 11
4421.1749159010878
 21
433.82368812657609
 31
0.0
  0
LINE
  5
1BFD5
  8
0
 10
4421.1749159010878
 20
433.82368812657609
 30
0.0
 11
4421.1587863751893
 21
433.82549104527612
 31
0.0
  0
LINE
  5
1BFD6
  8
0
 10
4421.1587863751893
 20
433.82549104527612
 30
0.0
 11
4421.1459416559883
 21
433.82182966617609
 31
0.0
  0
LINE
  5
1BFD7
  8
0
 10
4421.1492264628887
 20
433.82276599827611
 30
0.0
 11
4421.1492264628887
 21
433.81636536837613
 31
0.0
  0
LINE
  5
1BFD8
  8
0
 10
4421.1653559887891
 20
433.82475670997599
 30
0.0
 11
4421.1653559887891
 21
433.81456244977608
 31
0.0
  0
LINE
  5
1BFD9
  8
0
 10
4421.1610737468463
 20
433.83002887193101
 30
0.0
 11
4421.1619730125904
 21
433.8285329374761
 31
0.0
  0
LINE
  5
1BFDA
  8
0
 10
4421.1619730125904
 20
433.8285329374761
 30
0.0
 11
4421.1781025384889
 21
433.82673001887611
 31
0.0
  0
LINE
  5
1BFDB
  8
0
 10
4421.1781025384889
 20
433.82673001887611
 30
0.0
 11
4421.1883783523836
 21
433.8296591330834
 31
0.0
  0
LINE
  5
1BFDC
  8
0
 10
4421.1619730125904
 20
433.83003202695397
 30
0.0
 11
4421.1619730125904
 21
433.8285329374761
 31
0.0
  0
LINE
  5
1BFDD
  8
0
 10
4421.1781025384889
 20
433.82991129147553
 30
0.0
 11
4421.1781025384889
 21
433.82673001887611
 31
0.0
  0
LINE
  5
1BFDE
  8
0
 10
4421.1204485565886
 20
433.79749452797608
 30
0.0
 11
4421.123733363489
 21
433.79203023017601
 31
0.0
  0
LINE
  5
1BFDF
  8
0
 10
4421.123733363489
 20
433.79203023017601
 30
0.0
 11
4421.1398628893894
 21
433.79022731157607
 31
0.0
  0
LINE
  5
1BFE0
  8
0
 10
4421.1398628893894
 20
433.79022731157607
 30
0.0
 11
4421.1527076084903
 21
433.79388869057613
 31
0.0
  0
LINE
  5
1BFE1
  8
0
 10
4421.1527076084903
 20
433.79388869057613
 30
0.0
 11
4421.1494228016891
 21
433.79935298837609
 31
0.0
  0
LINE
  5
1BFE2
  8
0
 10
4421.1494228016891
 20
433.79935298837609
 30
0.0
 11
4421.1332932757887
 21
433.80115590707612
 31
0.0
  0
LINE
  5
1BFE3
  8
0
 10
4421.1332932757887
 20
433.80115590707612
 30
0.0
 11
4421.1204485565886
 21
433.79749452797608
 31
0.0
  0
LINE
  5
1BFE4
  8
0
 10
4421.123733363489
 20
433.79843086007611
 30
0.0
 11
4421.123733363489
 21
433.79203023017601
 31
0.0
  0
LINE
  5
1BFE5
  8
0
 10
4421.1398628893894
 20
433.80042157177598
 30
0.0
 11
4421.1398628893894
 21
433.79022731157607
 31
0.0
  0
LINE
  5
1BFE6
  8
0
 10
4421.1331951062893
 20
433.80966209707611
 30
0.0
 11
4421.1364799131889
 21
433.8041977992761
 31
0.0
  0
LINE
  5
1BFE7
  8
0
 10
4421.1364799131889
 20
433.8041977992761
 30
0.0
 11
4421.1526094390892
 21
433.80239488067599
 31
0.0
  0
LINE
  5
1BFE8
  8
0
 10
4421.1526094390892
 20
433.80239488067599
 30
0.0
 11
4421.1654541581893
 21
433.80605625967598
 31
0.0
  0
LINE
  5
1BFE9
  8
0
 10
4421.1654541581893
 20
433.80605625967598
 30
0.0
 11
4421.1621693513889
 21
433.811520557476
 31
0.0
  0
LINE
  5
1BFEA
  8
0
 10
4421.1621693513889
 20
433.811520557476
 30
0.0
 11
4421.1460398254894
 21
433.81332347617609
 31
0.0
  0
LINE
  5
1BFEB
  8
0
 10
4421.1460398254894
 20
433.81332347617609
 30
0.0
 11
4421.1331951062893
 21
433.80966209707611
 31
0.0
  0
LINE
  5
1BFEC
  8
0
 10
4421.1364799131889
 20
433.81059842917608
 30
0.0
 11
4421.1364799131889
 21
433.8041977992761
 31
0.0
  0
LINE
  5
1BFED
  8
0
 10
4421.1526094390892
 20
433.81258914087613
 30
0.0
 11
4421.1526094390892
 21
433.80239488067599
 31
0.0
  0
LINE
  5
1BFEE
  8
0
 10
4421.094955457088
 20
433.77315938967598
 30
0.0
 11
4421.0982402639893
 21
433.76769509187608
 31
0.0
  0
LINE
  5
1BFEF
  8
0
 10
4421.0982402639893
 20
433.76769509187608
 30
0.0
 11
4421.1143697898888
 21
433.76589217327609
 31
0.0
  0
LINE
  5
1BFF0
  8
0
 10
4421.1143697898888
 20
433.76589217327609
 30
0.0
 11
4421.1272145089879
 21
433.76955355227608
 31
0.0
  0
LINE
  5
1BFF1
  8
0
 10
4421.1272145089879
 20
433.76955355227608
 30
0.0
 11
4421.1239297021893
 21
433.7750178500761
 31
0.0
  0
LINE
  5
1BFF2
  8
0
 10
4421.1239297021893
 20
433.7750178500761
 30
0.0
 11
4421.1078001762889
 21
433.77682076877608
 31
0.0
  0
LINE
  5
1BFF3
  8
0
 10
4421.1078001762889
 20
433.77682076877608
 30
0.0
 11
4421.094955457088
 21
433.77315938967598
 31
0.0
  0
LINE
  5
1BFF4
  8
0
 10
4421.0982402639893
 20
433.77409572177612
 30
0.0
 11
4421.0982402639893
 21
433.76769509187608
 31
0.0
  0
LINE
  5
1BFF5
  8
0
 10
4421.1143697898888
 20
433.77608643347611
 30
0.0
 11
4421.1143697898888
 21
433.76589217327609
 31
0.0
  0
LINE
  5
1BFF6
  8
0
 10
4421.1077020067878
 20
433.78532695877601
 30
0.0
 11
4421.1109868136891
 21
433.77986266097599
 31
0.0
  0
LINE
  5
1BFF7
  8
0
 10
4421.1109868136891
 20
433.77986266097599
 30
0.0
 11
4421.1271163395886
 21
433.77805974237612
 31
0.0
  0
LINE
  5
1BFF8
  8
0
 10
4421.1271163395886
 20
433.77805974237612
 30
0.0
 11
4421.1399610586886
 21
433.78172112137611
 31
0.0
  0
LINE
  5
1BFF9
  8
0
 10
4421.1399610586886
 20
433.78172112137611
 30
0.0
 11
4421.1366762518892
 21
433.78718541917613
 31
0.0
  0
LINE
  5
1BFFA
  8
0
 10
4421.1366762518892
 20
433.78718541917613
 30
0.0
 11
4421.1205467259888
 21
433.78898833787599
 31
0.0
  0
LINE
  5
1BFFB
  8
0
 10
4421.1205467259888
 20
433.78898833787599
 30
0.0
 11
4421.1077020067878
 21
433.78532695877601
 31
0.0
  0
LINE
  5
1BFFC
  8
0
 10
4421.1109868136891
 20
433.78626329087609
 30
0.0
 11
4421.1109868136891
 21
433.77986266097599
 31
0.0
  0
LINE
  5
1BFFD
  8
0
 10
4421.1271163395886
 20
433.78825400257608
 30
0.0
 11
4421.1271163395886
 21
433.77805974237612
 31
0.0
  0
LINE
  5
1BFFE
  8
0
 10
4421.0694623575882
 20
433.74882425147598
 30
0.0
 11
4421.0727471644886
 21
433.74335995367608
 31
0.0
  0
LINE
  5
1BFFF
  8
0
 10
4421.0727471644886
 20
433.74335995367608
 30
0.0
 11
4421.088876690389
 21
433.74155703507608
 31
0.0
  0
LINE
  5
1C000
  8
0
 10
4421.088876690389
 20
433.74155703507608
 30
0.0
 11
4421.1017214094891
 21
433.74521841407608
 31
0.0
  0
LINE
  5
1C001
  8
0
 10
4421.1017214094891
 20
433.74521841407608
 30
0.0
 11
4421.0984366026878
 21
433.7506827118761
 31
0.0
  0
LINE
  5
1C002
  8
0
 10
4421.0984366026878
 20
433.7506827118761
 30
0.0
 11
4421.0823070767892
 21
433.75248563057607
 31
0.0
  0
LINE
  5
1C003
  8
0
 10
4421.0823070767892
 20
433.75248563057607
 30
0.0
 11
4421.0694623575882
 21
433.74882425147598
 31
0.0
  0
LINE
  5
1C004
  8
0
 10
4421.0727471644886
 20
433.74976058357612
 30
0.0
 11
4421.0727471644886
 21
433.74335995367608
 31
0.0
  0
LINE
  5
1C005
  8
0
 10
4421.088876690389
 20
433.75175129527611
 30
0.0
 11
4421.088876690389
 21
433.74155703507608
 31
0.0
  0
LINE
  5
1C006
  8
0
 10
4421.0822089072881
 20
433.76099182057612
 30
0.0
 11
4421.0854937141903
 21
433.75552752277611
 31
0.0
  0
LINE
  5
1C007
  8
0
 10
4421.0854937141903
 20
433.75552752277611
 30
0.0
 11
4421.1016232400889
 21
433.75372460417611
 31
0.0
  0
LINE
  5
1C008
  8
0
 10
4421.1016232400889
 20
433.75372460417611
 30
0.0
 11
4421.114467959188
 21
433.75738598317611
 31
0.0
  0
LINE
  5
1C009
  8
0
 10
4421.114467959188
 20
433.75738598317611
 30
0.0
 11
4421.1111831523885
 21
433.76285028097612
 31
0.0
  0
LINE
  5
1C00A
  8
0
 10
4421.1111831523885
 20
433.76285028097612
 30
0.0
 11
4421.0950536264891
 21
433.76465319967599
 31
0.0
  0
LINE
  5
1C00B
  8
0
 10
4421.0950536264891
 20
433.76465319967599
 30
0.0
 11
4421.0822089072881
 21
433.76099182057612
 31
0.0
  0
LINE
  5
1C00C
  8
0
 10
4421.0854937141903
 20
433.76192815267609
 30
0.0
 11
4421.0854937141903
 21
433.75552752277611
 31
0.0
  0
LINE
  5
1C00D
  8
0
 10
4421.1016232400889
 20
433.76391886437608
 30
0.0
 11
4421.1016232400889
 21
433.75372460417611
 31
0.0
  0
LINE
  5
1C00E
  8
0
 10
4421.0439692581886
 20
433.72448911317611
 30
0.0
 11
4421.047254065089
 21
433.71902481537609
 31
0.0
  0
LINE
  5
1C00F
  8
0
 10
4421.047254065089
 20
433.71902481537609
 30
0.0
 11
4421.0633835909894
 21
433.7172218967761
 31
0.0
  0
LINE
  5
1C010
  8
0
 10
4421.0633835909894
 20
433.7172218967761
 30
0.0
 11
4421.0762283100903
 21
433.72088327577609
 31
0.0
  0
LINE
  5
1C011
  8
0
 10
4421.0762283100903
 20
433.72088327577609
 30
0.0
 11
4421.072943503289
 21
433.72634757357611
 31
0.0
  0
LINE
  5
1C012
  8
0
 10
4421.072943503289
 20
433.72634757357611
 30
0.0
 11
4421.0568139773886
 21
433.72815049227609
 31
0.0
  0
LINE
  5
1C013
  8
0
 10
4421.0568139773886
 20
433.72815049227609
 30
0.0
 11
4421.0439692581886
 21
433.72448911317611
 31
0.0
  0
LINE
  5
1C014
  8
0
 10
4421.047254065089
 20
433.72542544527607
 30
0.0
 11
4421.047254065089
 21
433.71902481537609
 31
0.0
  0
LINE
  5
1C015
  8
0
 10
4421.0633835909894
 20
433.72741615697601
 30
0.0
 11
4421.0633835909894
 21
433.7172218967761
 31
0.0
  0
LINE
  5
1C016
  8
0
 10
4421.0567158078893
 20
433.73665668227608
 30
0.0
 11
4421.0600006147888
 21
433.73119238447612
 31
0.0
  0
LINE
  5
1C017
  8
0
 10
4421.0600006147888
 20
433.73119238447612
 30
0.0
 11
4421.0761301406892
 21
433.72938946587612
 31
0.0
  0
LINE
  5
1C018
  8
0
 10
4421.0761301406892
 20
433.72938946587612
 30
0.0
 11
4421.0889748597892
 21
433.73305084487612
 31
0.0
  0
LINE
  5
1C019
  8
0
 10
4421.0889748597892
 20
433.73305084487612
 30
0.0
 11
4421.0856900529889
 21
433.73851514267608
 31
0.0
  0
LINE
  5
1C01A
  8
0
 10
4421.0856900529889
 20
433.73851514267608
 30
0.0
 11
4421.0695605270894
 21
433.74031806137612
 31
0.0
  0
LINE
  5
1C01B
  8
0
 10
4421.0695605270894
 20
433.74031806137612
 30
0.0
 11
4421.0567158078893
 21
433.73665668227608
 31
0.0
  0
LINE
  5
1C01C
  8
0
 10
4421.0600006147888
 20
433.73759301437599
 30
0.0
 11
4421.0600006147888
 21
433.73119238447612
 31
0.0
  0
LINE
  5
1C01D
  8
0
 10
4421.0761301406892
 20
433.73958372607609
 30
0.0
 11
4421.0761301406892
 21
433.72938946587612
 31
0.0
  0
LINE
  5
1C01E
  8
0
 10
4421.0184761586879
 20
433.7001539749761
 30
0.0
 11
4421.0217609655892
 21
433.69468967717609
 31
0.0
  0
LINE
  5
1C01F
  8
0
 10
4421.0217609655892
 20
433.69468967717609
 30
0.0
 11
4421.0378904914887
 21
433.69288675857598
 31
0.0
  0
LINE
  5
1C020
  8
0
 10
4421.0378904914887
 20
433.69288675857598
 30
0.0
 11
4421.0507352105878
 21
433.69654813757609
 31
0.0
  0
LINE
  5
1C021
  8
0
 10
4421.0507352105878
 20
433.69654813757609
 30
0.0
 11
4421.0474504037893
 21
433.70201243537599
 31
0.0
  0
LINE
  5
1C022
  8
0
 10
4421.0474504037893
 20
433.70201243537599
 30
0.0
 11
4421.0313208778889
 21
433.70381535407608
 31
0.0
  0
LINE
  5
1C023
  8
0
 10
4421.0313208778889
 20
433.70381535407608
 30
0.0
 11
4421.0184761586879
 21
433.7001539749761
 31
0.0
  0
LINE
  5
1C024
  8
0
 10
4421.0217609655892
 20
433.70109030707607
 30
0.0
 11
4421.0217609655892
 21
433.69468967717609
 31
0.0
  0
LINE
  5
1C025
  8
0
 10
4421.0378904914887
 20
433.70308101877612
 30
0.0
 11
4421.0378904914887
 21
433.69288675857598
 31
0.0
  0
LINE
  5
1C026
  8
0
 10
4421.0312227083887
 20
433.71232154407608
 30
0.0
 11
4421.0345075152891
 21
433.70685724627612
 31
0.0
  0
LINE
  5
1C027
  8
0
 10
4421.0345075152891
 20
433.70685724627612
 30
0.0
 11
4421.0506370411886
 21
433.70505432767601
 31
0.0
  0
LINE
  5
1C028
  8
0
 10
4421.0506370411886
 20
433.70505432767601
 30
0.0
 11
4421.0634817602886
 21
433.708715706676
 31
0.0
  0
LINE
  5
1C029
  8
0
 10
4421.0634817602886
 20
433.708715706676
 30
0.0
 11
4421.0601969534891
 21
433.71418000447608
 31
0.0
  0
LINE
  5
1C02A
  8
0
 10
4421.0601969534891
 20
433.71418000447608
 30
0.0
 11
4421.0440674275887
 21
433.71598292317611
 31
0.0
  0
LINE
  5
1C02B
  8
0
 10
4421.0440674275887
 20
433.71598292317611
 30
0.0
 11
4421.0312227083887
 21
433.71232154407608
 31
0.0
  0
LINE
  5
1C02C
  8
0
 10
4421.0345075152891
 20
433.71325787617599
 30
0.0
 11
4421.0345075152891
 21
433.70685724627612
 31
0.0
  0
LINE
  5
1C02D
  8
0
 10
4421.0506370411886
 20
433.71524858787609
 30
0.0
 11
4421.0506370411886
 21
433.70505432767601
 31
0.0
  0
LINE
  5
1C02E
  8
0
 10
4421.0443619356893
 20
433.69046435307598
 30
0.0
 11
4421.0476467425879
 21
433.68500005527608
 31
0.0
  0
LINE
  5
1C02F
  8
0
 10
4421.0476467425879
 20
433.68500005527608
 30
0.0
 11
4421.0637762684883
 21
433.68319713667609
 31
0.0
  0
LINE
  5
1C030
  8
0
 10
4421.0637762684883
 20
433.68319713667609
 30
0.0
 11
4421.0766209875892
 21
433.68685851567608
 31
0.0
  0
LINE
  5
1C031
  8
0
 10
4421.0766209875892
 20
433.68685851567608
 30
0.0
 11
4421.0733361807879
 21
433.6923228134761
 31
0.0
  0
LINE
  5
1C032
  8
0
 10
4421.0733361807879
 20
433.6923228134761
 30
0.0
 11
4421.0572066548884
 21
433.69412573217608
 31
0.0
  0
LINE
  5
1C033
  8
0
 10
4421.0572066548884
 20
433.69412573217608
 30
0.0
 11
4421.0443619356893
 21
433.69046435307598
 31
0.0
  0
LINE
  5
1C034
  8
0
 10
4421.0476467425879
 20
433.69140068517612
 30
0.0
 11
4421.0476467425879
 21
433.68500005527608
 31
0.0
  0
LINE
  5
1C035
  8
0
 10
4421.0637762684883
 20
433.69339139687611
 30
0.0
 11
4421.0637762684883
 21
433.68319713667609
 31
0.0
  0
LINE
  5
1C036
  8
0
 10
4421.0571084853882
 20
433.70263192217612
 30
0.0
 11
4421.0603932922886
 21
433.69716762437611
 31
0.0
  0
LINE
  5
1C037
  8
0
 10
4421.0603932922886
 20
433.69716762437611
 30
0.0
 11
4421.0765228181881
 21
433.69536470577611
 31
0.0
  0
LINE
  5
1C038
  8
0
 10
4421.0765228181881
 20
433.69536470577611
 30
0.0
 11
4421.089367537289
 21
433.69902608477611
 31
0.0
  0
LINE
  5
1C039
  8
0
 10
4421.089367537289
 20
433.69902608477611
 30
0.0
 11
4421.0860827304887
 21
433.70449038257613
 31
0.0
  0
LINE
  5
1C03A
  8
0
 10
4421.0860827304887
 20
433.70449038257613
 30
0.0
 11
4421.0699532045892
 21
433.70629330127599
 31
0.0
  0
LINE
  5
1C03B
  8
0
 10
4421.0699532045892
 20
433.70629330127599
 30
0.0
 11
4421.0571084853882
 21
433.70263192217612
 31
0.0
  0
LINE
  5
1C03C
  8
0
 10
4421.0603932922886
 20
433.70356825427609
 30
0.0
 11
4421.0603932922886
 21
433.69716762437611
 31
0.0
  0
LINE
  5
1C03D
  8
0
 10
4421.0765228181881
 20
433.70555896597608
 30
0.0
 11
4421.0765228181881
 21
433.69536470577611
 31
0.0
  0
LINE
  5
1C03E
  8
0
 10
4421.069855035189
 20
433.71479949127598
 30
0.0
 11
4421.0731398420894
 21
433.70933519347608
 31
0.0
  0
LINE
  5
1C03F
  8
0
 10
4421.0731398420894
 20
433.70933519347608
 30
0.0
 11
4421.089269367988
 21
433.70753227487609
 31
0.0
  0
LINE
  5
1C040
  8
0
 10
4421.089269367988
 20
433.70753227487609
 30
0.0
 11
4421.1021140870889
 21
433.71119365387608
 31
0.0
  0
LINE
  5
1C041
  8
0
 10
4421.1021140870889
 20
433.71119365387608
 30
0.0
 11
4421.0988292802886
 21
433.71665795167598
 31
0.0
  0
LINE
  5
1C042
  8
0
 10
4421.0988292802886
 20
433.71665795167598
 30
0.0
 11
4421.0826997543882
 21
433.71846087037608
 31
0.0
  0
LINE
  5
1C043
  8
0
 10
4421.0826997543882
 20
433.71846087037608
 30
0.0
 11
4421.069855035189
 21
433.71479949127598
 31
0.0
  0
LINE
  5
1C044
  8
0
 10
4421.0731398420894
 20
433.71573582337612
 30
0.0
 11
4421.0731398420894
 21
433.70933519347608
 31
0.0
  0
LINE
  5
1C045
  8
0
 10
4421.089269367988
 20
433.71772653507611
 30
0.0
 11
4421.089269367988
 21
433.70753227487609
 31
0.0
  0
LINE
  5
1C046
  8
0
 10
4421.0826015848879
 20
433.72696706037613
 30
0.0
 11
4421.0858863917892
 21
433.72150276257599
 31
0.0
  0
LINE
  5
1C047
  8
0
 10
4421.0858863917892
 20
433.72150276257599
 30
0.0
 11
4421.1020159176878
 21
433.71969984397612
 31
0.0
  0
LINE
  5
1C048
  8
0
 10
4421.1020159176878
 20
433.71969984397612
 30
0.0
 11
4421.1148606367879
 21
433.72336122297611
 31
0.0
  0
LINE
  5
1C049
  8
0
 10
4421.1148606367879
 20
433.72336122297611
 30
0.0
 11
4421.1115758299893
 21
433.72882552077613
 31
0.0
  0
LINE
  5
1C04A
  8
0
 10
4421.1115758299893
 20
433.72882552077613
 30
0.0
 11
4421.0954463040889
 21
433.73062843947599
 31
0.0
  0
LINE
  5
1C04B
  8
0
 10
4421.0954463040889
 20
433.73062843947599
 30
0.0
 11
4421.0826015848879
 21
433.72696706037613
 31
0.0
  0
LINE
  5
1C04C
  8
0
 10
4421.0858863917892
 20
433.72790339247609
 30
0.0
 11
4421.0858863917892
 21
433.72150276257599
 31
0.0
  0
LINE
  5
1C04D
  8
0
 10
4421.1020159176878
 20
433.72989410417608
 30
0.0
 11
4421.1020159176878
 21
433.71969984397612
 31
0.0
  0
LINE
  5
1C04E
  8
0
 10
4421.0953481345887
 20
433.73913462957609
 30
0.0
 11
4421.0986329414891
 21
433.73367033177601
 31
0.0
  0
LINE
  5
1C04F
  8
0
 10
4421.0986329414891
 20
433.73367033177601
 30
0.0
 11
4421.1147624673886
 21
433.73186741317608
 31
0.0
  0
LINE
  5
1C050
  8
0
 10
4421.1147624673886
 20
433.73186741317608
 30
0.0
 11
4421.1276071864886
 21
433.73552879217613
 31
0.0
  0
LINE
  5
1C051
  8
0
 10
4421.1276071864886
 20
433.73552879217613
 30
0.0
 11
4421.1243223796882
 21
433.74099308997609
 31
0.0
  0
LINE
  5
1C052
  8
0
 10
4421.1243223796882
 20
433.74099308997609
 30
0.0
 11
4421.1081928537888
 21
433.74279600867612
 31
0.0
  0
LINE
  5
1C053
  8
0
 10
4421.1081928537888
 20
433.74279600867612
 30
0.0
 11
4421.0953481345887
 21
433.73913462957609
 31
0.0
  0
LINE
  5
1C054
  8
0
 10
4421.0986329414891
 20
433.74007096167611
 30
0.0
 11
4421.0986329414891
 21
433.73367033177601
 31
0.0
  0
LINE
  5
1C055
  8
0
 10
4421.1147624673886
 20
433.74206167337599
 30
0.0
 11
4421.1147624673886
 21
433.73186741317608
 31
0.0
  0
LINE
  5
1C056
  8
0
 10
4421.1080946842903
 20
433.75130219867611
 30
0.0
 11
4421.1113794911889
 21
433.7458379008761
 31
0.0
  0
LINE
  5
1C057
  8
0
 10
4421.1113794911889
 20
433.7458379008761
 30
0.0
 11
4421.1275090170893
 21
433.74403498227599
 31
0.0
  0
LINE
  5
1C058
  8
0
 10
4421.1275090170893
 20
433.74403498227599
 30
0.0
 11
4421.1403537361894
 21
433.74769636127598
 31
0.0
  0
LINE
  5
1C059
  8
0
 10
4421.1403537361894
 20
433.74769636127598
 30
0.0
 11
4421.137068929389
 21
433.753160659076
 31
0.0
  0
LINE
  5
1C05A
  8
0
 10
4421.137068929389
 20
433.753160659076
 30
0.0
 11
4421.1209394034886
 21
433.7549635777761
 31
0.0
  0
LINE
  5
1C05B
  8
0
 10
4421.1209394034886
 20
433.7549635777761
 30
0.0
 11
4421.1080946842903
 21
433.75130219867611
 31
0.0
  0
LINE
  5
1C05C
  8
0
 10
4421.1113794911889
 20
433.75223853077608
 30
0.0
 11
4421.1113794911889
 21
433.7458379008761
 31
0.0
  0
LINE
  5
1C05D
  8
0
 10
4421.1275090170893
 20
433.75422924247607
 30
0.0
 11
4421.1275090170893
 21
433.74403498227599
 31
0.0
  0
LINE
  5
1C05E
  8
0
 10
4421.1208412340893
 20
433.76346976777609
 30
0.0
 11
4421.1241260409888
 21
433.75800546997613
 31
0.0
  0
LINE
  5
1C05F
  8
0
 10
4421.1241260409888
 20
433.75800546997613
 30
0.0
 11
4421.1402555668883
 21
433.75620255137608
 31
0.0
  0
LINE
  5
1C060
  8
0
 10
4421.1402555668883
 20
433.75620255137608
 30
0.0
 11
4421.1531002859892
 21
433.75986393037613
 31
0.0
  0
LINE
  5
1C061
  8
0
 10
4421.1531002859892
 20
433.75986393037613
 30
0.0
 11
4421.149815479188
 21
433.76532822817609
 31
0.0
  0
LINE
  5
1C062
  8
0
 10
4421.149815479188
 20
433.76532822817609
 30
0.0
 11
4421.1336859532894
 21
433.76713114687612
 31
0.0
  0
LINE
  5
1C063
  8
0
 10
4421.1336859532894
 20
433.76713114687612
 30
0.0
 11
4421.1208412340893
 21
433.76346976777609
 31
0.0
  0
LINE
  5
1C064
  8
0
 10
4421.1241260409888
 20
433.76440609987611
 30
0.0
 11
4421.1241260409888
 21
433.75800546997613
 31
0.0
  0
LINE
  5
1C065
  8
0
 10
4421.1402555668883
 20
433.76639681157599
 30
0.0
 11
4421.1402555668883
 21
433.75620255137608
 31
0.0
  0
LINE
  5
1C066
  8
0
 10
4421.1335877837882
 20
433.77563733687612
 30
0.0
 11
4421.1368725906887
 21
433.7701730390761
 31
0.0
  0
LINE
  5
1C067
  8
0
 10
4421.1368725906887
 20
433.7701730390761
 30
0.0
 11
4421.1530021165891
 21
433.76837012047611
 31
0.0
  0
LINE
  5
1C068
  8
0
 10
4421.1530021165891
 20
433.76837012047611
 30
0.0
 11
4421.1658468356891
 21
433.77203149947599
 31
0.0
  0
LINE
  5
1C069
  8
0
 10
4421.1658468356891
 20
433.77203149947599
 30
0.0
 11
4421.1625620288887
 21
433.77749579727612
 31
0.0
  0
LINE
  5
1C06A
  8
0
 10
4421.1625620288887
 20
433.77749579727612
 30
0.0
 11
4421.1464325029892
 21
433.7792987159761
 31
0.0
  0
LINE
  5
1C06B
  8
0
 10
4421.1464325029892
 20
433.7792987159761
 30
0.0
 11
4421.1335877837882
 21
433.77563733687612
 31
0.0
  0
LINE
  5
1C06C
  8
0
 10
4421.1368725906887
 20
433.77657366897608
 30
0.0
 11
4421.1368725906887
 21
433.7701730390761
 31
0.0
  0
LINE
  5
1C06D
  8
0
 10
4421.1530021165891
 20
433.77856438067607
 30
0.0
 11
4421.1530021165891
 21
433.76837012047611
 31
0.0
  0
LINE
  5
1C06E
  8
0
 10
4421.146334333589
 20
433.78780490607608
 30
0.0
 11
4421.1496191404894
 21
433.78234060827612
 31
0.0
  0
LINE
  5
1C06F
  8
0
 10
4421.1496191404894
 20
433.78234060827612
 30
0.0
 11
4421.165748666388
 21
433.78053768967612
 31
0.0
  0
LINE
  5
1C070
  8
0
 10
4421.165748666388
 20
433.78053768967612
 30
0.0
 11
4421.178593385489
 21
433.78419906867612
 31
0.0
  0
LINE
  5
1C071
  8
0
 10
4421.178593385489
 20
433.78419906867612
 30
0.0
 11
4421.1753085786886
 21
433.78966336647608
 31
0.0
  0
LINE
  5
1C072
  8
0
 10
4421.1753085786886
 20
433.78966336647608
 30
0.0
 11
4421.1591790527882
 21
433.79146628517611
 31
0.0
  0
LINE
  5
1C073
  8
0
 10
4421.1591790527882
 20
433.79146628517611
 30
0.0
 11
4421.146334333589
 21
433.78780490607608
 31
0.0
  0
LINE
  5
1C074
  8
0
 10
4421.1496191404894
 20
433.7887412381761
 30
0.0
 11
4421.1496191404894
 21
433.78234060827612
 31
0.0
  0
LINE
  5
1C075
  8
0
 10
4421.165748666388
 20
433.79073194987609
 30
0.0
 11
4421.165748666388
 21
433.78053768967612
 31
0.0
  0
LINE
  5
1C076
  8
0
 10
4421.159080883288
 20
433.79997247517599
 30
0.0
 11
4421.1623656901893
 21
433.79450817737609
 31
0.0
  0
LINE
  5
1C077
  8
0
 10
4421.1623656901893
 20
433.79450817737609
 30
0.0
 11
4421.1784952160879
 21
433.7927052587761
 31
0.0
  0
LINE
  5
1C078
  8
0
 10
4421.1784952160879
 20
433.7927052587761
 30
0.0
 11
4421.1913399351879
 21
433.79636663777609
 31
0.0
  0
LINE
  5
1C079
  8
0
 10
4421.1913399351879
 20
433.79636663777609
 30
0.0
 11
4421.1880551283894
 21
433.80183093557611
 31
0.0
  0
LINE
  5
1C07A
  8
0
 10
4421.1880551283894
 20
433.80183093557611
 30
0.0
 11
4421.171925602489
 21
433.80363385427609
 31
0.0
  0
LINE
  5
1C07B
  8
0
 10
4421.171925602489
 20
433.80363385427609
 30
0.0
 11
4421.159080883288
 21
433.79997247517599
 31
0.0
  0
LINE
  5
1C07C
  8
0
 10
4421.1623656901893
 20
433.80090880727607
 30
0.0
 11
4421.1623656901893
 21
433.79450817737609
 31
0.0
  0
LINE
  5
1C07D
  8
0
 10
4421.1784952160879
 20
433.80289951897612
 30
0.0
 11
4421.1784952160879
 21
433.7927052587761
 31
0.0
  0
LINE
  5
1C07E
  8
0
 10
4421.1718274329878
 20
433.81214004427608
 30
0.0
 11
4421.1751122398891
 21
433.80667574647612
 31
0.0
  0
LINE
  5
1C07F
  8
0
 10
4421.1751122398891
 20
433.80667574647612
 30
0.0
 11
4421.1912417657886
 21
433.80487282787612
 31
0.0
  0
LINE
  5
1C080
  8
0
 10
4421.1912417657886
 20
433.80487282787612
 30
0.0
 11
4421.2040864848886
 21
433.80853420687612
 31
0.0
  0
LINE
  5
1C081
  8
0
 10
4421.2040864848886
 20
433.80853420687612
 30
0.0
 11
4421.2008016780892
 21
433.81399850467608
 31
0.0
  0
LINE
  5
1C082
  8
0
 10
4421.2008016780892
 20
433.81399850467608
 30
0.0
 11
4421.1846721521888
 21
433.81580142337612
 31
0.0
  0
LINE
  5
1C083
  8
0
 10
4421.1846721521888
 20
433.81580142337612
 30
0.0
 11
4421.1718274329878
 21
433.81214004427608
 31
0.0
  0
LINE
  5
1C084
  8
0
 10
4421.1751122398891
 20
433.8130763763761
 30
0.0
 11
4421.1751122398891
 21
433.80667574647612
 31
0.0
  0
LINE
  5
1C085
  8
0
 10
4421.1912417657886
 20
433.81506708807609
 30
0.0
 11
4421.1912417657886
 21
433.80487282787612
 31
0.0
  0
LINE
  5
1C086
  8
0
 10
4421.1845739826904
 20
433.82430761337599
 30
0.0
 11
4421.187858789589
 21
433.81884331557609
 31
0.0
  0
LINE
  5
1C087
  8
0
 10
4421.187858789589
 20
433.81884331557609
 30
0.0
 11
4421.2039883154894
 21
433.8170403969761
 31
0.0
  0
LINE
  5
1C088
  8
0
 10
4421.2039883154894
 20
433.8170403969761
 30
0.0
 11
4421.2168330345903
 21
433.82070177597609
 31
0.0
  0
LINE
  5
1C089
  8
0
 10
4421.2168330345903
 20
433.82070177597609
 30
0.0
 11
4421.213548227789
 21
433.82616607377611
 31
0.0
  0
LINE
  5
1C08A
  8
0
 10
4421.213548227789
 20
433.82616607377611
 30
0.0
 11
4421.1974187018886
 21
433.82796899247609
 31
0.0
  0
LINE
  5
1C08B
  8
0
 10
4421.1974187018886
 20
433.82796899247609
 30
0.0
 11
4421.1845739826904
 21
433.82430761337599
 31
0.0
  0
LINE
  5
1C08C
  8
0
 10
4421.187858789589
 20
433.82524394547607
 30
0.0
 11
4421.187858789589
 21
433.81884331557609
 31
0.0
  0
LINE
  5
1C08D
  8
0
 10
4421.2039883154894
 20
433.82723465717612
 30
0.0
 11
4421.2039883154894
 21
433.8170403969761
 31
0.0
  0
LINE
  5
1C08E
  8
0
 10
4421.0702477126879
 20
433.68077473117609
 30
0.0
 11
4421.0735325195892
 21
433.67531043337613
 31
0.0
  0
LINE
  5
1C08F
  8
0
 10
4421.0735325195892
 20
433.67531043337613
 30
0.0
 11
4421.0896620454887
 21
433.67350751477608
 31
0.0
  0
LINE
  5
1C090
  8
0
 10
4421.0896620454887
 20
433.67350751477608
 30
0.0
 11
4421.1025067645878
 21
433.67716889377613
 31
0.0
  0
LINE
  5
1C091
  8
0
 10
4421.1025067645878
 20
433.67716889377613
 30
0.0
 11
4421.0992219577893
 21
433.68263319157609
 31
0.0
  0
LINE
  5
1C092
  8
0
 10
4421.0992219577893
 20
433.68263319157609
 30
0.0
 11
4421.0830924318889
 21
433.68443611027612
 31
0.0
  0
LINE
  5
1C093
  8
0
 10
4421.0830924318889
 20
433.68443611027612
 30
0.0
 11
4421.0702477126879
 21
433.68077473117609
 31
0.0
  0
LINE
  5
1C094
  8
0
 10
4421.0735325195892
 20
433.68171106327611
 30
0.0
 11
4421.0735325195892
 21
433.67531043337613
 31
0.0
  0
LINE
  5
1C095
  8
0
 10
4421.0896620454887
 20
433.68370177497599
 30
0.0
 11
4421.0896620454887
 21
433.67350751477608
 31
0.0
  0
LINE
  5
1C096
  8
0
 10
4421.0829942623886
 20
433.69294230027612
 30
0.0
 11
4421.086279069289
 21
433.6874780024761
 31
0.0
  0
LINE
  5
1C097
  8
0
 10
4421.086279069289
 20
433.6874780024761
 30
0.0
 11
4421.1024085951894
 21
433.68567508387599
 31
0.0
  0
LINE
  5
1C098
  8
0
 10
4421.1024085951894
 20
433.68567508387599
 30
0.0
 11
4421.1152533142886
 21
433.68933646287599
 31
0.0
  0
LINE
  5
1C099
  8
0
 10
4421.1152533142886
 20
433.68933646287599
 30
0.0
 11
4421.1119685074891
 21
433.69480076067612
 31
0.0
  0
LINE
  5
1C09A
  8
0
 10
4421.1119685074891
 20
433.69480076067612
 30
0.0
 11
4421.0958389815878
 21
433.6966036793761
 31
0.0
  0
LINE
  5
1C09B
  8
0
 10
4421.0958389815878
 20
433.6966036793761
 30
0.0
 11
4421.0829942623886
 21
433.69294230027612
 31
0.0
  0
LINE
  5
1C09C
  8
0
 10
4421.086279069289
 20
433.69387863237608
 30
0.0
 11
4421.086279069289
 21
433.6874780024761
 31
0.0
  0
LINE
  5
1C09D
  8
0
 10
4421.1024085951894
 20
433.69586934407607
 30
0.0
 11
4421.1024085951894
 21
433.68567508387599
 31
0.0
  0
LINE
  5
1C09E
  8
0
 10
4421.0957408121894
 20
433.70510986937609
 30
0.0
 11
4421.099025619088
 21
433.69964557157613
 31
0.0
  0
LINE
  5
1C09F
  8
0
 10
4421.099025619088
 20
433.69964557157613
 30
0.0
 11
4421.1151551449893
 21
433.69784265297608
 31
0.0
  0
LINE
  5
1C0A0
  8
0
 10
4421.1151551449893
 20
433.69784265297608
 30
0.0
 11
4421.1279998640894
 21
433.70150403197613
 31
0.0
  0
LINE
  5
1C0A1
  8
0
 10
4421.1279998640894
 20
433.70150403197613
 30
0.0
 11
4421.1247150572881
 21
433.70696832977609
 31
0.0
  0
LINE
  5
1C0A2
  8
0
 10
4421.1247150572881
 20
433.70696832977609
 30
0.0
 11
4421.1085855313886
 21
433.70877124847613
 31
0.0
  0
LINE
  5
1C0A3
  8
0
 10
4421.1085855313886
 20
433.70877124847613
 30
0.0
 11
4421.0957408121894
 21
433.70510986937609
 31
0.0
  0
LINE
  5
1C0A4
  8
0
 10
4421.099025619088
 20
433.706046201476
 30
0.0
 11
4421.099025619088
 21
433.69964557157613
 31
0.0
  0
LINE
  5
1C0A5
  8
0
 10
4421.1151551449893
 20
433.70803691317599
 30
0.0
 11
4421.1151551449893
 21
433.69784265297608
 31
0.0
  0
LINE
  5
1C0A6
  8
0
 10
4421.1084873618893
 20
433.71727743847612
 30
0.0
 11
4421.1117721687888
 21
433.7118131406761
 31
0.0
  0
LINE
  5
1C0A7
  8
0
 10
4421.1117721687888
 20
433.7118131406761
 30
0.0
 11
4421.1279016946883
 21
433.71001022207611
 31
0.0
  0
LINE
  5
1C0A8
  8
0
 10
4421.1279016946883
 20
433.71001022207611
 30
0.0
 11
4421.1407464137892
 21
433.7136716010761
 31
0.0
  0
LINE
  5
1C0A9
  8
0
 10
4421.1407464137892
 20
433.7136716010761
 30
0.0
 11
4421.1374616069879
 21
433.71913589887612
 31
0.0
  0
LINE
  5
1C0AA
  8
0
 10
4421.1374616069879
 20
433.71913589887612
 30
0.0
 11
4421.1213320810893
 21
433.7209388175761
 31
0.0
  0
LINE
  5
1C0AB
  8
0
 10
4421.1213320810893
 20
433.7209388175761
 30
0.0
 11
4421.1084873618893
 21
433.71727743847612
 31
0.0
  0
LINE
  5
1C0AC
  8
0
 10
4421.1117721687888
 20
433.71821377057609
 30
0.0
 11
4421.1117721687888
 21
433.7118131406761
 31
0.0
  0
LINE
  5
1C0AD
  8
0
 10
4421.1279016946883
 20
433.72020448227607
 30
0.0
 11
4421.1279016946883
 21
433.71001022207611
 31
0.0
  0
LINE
  5
1C0AE
  8
0
 10
4421.1212339115891
 20
433.72944500767608
 30
0.0
 11
4421.1245187184886
 21
433.72398070987612
 31
0.0
  0
LINE
  5
1C0AF
  8
0
 10
4421.1245187184886
 20
433.72398070987612
 30
0.0
 11
4421.140648244389
 21
433.72217779127612
 31
0.0
  0
LINE
  5
1C0B0
  8
0
 10
4421.140648244389
 20
433.72217779127612
 30
0.0
 11
4421.153492963489
 21
433.72583917027612
 31
0.0
  0
LINE
  5
1C0B1
  8
0
 10
4421.153492963489
 20
433.72583917027612
 30
0.0
 11
4421.1502081566896
 21
433.73130346807608
 31
0.0
  0
LINE
  5
1C0B2
  8
0
 10
4421.1502081566896
 20
433.73130346807608
 30
0.0
 11
4421.1340786307892
 21
433.73310638677611
 31
0.0
  0
LINE
  5
1C0B3
  8
0
 10
4421.1340786307892
 20
433.73310638677611
 30
0.0
 11
4421.1212339115891
 21
433.72944500767608
 31
0.0
  0
LINE
  5
1C0B4
  8
0
 10
4421.1245187184886
 20
433.7303813397761
 30
0.0
 11
4421.1245187184886
 21
433.72398070987612
 31
0.0
  0
LINE
  5
1C0B5
  8
0
 10
4421.140648244389
 20
433.73237205147609
 30
0.0
 11
4421.140648244389
 21
433.72217779127612
 31
0.0
  0
LINE
  5
1C0B6
  8
0
 10
4421.133980461289
 20
433.74161257677599
 30
0.0
 11
4421.1372652681894
 21
433.73614827897609
 31
0.0
  0
LINE
  5
1C0B7
  8
0
 10
4421.1372652681894
 20
433.73614827897609
 30
0.0
 11
4421.1533947940879
 21
433.7343453603761
 31
0.0
  0
LINE
  5
1C0B8
  8
0
 10
4421.1533947940879
 20
433.7343453603761
 30
0.0
 11
4421.1662395131889
 21
433.73800673937609
 31
0.0
  0
LINE
  5
1C0B9
  8
0
 10
4421.1662395131889
 20
433.73800673937609
 30
0.0
 11
4421.1629547063894
 21
433.74347103717611
 31
0.0
  0
LINE
  5
1C0BA
  8
0
 10
4421.1629547063894
 20
433.74347103717611
 30
0.0
 11
4421.1468251804881
 21
433.74527395587609
 31
0.0
  0
LINE
  5
1C0BB
  8
0
 10
4421.1468251804881
 20
433.74527395587609
 30
0.0
 11
4421.133980461289
 21
433.74161257677599
 31
0.0
  0
LINE
  5
1C0BC
  8
0
 10
4421.1372652681894
 20
433.74254890887607
 30
0.0
 11
4421.1372652681894
 21
433.73614827897609
 31
0.0
  0
LINE
  5
1C0BD
  8
0
 10
4421.1533947940879
 20
433.74453962057612
 30
0.0
 11
4421.1533947940879
 21
433.7343453603761
 31
0.0
  0
LINE
  5
1C0BE
  8
0
 10
4421.1467270110879
 20
433.75378014587608
 30
0.0
 11
4421.1500118179893
 21
433.74831584807612
 31
0.0
  0
LINE
  5
1C0BF
  8
0
 10
4421.1500118179893
 20
433.74831584807612
 30
0.0
 11
4421.1661413438878
 21
433.74651292947613
 31
0.0
  0
LINE
  5
1C0C0
  8
0
 10
4421.1661413438878
 20
433.74651292947613
 30
0.0
 11
4421.1789860629879
 21
433.75017430847612
 31
0.0
  0
LINE
  5
1C0C1
  8
0
 10
4421.1789860629879
 20
433.75017430847612
 30
0.0
 11
4421.1757012561893
 21
433.75563860627608
 31
0.0
  0
LINE
  5
1C0C2
  8
0
 10
4421.1757012561893
 20
433.75563860627608
 30
0.0
 11
4421.1595717302889
 21
433.757441524976
 31
0.0
  0
LINE
  5
1C0C3
  8
0
 10
4421.1595717302889
 20
433.757441524976
 30
0.0
 11
4421.1467270110879
 21
433.75378014587608
 31
0.0
  0
LINE
  5
1C0C4
  8
0
 10
4421.1500118179893
 20
433.7547164779761
 30
0.0
 11
4421.1500118179893
 21
433.74831584807612
 31
0.0
  0
LINE
  5
1C0C5
  8
0
 10
4421.1661413438878
 20
433.75670718967609
 30
0.0
 11
4421.1661413438878
 21
433.74651292947613
 31
0.0
  0
LINE
  5
1C0C6
  8
0
 10
4421.1594735607887
 20
433.76594771497599
 30
0.0
 11
4421.1627583676891
 21
433.76048341717609
 31
0.0
  0
LINE
  5
1C0C7
  8
0
 10
4421.1627583676891
 20
433.76048341717609
 30
0.0
 11
4421.1788878935904
 21
433.75868049857598
 31
0.0
  0
LINE
  5
1C0C8
  8
0
 10
4421.1788878935904
 20
433.75868049857598
 30
0.0
 11
4421.1917326126886
 21
433.76234187757609
 31
0.0
  0
LINE
  5
1C0C9
  8
0
 10
4421.1917326126886
 20
433.76234187757609
 30
0.0
 11
4421.1884478058892
 21
433.76780617537611
 31
0.0
  0
LINE
  5
1C0CA
  8
0
 10
4421.1884478058892
 20
433.76780617537611
 30
0.0
 11
4421.1723182799878
 21
433.76960909407609
 31
0.0
  0
LINE
  5
1C0CB
  8
0
 10
4421.1723182799878
 20
433.76960909407609
 30
0.0
 11
4421.1594735607887
 21
433.76594771497599
 31
0.0
  0
LINE
  5
1C0CC
  8
0
 10
4421.1627583676891
 20
433.76688404707608
 30
0.0
 11
4421.1627583676891
 21
433.76048341717609
 31
0.0
  0
LINE
  5
1C0CD
  8
0
 10
4421.1788878935904
 20
433.76887475877612
 30
0.0
 11
4421.1788878935904
 21
433.75868049857598
 31
0.0
  0
LINE
  5
1C0CE
  8
0
 10
4421.1722201105886
 20
433.77811528417612
 30
0.0
 11
4421.175504917489
 21
433.77265098637599
 31
0.0
  0
LINE
  5
1C0CF
  8
0
 10
4421.175504917489
 20
433.77265098637599
 30
0.0
 11
4421.1916344433894
 21
433.770848067776
 31
0.0
  0
LINE
  5
1C0D0
  8
0
 10
4421.1916344433894
 20
433.770848067776
 30
0.0
 11
4421.2044791624894
 21
433.77450944677611
 31
0.0
  0
LINE
  5
1C0D1
  8
0
 10
4421.2044791624894
 20
433.77450944677611
 30
0.0
 11
4421.2011943556881
 21
433.77997374457613
 31
0.0
  0
LINE
  5
1C0D2
  8
0
 10
4421.2011943556881
 20
433.77997374457613
 30
0.0
 11
4421.1850648297886
 21
433.7817766632761
 31
0.0
  0
LINE
  5
1C0D3
  8
0
 10
4421.1850648297886
 20
433.7817766632761
 30
0.0
 11
4421.1722201105886
 21
433.77811528417612
 31
0.0
  0
LINE
  5
1C0D4
  8
0
 10
4421.175504917489
 20
433.77905161627609
 30
0.0
 11
4421.175504917489
 21
433.77265098637599
 31
0.0
  0
LINE
  5
1C0D5
  8
0
 10
4421.1916344433894
 20
433.78104232797608
 30
0.0
 11
4421.1916344433894
 21
433.770848067776
 31
0.0
  0
LINE
  5
1C0D6
  8
0
 10
4421.1849666602893
 20
433.7902828532761
 30
0.0
 11
4421.1882514671888
 21
433.78481855547608
 31
0.0
  0
LINE
  5
1C0D7
  8
0
 10
4421.1882514671888
 20
433.78481855547608
 30
0.0
 11
4421.2043809930883
 21
433.78301563687609
 31
0.0
  0
LINE
  5
1C0D8
  8
0
 10
4421.2043809930883
 20
433.78301563687609
 30
0.0
 11
4421.2172257121892
 21
433.78667701587608
 31
0.0
  0
LINE
  5
1C0D9
  8
0
 10
4421.2172257121892
 20
433.78667701587608
 30
0.0
 11
4421.213940905388
 21
433.79214131367598
 31
0.0
  0
LINE
  5
1C0DA
  8
0
 10
4421.213940905388
 20
433.79214131367598
 30
0.0
 11
4421.1978113794894
 21
433.79394423237608
 31
0.0
  0
LINE
  5
1C0DB
  8
0
 10
4421.1978113794894
 20
433.79394423237608
 30
0.0
 11
4421.1849666602893
 21
433.7902828532761
 31
0.0
  0
LINE
  5
1C0DC
  8
0
 10
4421.1882514671888
 20
433.79121918537612
 30
0.0
 11
4421.1882514671888
 21
433.78481855547608
 31
0.0
  0
LINE
  5
1C0DD
  8
0
 10
4421.2043809930883
 20
433.793209897076
 30
0.0
 11
4421.2043809930883
 21
433.78301563687609
 31
0.0
  0
LINE
  5
1C0DE
  8
0
 10
4421.1977132099892
 20
433.80245042237613
 30
0.0
 11
4421.2009980168887
 21
433.79698612457611
 31
0.0
  0
LINE
  5
1C0DF
  8
0
 10
4421.2009980168887
 20
433.79698612457611
 30
0.0
 11
4421.2171275427891
 21
433.795183205976
 31
0.0
  0
LINE
  5
1C0E0
  8
0
 10
4421.2171275427891
 20
433.795183205976
 30
0.0
 11
4421.2299722618891
 21
433.798844584976
 31
0.0
  0
LINE
  5
1C0E1
  8
0
 10
4421.2299722618891
 20
433.798844584976
 30
0.0
 11
4421.2266874550878
 21
433.80430888277613
 31
0.0
  0
LINE
  5
1C0E2
  8
0
 10
4421.2266874550878
 20
433.80430888277613
 30
0.0
 11
4421.2105579291892
 21
433.80611180147611
 31
0.0
  0
LINE
  5
1C0E3
  8
0
 10
4421.2105579291892
 20
433.80611180147611
 30
0.0
 11
4421.1977132099892
 21
433.80245042237613
 31
0.0
  0
LINE
  5
1C0E4
  8
0
 10
4421.2009980168887
 20
433.80338675447598
 30
0.0
 11
4421.2009980168887
 21
433.79698612457611
 31
0.0
  0
LINE
  5
1C0E5
  8
0
 10
4421.2171275427891
 20
433.80537746617608
 30
0.0
 11
4421.2171275427891
 21
433.795183205976
 31
0.0
  0
LINE
  5
1C0E6
  8
0
 10
4421.210459759689
 20
433.8146179914761
 30
0.0
 11
4421.2137445665894
 21
433.80915369367608
 31
0.0
  0
LINE
  5
1C0E7
  8
0
 10
4421.2137445665894
 20
433.80915369367608
 30
0.0
 11
4421.229874092488
 21
433.80735077507609
 31
0.0
  0
LINE
  5
1C0E8
  8
0
 10
4421.229874092488
 20
433.80735077507609
 30
0.0
 11
4421.2427188115889
 21
433.81101215407608
 31
0.0
  0
LINE
  5
1C0E9
  8
0
 10
4421.2427188115889
 20
433.81101215407608
 30
0.0
 11
4421.2394340047886
 21
433.8164764518761
 31
0.0
  0
LINE
  5
1C0EA
  8
0
 10
4421.2394340047886
 20
433.8164764518761
 30
0.0
 11
4421.2233044788882
 21
433.81827937057608
 31
0.0
  0
LINE
  5
1C0EB
  8
0
 10
4421.2233044788882
 20
433.81827937057608
 30
0.0
 11
4421.210459759689
 21
433.8146179914761
 31
0.0
  0
LINE
  5
1C0EC
  8
0
 10
4421.2137445665894
 20
433.81555432357612
 30
0.0
 11
4421.2137445665894
 21
433.80915369367608
 31
0.0
  0
LINE
  5
1C0ED
  8
0
 10
4421.229874092488
 20
433.817545035276
 30
0.0
 11
4421.229874092488
 21
433.80735077507609
 31
0.0
  0
LINE
  5
1C0EE
  8
0
 10
4421.223206309488
 20
433.82678556067611
 30
0.0
 11
4421.2264911163893
 21
433.8213212628761
 31
0.0
  0
LINE
  5
1C0EF
  8
0
 10
4421.2264911163893
 20
433.8213212628761
 30
0.0
 11
4421.2426206422888
 21
433.8195183442761
 31
0.0
  0
LINE
  5
1C0F0
  8
0
 10
4421.2426206422888
 20
433.8195183442761
 30
0.0
 11
4421.2554653613879
 21
433.8231797232761
 31
0.0
  0
LINE
  5
1C0F1
  8
0
 10
4421.2554653613879
 20
433.8231797232761
 30
0.0
 11
4421.254517774576
 21
433.82475604019652
 31
0.0
  0
LINE
  5
1C0F2
  8
0
 10
4421.2259649413063
 20
433.82757190693388
 30
0.0
 11
4421.223206309488
 21
433.82678556067611
 31
0.0
  0
LINE
  5
1C0F3
  8
0
 10
4421.2264911163893
 20
433.82752965973742
 30
0.0
 11
4421.2264911163893
 21
433.8213212628761
 31
0.0
  0
LINE
  5
1C0F4
  8
0
 10
4421.2426206422888
 20
433.82605917309382
 30
0.0
 11
4421.2426206422888
 21
433.8195183442761
 31
0.0
  0
LINE
  5
1C0F5
  8
0
 10
4421.1088800393891
 20
433.68325267837599
 30
0.0
 11
4421.1121648462886
 21
433.67778838057609
 31
0.0
  0
LINE
  5
1C0F6
  8
0
 10
4421.1121648462886
 20
433.67778838057609
 30
0.0
 11
4421.128294372189
 21
433.6759854619761
 31
0.0
  0
LINE
  5
1C0F7
  8
0
 10
4421.128294372189
 20
433.6759854619761
 30
0.0
 11
4421.141139091289
 21
433.67964684097609
 31
0.0
  0
LINE
  5
1C0F8
  8
0
 10
4421.141139091289
 20
433.67964684097609
 30
0.0
 11
4421.1378542844895
 21
433.68511113877611
 31
0.0
  0
LINE
  5
1C0F9
  8
0
 10
4421.1378542844895
 20
433.68511113877611
 30
0.0
 11
4421.1217247585892
 21
433.68691405747609
 31
0.0
  0
LINE
  5
1C0FA
  8
0
 10
4421.1217247585892
 20
433.68691405747609
 30
0.0
 11
4421.1088800393891
 21
433.68325267837599
 31
0.0
  0
LINE
  5
1C0FB
  8
0
 10
4421.1121648462886
 20
433.68418901047608
 30
0.0
 11
4421.1121648462886
 21
433.67778838057609
 31
0.0
  0
LINE
  5
1C0FC
  8
0
 10
4421.128294372189
 20
433.68617972217612
 30
0.0
 11
4421.128294372189
 21
433.6759854619761
 31
0.0
  0
LINE
  5
1C0FD
  8
0
 10
4421.1216265890889
 20
433.69542024747608
 30
0.0
 11
4421.1249113959893
 21
433.68995594967612
 31
0.0
  0
LINE
  5
1C0FE
  8
0
 10
4421.1249113959893
 20
433.68995594967612
 30
0.0
 11
4421.1410409218888
 21
433.68815303107613
 31
0.0
  0
LINE
  5
1C0FF
  8
0
 10
4421.1410409218888
 20
433.68815303107613
 30
0.0
 11
4421.1538856409888
 21
433.69181441007612
 31
0.0
  0
LINE
  5
1C100
  8
0
 10
4421.1538856409888
 20
433.69181441007612
 30
0.0
 11
4421.1506008341894
 21
433.69727870787608
 31
0.0
  0
LINE
  5
1C101
  8
0
 10
4421.1506008341894
 20
433.69727870787608
 30
0.0
 11
4421.1344713082881
 21
433.699081626576
 31
0.0
  0
LINE
  5
1C102
  8
0
 10
4421.1344713082881
 20
433.699081626576
 30
0.0
 11
4421.1216265890889
 21
433.69542024747608
 31
0.0
  0
LINE
  5
1C103
  8
0
 10
4421.1249113959893
 20
433.6963565795761
 30
0.0
 11
4421.1249113959893
 21
433.68995594967612
 31
0.0
  0
LINE
  5
1C104
  8
0
 10
4421.1410409218888
 20
433.69834729127609
 30
0.0
 11
4421.1410409218888
 21
433.68815303107613
 31
0.0
  0
LINE
  5
1C105
  8
0
 10
4421.1343731388888
 20
433.70758781657611
 30
0.0
 11
4421.1376579457892
 21
433.70212351877598
 31
0.0
  0
LINE
  5
1C106
  8
0
 10
4421.1376579457892
 20
433.70212351877598
 30
0.0
 11
4421.1537874716887
 21
433.70032060017598
 31
0.0
  0
LINE
  5
1C107
  8
0
 10
4421.1537874716887
 20
433.70032060017598
 30
0.0
 11
4421.1666321907878
 21
433.70398197917609
 31
0.0
  0
LINE
  5
1C108
  8
0
 10
4421.1666321907878
 20
433.70398197917609
 30
0.0
 11
4421.1633473839893
 21
433.70944627697611
 31
0.0
  0
LINE
  5
1C109
  8
0
 10
4421.1633473839893
 20
433.70944627697611
 30
0.0
 11
4421.1472178580889
 21
433.71124919567609
 31
0.0
  0
LINE
  5
1C10A
  8
0
 10
4421.1472178580889
 20
433.71124919567609
 30
0.0
 11
4421.1343731388888
 21
433.70758781657611
 31
0.0
  0
LINE
  5
1C10B
  8
0
 10
4421.1376579457892
 20
433.70852414867608
 30
0.0
 11
4421.1376579457892
 21
433.70212351877598
 31
0.0
  0
LINE
  5
1C10C
  8
0
 10
4421.1537874716887
 20
433.71051486037612
 30
0.0
 11
4421.1537874716887
 21
433.70032060017598
 31
0.0
  0
LINE
  5
1C10D
  8
0
 10
4421.1471196885896
 20
433.71975538567608
 30
0.0
 11
4421.1504044954891
 21
433.71429108787601
 31
0.0
  0
LINE
  5
1C10E
  8
0
 10
4421.1504044954891
 20
433.71429108787601
 30
0.0
 11
4421.1665340213904
 21
433.71248816927613
 31
0.0
  0
LINE
  5
1C10F
  8
0
 10
4421.1665340213904
 20
433.71248816927613
 30
0.0
 11
4421.1793787404886
 21
433.71614954827612
 31
0.0
  0
LINE
  5
1C110
  8
0
 10
4421.1793787404886
 20
433.71614954827612
 30
0.0
 11
4421.1760939336891
 21
433.72161384607608
 31
0.0
  0
LINE
  5
1C111
  8
0
 10
4421.1760939336891
 20
433.72161384607608
 30
0.0
 11
4421.1599644077878
 21
433.72341676477612
 31
0.0
  0
LINE
  5
1C112
  8
0
 10
4421.1599644077878
 20
433.72341676477612
 30
0.0
 11
4421.1471196885896
 21
433.71975538567608
 31
0.0
  0
LINE
  5
1C113
  8
0
 10
4421.1504044954891
 20
433.72069171777611
 30
0.0
 11
4421.1504044954891
 21
433.71429108787601
 31
0.0
  0
LINE
  5
1C114
  8
0
 10
4421.1665340213904
 20
433.72268242947598
 30
0.0
 11
4421.1665340213904
 21
433.71248816927613
 31
0.0
  0
LINE
  5
1C115
  8
0
 10
4421.1598662383894
 20
433.7319229548761
 30
0.0
 11
4421.1631510452889
 21
433.72645865707608
 31
0.0
  0
LINE
  5
1C116
  8
0
 10
4421.1631510452889
 20
433.72645865707608
 30
0.0
 11
4421.1792805711893
 21
433.72465573847609
 31
0.0
  0
LINE
  5
1C117
  8
0
 10
4421.1792805711893
 20
433.72465573847609
 30
0.0
 11
4421.1921252902894
 21
433.72831711747608
 31
0.0
  0
LINE
  5
1C118
  8
0
 10
4421.1921252902894
 20
433.72831711747608
 30
0.0
 11
4421.1888404834881
 21
433.73378141527598
 31
0.0
  0
LINE
  5
1C119
  8
0
 10
4421.1888404834881
 20
433.73378141527598
 30
0.0
 11
4421.1727109575904
 21
433.73558433397608
 31
0.0
  0
LINE
  5
1C11A
  8
0
 10
4421.1727109575904
 20
433.73558433397608
 30
0.0
 11
4421.1598662383894
 21
433.7319229548761
 31
0.0
  0
LINE
  5
1C11B
  8
0
 10
4421.1631510452889
 20
433.73285928697612
 30
0.0
 11
4421.1631510452889
 21
433.72645865707608
 31
0.0
  0
LINE
  5
1C11C
  8
0
 10
4421.1792805711893
 20
433.734849998676
 30
0.0
 11
4421.1792805711893
 21
433.72465573847609
 31
0.0
  0
LINE
  5
1C11D
  8
0
 10
4421.1726127880893
 20
433.74409052397613
 30
0.0
 11
4421.1758975949888
 21
433.73862622617611
 31
0.0
  0
LINE
  5
1C11E
  8
0
 10
4421.1758975949888
 20
433.73862622617611
 30
0.0
 11
4421.1920271208892
 21
433.73682330757612
 31
0.0
  0
LINE
  5
1C11F
  8
0
 10
4421.1920271208892
 20
433.73682330757612
 30
0.0
 11
4421.2048718399892
 21
433.740484686576
 31
0.0
  0
LINE
  5
1C120
  8
0
 10
4421.2048718399892
 20
433.740484686576
 30
0.0
 11
4421.2015870331888
 21
433.74594898437613
 31
0.0
  0
LINE
  5
1C121
  8
0
 10
4421.2015870331888
 20
433.74594898437613
 30
0.0
 11
4421.1854575072894
 21
433.74775190307611
 31
0.0
  0
LINE
  5
1C122
  8
0
 10
4421.1854575072894
 20
433.74775190307611
 30
0.0
 11
4421.1726127880893
 21
433.74409052397613
 31
0.0
  0
LINE
  5
1C123
  8
0
 10
4421.1758975949888
 20
433.74502685607598
 30
0.0
 11
4421.1758975949888
 21
433.73862622617611
 31
0.0
  0
LINE
  5
1C124
  8
0
 10
4421.1920271208892
 20
433.74701756777608
 30
0.0
 11
4421.1920271208892
 21
433.73682330757612
 31
0.0
  0
LINE
  5
1C125
  8
0
 10
4421.1853593377891
 20
433.7562580930761
 30
0.0
 11
4421.1886441446886
 21
433.75079379527608
 31
0.0
  0
LINE
  5
1C126
  8
0
 10
4421.1886441446886
 20
433.75079379527608
 30
0.0
 11
4421.204773670589
 21
433.74899087667609
 31
0.0
  0
LINE
  5
1C127
  8
0
 10
4421.204773670589
 20
433.74899087667609
 30
0.0
 11
4421.2176183896891
 21
433.75265225567608
 31
0.0
  0
LINE
  5
1C128
  8
0
 10
4421.2176183896891
 20
433.75265225567608
 30
0.0
 11
4421.2143335828896
 21
433.7581165534761
 31
0.0
  0
LINE
  5
1C129
  8
0
 10
4421.2143335828896
 20
433.7581165534761
 30
0.0
 11
4421.1982040569892
 21
433.75991947217608
 31
0.0
  0
LINE
  5
1C12A
  8
0
 10
4421.1982040569892
 20
433.75991947217608
 30
0.0
 11
4421.1853593377891
 21
433.7562580930761
 31
0.0
  0
LINE
  5
1C12B
  8
0
 10
4421.1886441446886
 20
433.75719442517612
 30
0.0
 11
4421.1886441446886
 21
433.75079379527608
 31
0.0
  0
LINE
  5
1C12C
  8
0
 10
4421.204773670589
 20
433.75918513687611
 30
0.0
 11
4421.204773670589
 21
433.74899087667609
 31
0.0
  0
LINE
  5
1C12D
  8
0
 10
4421.198105887489
 20
433.76842566217613
 30
0.0
 11
4421.2013906943894
 21
433.76296136437611
 31
0.0
  0
LINE
  5
1C12E
  8
0
 10
4421.2013906943894
 20
433.76296136437611
 30
0.0
 11
4421.2175202202889
 21
433.76115844577612
 31
0.0
  0
LINE
  5
1C12F
  8
0
 10
4421.2175202202889
 20
433.76115844577612
 30
0.0
 11
4421.2303649393889
 21
433.76481982477611
 31
0.0
  0
LINE
  5
1C130
  8
0
 10
4421.2303649393889
 20
433.76481982477611
 30
0.0
 11
4421.2270801325894
 21
433.77028412257607
 31
0.0
  0
LINE
  5
1C131
  8
0
 10
4421.2270801325894
 20
433.77028412257607
 30
0.0
 11
4421.2109506066881
 21
433.77208704127611
 31
0.0
  0
LINE
  5
1C132
  8
0
 10
4421.2109506066881
 20
433.77208704127611
 30
0.0
 11
4421.198105887489
 21
433.76842566217613
 31
0.0
  0
LINE
  5
1C133
  8
0
 10
4421.2013906943894
 20
433.76936199427598
 30
0.0
 11
4421.2013906943894
 21
433.76296136437611
 31
0.0
  0
LINE
  5
1C134
  8
0
 10
4421.2175202202889
 20
433.77135270597608
 30
0.0
 11
4421.2175202202889
 21
433.76115844577612
 31
0.0
  0
LINE
  5
1C135
  8
0
 10
4421.2108524372888
 20
433.78059323137609
 30
0.0
 11
4421.2141372441893
 21
433.77512893357613
 31
0.0
  0
LINE
  5
1C136
  8
0
 10
4421.2141372441893
 20
433.77512893357613
 30
0.0
 11
4421.2302667700887
 21
433.77332601497608
 31
0.0
  0
LINE
  5
1C137
  8
0
 10
4421.2302667700887
 20
433.77332601497608
 30
0.0
 11
4421.2431114891888
 21
433.77698739397613
 31
0.0
  0
LINE
  5
1C138
  8
0
 10
4421.2431114891888
 20
433.77698739397613
 30
0.0
 11
4421.2398266823902
 21
433.78245169177609
 31
0.0
  0
LINE
  5
1C139
  8
0
 10
4421.2398266823902
 20
433.78245169177609
 30
0.0
 11
4421.2236971564889
 21
433.78425461047613
 31
0.0
  0
LINE
  5
1C13A
  8
0
 10
4421.2236971564889
 20
433.78425461047613
 30
0.0
 11
4421.2108524372888
 21
433.78059323137609
 31
0.0
  0
LINE
  5
1C13B
  8
0
 10
4421.2141372441893
 20
433.78152956347611
 30
0.0
 11
4421.2141372441893
 21
433.77512893357613
 31
0.0
  0
LINE
  5
1C13C
  8
0
 10
4421.2302667700887
 20
433.7835202751761
 30
0.0
 11
4421.2302667700887
 21
433.77332601497608
 31
0.0
  0
LINE
  5
1C13D
  8
0
 10
4421.2235989869896
 20
433.792760800476
 30
0.0
 11
4421.2268837938891
 21
433.78729650267599
 31
0.0
  0
LINE
  5
1C13E
  8
0
 10
4421.2268837938891
 20
433.78729650267599
 30
0.0
 11
4421.2430133197904
 21
433.78549358407611
 31
0.0
  0
LINE
  5
1C13F
  8
0
 10
4421.2430133197904
 20
433.78549358407611
 30
0.0
 11
4421.2558580388886
 21
433.7891549630761
 31
0.0
  0
LINE
  5
1C140
  8
0
 10
4421.2558580388886
 20
433.7891549630761
 30
0.0
 11
4421.2525732320892
 21
433.79461926087612
 31
0.0
  0
LINE
  5
1C141
  8
0
 10
4421.2525732320892
 20
433.79461926087612
 30
0.0
 11
4421.2364437061879
 21
433.79642217957598
 31
0.0
  0
LINE
  5
1C142
  8
0
 10
4421.2364437061879
 20
433.79642217957598
 30
0.0
 11
4421.2235989869896
 21
433.792760800476
 31
0.0
  0
LINE
  5
1C143
  8
0
 10
4421.2268837938891
 20
433.79369713257609
 30
0.0
 11
4421.2268837938891
 21
433.78729650267599
 31
0.0
  0
LINE
  5
1C144
  8
0
 10
4421.2430133197904
 20
433.79568784427607
 30
0.0
 11
4421.2430133197904
 21
433.78549358407611
 31
0.0
  0
LINE
  5
1C145
  8
0
 10
4421.2363455367886
 20
433.80492836957609
 30
0.0
 11
4421.239630343689
 21
433.79946407177607
 31
0.0
  0
LINE
  5
1C146
  8
0
 10
4421.239630343689
 20
433.79946407177607
 30
0.0
 11
4421.2557598695894
 21
433.79766115317608
 31
0.0
  0
LINE
  5
1C147
  8
0
 10
4421.2557598695894
 20
433.79766115317608
 30
0.0
 11
4421.2686045886894
 21
433.80132253217607
 31
0.0
  0
LINE
  5
1C148
  8
0
 10
4421.2686045886894
 20
433.80132253217607
 30
0.0
 11
4421.2653197818881
 21
433.80678682997609
 31
0.0
  0
LINE
  5
1C149
  8
0
 10
4421.2653197818881
 20
433.80678682997609
 30
0.0
 11
4421.2491902559896
 21
433.80858974867613
 31
0.0
  0
LINE
  5
1C14A
  8
0
 10
4421.2491902559896
 20
433.80858974867613
 30
0.0
 11
4421.2363455367886
 21
433.80492836957609
 31
0.0
  0
LINE
  5
1C14B
  8
0
 10
4421.239630343689
 20
433.80586470167611
 30
0.0
 11
4421.239630343689
 21
433.79946407177607
 31
0.0
  0
LINE
  5
1C14C
  8
0
 10
4421.2557598695894
 20
433.8078554133761
 30
0.0
 11
4421.2557598695894
 21
433.79766115317608
 31
0.0
  0
LINE
  5
1C14D
  8
0
 10
4421.2490920864893
 20
433.81709593867612
 30
0.0
 11
4421.2523768933888
 21
433.81163164087599
 31
0.0
  0
LINE
  5
1C14E
  8
0
 10
4421.2523768933888
 20
433.81163164087599
 30
0.0
 11
4421.2685064192892
 21
433.80982872227611
 31
0.0
  0
LINE
  5
1C14F
  8
0
 10
4421.2685064192892
 20
433.80982872227611
 30
0.0
 11
4421.2813511383893
 21
433.8134901012761
 31
0.0
  0
LINE
  5
1C150
  8
0
 10
4421.2813511383893
 20
433.8134901012761
 30
0.0
 11
4421.2780663315889
 21
433.81895439907612
 31
0.0
  0
LINE
  5
1C151
  8
0
 10
4421.2780663315889
 20
433.81895439907612
 30
0.0
 11
4421.2619368056894
 21
433.82075731777599
 31
0.0
  0
LINE
  5
1C152
  8
0
 10
4421.2619368056894
 20
433.82075731777599
 30
0.0
 11
4421.2490920864893
 21
433.81709593867612
 31
0.0
  0
LINE
  5
1C153
  8
0
 10
4421.2523768933888
 20
433.81803227077609
 30
0.0
 11
4421.2523768933888
 21
433.81163164087599
 31
0.0
  0
LINE
  5
1C154
  8
0
 10
4421.2685064192892
 20
433.82002298247608
 30
0.0
 11
4421.2685064192892
 21
433.80982872227611
 31
0.0
  0
LINE
  5
1C155
  8
0
 10
4421.1475123661876
 20
433.68573062557613
 30
0.0
 11
4421.1507971730889
 21
433.68026632777611
 31
0.0
  0
LINE
  5
1C156
  8
0
 10
4421.1507971730889
 20
433.68026632777611
 30
0.0
 11
4421.1669266989893
 21
433.67846340917612
 31
0.0
  0
LINE
  5
1C157
  8
0
 10
4421.1669266989893
 20
433.67846340917612
 30
0.0
 11
4421.1797714180893
 21
433.682124788176
 31
0.0
  0
LINE
  5
1C158
  8
0
 10
4421.1797714180893
 20
433.682124788176
 30
0.0
 11
4421.176486611289
 21
433.68758908597607
 31
0.0
  0
LINE
  5
1C159
  8
0
 10
4421.176486611289
 20
433.68758908597607
 30
0.0
 11
4421.1603570853904
 21
433.68939200467611
 31
0.0
  0
LINE
  5
1C15A
  8
0
 10
4421.1603570853904
 20
433.68939200467611
 30
0.0
 11
4421.1475123661876
 21
433.68573062557613
 31
0.0
  0
LINE
  5
1C15B
  8
0
 10
4421.1507971730889
 20
433.68666695767598
 30
0.0
 11
4421.1507971730889
 21
433.68026632777611
 31
0.0
  0
LINE
  5
1C15C
  8
0
 10
4421.1669266989893
 20
433.68865766937608
 30
0.0
 11
4421.1669266989893
 21
433.67846340917612
 31
0.0
  0
LINE
  5
1C15D
  8
0
 10
4421.1602589158892
 20
433.6978981946761
 30
0.0
 11
4421.1635437227887
 21
433.69243389687608
 31
0.0
  0
LINE
  5
1C15E
  8
0
 10
4421.1635437227887
 20
433.69243389687608
 30
0.0
 11
4421.1796732486901
 21
433.69063097827609
 31
0.0
  0
LINE
  5
1C15F
  8
0
 10
4421.1796732486901
 20
433.69063097827609
 30
0.0
 11
4421.1925179677892
 21
433.69429235727608
 31
0.0
  0
LINE
  5
1C160
  8
0
 10
4421.1925179677892
 20
433.69429235727608
 30
0.0
 11
4421.1892331609888
 21
433.6997566550761
 31
0.0
  0
LINE
  5
1C161
  8
0
 10
4421.1892331609888
 20
433.6997566550761
 30
0.0
 11
4421.1731036350893
 21
433.70155957377608
 31
0.0
  0
LINE
  5
1C162
  8
0
 10
4421.1731036350893
 20
433.70155957377608
 30
0.0
 11
4421.1602589158892
 21
433.6978981946761
 31
0.0
  0
LINE
  5
1C163
  8
0
 10
4421.1635437227887
 20
433.69883452677612
 30
0.0
 11
4421.1635437227887
 21
433.69243389687608
 31
0.0
  0
LINE
  5
1C164
  8
0
 10
4421.1796732486901
 20
433.70082523847611
 30
0.0
 11
4421.1796732486901
 21
433.69063097827609
 31
0.0
  0
LINE
  5
1C165
  8
0
 10
4421.1730054655891
 20
433.71006576387612
 30
0.0
 11
4421.1762902724886
 21
433.7046014660761
 31
0.0
  0
LINE
  5
1C166
  8
0
 10
4421.1762902724886
 20
433.7046014660761
 30
0.0
 11
4421.192419798389
 21
433.70279854747611
 31
0.0
  0
LINE
  5
1C167
  8
0
 10
4421.192419798389
 20
433.70279854747611
 30
0.0
 11
4421.205264517489
 21
433.7064599264761
 31
0.0
  0
LINE
  5
1C168
  8
0
 10
4421.205264517489
 20
433.7064599264761
 30
0.0
 11
4421.2019797106896
 21
433.71192422427612
 31
0.0
  0
LINE
  5
1C169
  8
0
 10
4421.2019797106896
 20
433.71192422427612
 30
0.0
 11
4421.1858501847892
 21
433.71372714297598
 31
0.0
  0
LINE
  5
1C16A
  8
0
 10
4421.1858501847892
 20
433.71372714297598
 30
0.0
 11
4421.1730054655891
 21
433.71006576387612
 31
0.0
  0
LINE
  5
1C16B
  8
0
 10
4421.1762902724886
 20
433.71100209597608
 30
0.0
 11
4421.1762902724886
 21
433.7046014660761
 31
0.0
  0
LINE
  5
1C16C
  8
0
 10
4421.192419798389
 20
433.71299280767607
 30
0.0
 11
4421.192419798389
 21
433.70279854747611
 31
0.0
  0
LINE
  5
1C16D
  8
0
 10
4421.1857520152889
 20
433.72223333297609
 30
0.0
 11
4421.1890368221893
 21
433.71676903517613
 31
0.0
  0
LINE
  5
1C16E
  8
0
 10
4421.1890368221893
 20
433.71676903517613
 30
0.0
 11
4421.2051663480888
 21
433.71496611657608
 31
0.0
  0
LINE
  5
1C16F
  8
0
 10
4421.2051663480888
 20
433.71496611657608
 30
0.0
 11
4421.2180110671879
 21
433.71862749557607
 31
0.0
  0
LINE
  5
1C170
  8
0
 10
4421.2180110671879
 20
433.71862749557607
 30
0.0
 11
4421.2147262603894
 21
433.72409179337609
 31
0.0
  0
LINE
  5
1C171
  8
0
 10
4421.2147262603894
 20
433.72409179337609
 30
0.0
 11
4421.198596734489
 21
433.72589471207613
 31
0.0
  0
LINE
  5
1C172
  8
0
 10
4421.198596734489
 20
433.72589471207613
 30
0.0
 11
4421.1857520152889
 21
433.72223333297609
 31
0.0
  0
LINE
  5
1C173
  8
0
 10
4421.1890368221893
 20
433.72316966507611
 30
0.0
 11
4421.1890368221893
 21
433.71676903517613
 31
0.0
  0
LINE
  5
1C174
  8
0
 10
4421.2051663480888
 20
433.7251603767761
 30
0.0
 11
4421.2051663480888
 21
433.71496611657608
 31
0.0
  0
LINE
  5
1C175
  8
0
 10
4421.1984985650888
 20
433.734400902076
 30
0.0
 11
4421.2017833719892
 21
433.72893660427599
 31
0.0
  0
LINE
  5
1C176
  8
0
 10
4421.2017833719892
 20
433.72893660427599
 30
0.0
 11
4421.2179128978887
 21
433.72713368567611
 31
0.0
  0
LINE
  5
1C177
  8
0
 10
4421.2179128978887
 20
433.72713368567611
 30
0.0
 11
4421.2307576169887
 21
433.7307950646761
 31
0.0
  0
LINE
  5
1C178
  8
0
 10
4421.2307576169887
 20
433.7307950646761
 30
0.0
 11
4421.2274728101902
 21
433.73625936247612
 31
0.0
  0
LINE
  5
1C179
  8
0
 10
4421.2274728101902
 20
433.73625936247612
 30
0.0
 11
4421.2113432842889
 21
433.73806228117598
 31
0.0
  0
LINE
  5
1C17A
  8
0
 10
4421.2113432842889
 20
433.73806228117598
 30
0.0
 11
4421.1984985650888
 21
433.734400902076
 31
0.0
  0
LINE
  5
1C17B
  8
0
 10
4421.2017833719892
 20
433.73533723417609
 30
0.0
 11
4421.2017833719892
 21
433.72893660427599
 31
0.0
  0
LINE
  5
1C17C
  8
0
 10
4421.2179128978887
 20
433.73732794587607
 30
0.0
 11
4421.2179128978887
 21
433.72713368567611
 31
0.0
  0
LINE
  5
1C17D
  8
0
 10
4421.2112451147887
 20
433.74656847117609
 30
0.0
 11
4421.2145299216891
 21
433.74110417337607
 31
0.0
  0
LINE
  5
1C17E
  8
0
 10
4421.2145299216891
 20
433.74110417337607
 30
0.0
 11
4421.2306594475904
 21
433.73930125477608
 31
0.0
  0
LINE
  5
1C17F
  8
0
 10
4421.2306594475904
 20
433.73930125477608
 30
0.0
 11
4421.2435041666886
 21
433.74296263377607
 31
0.0
  0
LINE
  5
1C180
  8
0
 10
4421.2435041666886
 20
433.74296263377607
 30
0.0
 11
4421.2402193598891
 21
433.74842693157598
 31
0.0
  0
LINE
  5
1C181
  8
0
 10
4421.2402193598891
 20
433.74842693157598
 30
0.0
 11
4421.2240898339878
 21
433.75022985027613
 31
0.0
  0
LINE
  5
1C182
  8
0
 10
4421.2240898339878
 20
433.75022985027613
 30
0.0
 11
4421.2112451147887
 21
433.74656847117609
 31
0.0
  0
LINE
  5
1C183
  8
0
 10
4421.2145299216891
 20
433.74750480327612
 30
0.0
 11
4421.2145299216891
 21
433.74110417337607
 31
0.0
  0
LINE
  5
1C184
  8
0
 10
4421.2306594475904
 20
433.7494955149761
 30
0.0
 11
4421.2306594475904
 21
433.73930125477608
 31
0.0
  0
LINE
  5
1C185
  8
0
 10
4421.2239916645894
 20
433.75873604037611
 30
0.0
 11
4421.2272764714889
 21
433.75327174257609
 31
0.0
  0
LINE
  5
1C186
  8
0
 10
4421.2272764714889
 20
433.75327174257609
 30
0.0
 11
4421.2434059973893
 21
433.75146882397598
 31
0.0
  0
LINE
  5
1C187
  8
0
 10
4421.2434059973893
 20
433.75146882397598
 30
0.0
 11
4421.2562507164894
 21
433.75513020297609
 31
0.0
  0
LINE
  5
1C188
  8
0
 10
4421.2562507164894
 20
433.75513020297609
 30
0.0
 11
4421.252965909689
 21
433.76059450077599
 31
0.0
  0
LINE
  5
1C189
  8
0
 10
4421.252965909689
 20
433.76059450077599
 30
0.0
 11
4421.2368363837904
 21
433.76239741947609
 31
0.0
  0
LINE
  5
1C18A
  8
0
 10
4421.2368363837904
 20
433.76239741947609
 30
0.0
 11
4421.2239916645894
 21
433.75873604037611
 31
0.0
  0
LINE
  5
1C18B
  8
0
 10
4421.2272764714889
 20
433.75967237247607
 30
0.0
 11
4421.2272764714889
 21
433.75327174257609
 31
0.0
  0
LINE
  5
1C18C
  8
0
 10
4421.2434059973893
 20
433.76166308417612
 30
0.0
 11
4421.2434059973893
 21
433.75146882397598
 31
0.0
  0
LINE
  5
1C18D
  8
0
 10
4421.2367382142893
 20
433.77090360947608
 30
0.0
 11
4421.2400230211888
 21
433.76543931167612
 31
0.0
  0
LINE
  5
1C18E
  8
0
 10
4421.2400230211888
 20
433.76543931167612
 30
0.0
 11
4421.2561525470901
 21
433.76363639307613
 31
0.0
  0
LINE
  5
1C18F
  8
0
 10
4421.2561525470901
 20
433.76363639307613
 30
0.0
 11
4421.2689972661892
 21
433.76729777207612
 31
0.0
  0
LINE
  5
1C190
  8
0
 10
4421.2689972661892
 20
433.76729777207612
 30
0.0
 11
4421.2657124593889
 21
433.77276206987608
 31
0.0
  0
LINE
  5
1C191
  8
0
 10
4421.2657124593889
 20
433.77276206987608
 30
0.0
 11
4421.2495829334894
 21
433.77456498857612
 31
0.0
  0
LINE
  5
1C192
  8
0
 10
4421.2495829334894
 20
433.77456498857612
 30
0.0
 11
4421.2367382142893
 21
433.77090360947608
 31
0.0
  0
LINE
  5
1C193
  8
0
 10
4421.2400230211888
 20
433.7718399415761
 30
0.0
 11
4421.2400230211888
 21
433.76543931167612
 31
0.0
  0
LINE
  5
1C194
  8
0
 10
4421.2561525470901
 20
433.77383065327598
 30
0.0
 11
4421.2561525470901
 21
433.76363639307613
 31
0.0
  0
LINE
  5
1C195
  8
0
 10
4421.2494847639891
 20
433.78307117857611
 30
0.0
 11
4421.2527695708886
 21
433.7776068807762
 31
0.0
  0
LINE
  5
1C196
  8
0
 10
4421.2527695708886
 20
433.7776068807762
 30
0.0
 11
4421.268899096789
 21
433.77580396217598
 31
0.0
  0
LINE
  5
1C197
  8
0
 10
4421.268899096789
 20
433.77580396217598
 30
0.0
 11
4421.2817438158891
 21
433.77946534117598
 31
0.0
  0
LINE
  5
1C198
  8
0
 10
4421.2817438158891
 20
433.77946534117598
 30
0.0
 11
4421.2784590090896
 21
433.78492963897611
 31
0.0
  0
LINE
  5
1C199
  8
0
 10
4421.2784590090896
 20
433.78492963897611
 30
0.0
 11
4421.2623294831892
 21
433.78673255767609
 31
0.0
  0
LINE
  5
1C19A
  8
0
 10
4421.2623294831892
 20
433.78673255767609
 30
0.0
 11
4421.2494847639891
 21
433.78307117857611
 31
0.0
  0
LINE
  5
1C19B
  8
0
 10
4421.2527695708886
 20
433.78400751067608
 30
0.0
 11
4421.2527695708886
 21
433.7776068807762
 31
0.0
  0
LINE
  5
1C19C
  8
0
 10
4421.268899096789
 20
433.78599822237601
 30
0.0
 11
4421.268899096789
 21
433.77580396217598
 31
0.0
  0
LINE
  5
1C19D
  8
0
 10
4421.262231313689
 20
433.79523874767608
 30
0.0
 11
4421.2655161205894
 21
433.78977444987612
 31
0.0
  0
LINE
  5
1C19E
  8
0
 10
4421.2655161205894
 20
433.78977444987612
 30
0.0
 11
4421.2816456464889
 21
433.78797153127613
 31
0.0
  0
LINE
  5
1C19F
  8
0
 10
4421.2816456464889
 20
433.78797153127613
 30
0.0
 11
4421.294490365588
 21
433.79163291027601
 31
0.0
  0
LINE
  5
1C1A0
  8
0
 10
4421.294490365588
 20
433.79163291027601
 30
0.0
 11
4421.2912055587894
 21
433.79709720807608
 31
0.0
  0
LINE
  5
1C1A1
  8
0
 10
4421.2912055587894
 20
433.79709720807608
 30
0.0
 11
4421.275076032889
 21
433.79890012677612
 31
0.0
  0
LINE
  5
1C1A2
  8
0
 10
4421.275076032889
 20
433.79890012677612
 30
0.0
 11
4421.262231313689
 21
433.79523874767608
 31
0.0
  0
LINE
  5
1C1A3
  8
0
 10
4421.2655161205894
 20
433.79617507977599
 30
0.0
 11
4421.2655161205894
 21
433.78977444987612
 31
0.0
  0
LINE
  5
1C1A4
  8
0
 10
4421.2816456464889
 20
433.79816579147598
 30
0.0
 11
4421.2816456464889
 21
433.78797153127613
 31
0.0
  0
LINE
  5
1C1A5
  8
0
 10
4421.2749778634889
 20
433.80740631687598
 30
0.0
 11
4421.2782626703893
 21
433.80194201907608
 31
0.0
  0
LINE
  5
1C1A6
  8
0
 10
4421.2782626703893
 20
433.80194201907608
 30
0.0
 11
4421.2943921962888
 21
433.80013910047609
 31
0.0
  0
LINE
  5
1C1A7
  8
0
 10
4421.2943921962888
 20
433.80013910047609
 30
0.0
 11
4421.3072369153888
 21
433.80380047947608
 31
0.0
  0
LINE
  5
1C1A8
  8
0
 10
4421.3072369153888
 20
433.80380047947608
 30
0.0
 11
4421.3039521085902
 21
433.8092647772761
 31
0.0
  0
LINE
  5
1C1A9
  8
0
 10
4421.3039521085902
 20
433.8092647772761
 30
0.0
 11
4421.2878225826889
 21
433.81106769597608
 31
0.0
  0
LINE
  5
1C1AA
  8
0
 10
4421.2878225826889
 20
433.81106769597608
 30
0.0
 11
4421.2749778634889
 21
433.80740631687598
 31
0.0
  0
LINE
  5
1C1AB
  8
0
 10
4421.2782626703893
 20
433.80834264897601
 30
0.0
 11
4421.2782626703893
 21
433.80194201907608
 31
0.0
  0
LINE
  5
1C1AC
  8
0
 10
4421.2943921962888
 20
433.81033336067611
 30
0.0
 11
4421.2943921962888
 21
433.80013910047609
 31
0.0
  0
LINE
  5
1C1AD
  8
0
 10
4421.2877244131887
 20
433.81957388597613
 30
0.0
 11
4421.2910092200891
 21
433.81410958817611
 31
0.0
  0
LINE
  5
1C1AE
  8
0
 10
4421.2910092200891
 20
433.81410958817611
 30
0.0
 11
4421.3071387459904
 21
433.81230666957612
 31
0.0
  0
LINE
  5
1C1AF
  8
0
 10
4421.3071387459904
 20
433.81230666957612
 30
0.0
 11
4421.316390328082
 21
433.8149438271605
 31
0.0
  0
LINE
  5
1C1B0
  8
0
 10
4421.2889636105137
 20
433.8199271183916
 30
0.0
 11
4421.2877244131887
 21
433.81957388597613
 31
0.0
  0
LINE
  5
1C1B1
  8
0
 10
4421.2910092200891
 20
433.81959054003659
 30
0.0
 11
4421.2910092200891
 21
433.81410958817611
 31
0.0
  0
LINE
  5
1C1B2
  8
0
 10
4421.3071387459904
 20
433.8167388928922
 30
0.0
 11
4421.3071387459904
 21
433.81230666957612
 31
0.0
  0
LINE
  5
1C1B3
  8
0
 10
4421.1861446928879
 20
433.68820857277609
 30
0.0
 11
4421.1894294997892
 21
433.68274427497607
 31
0.0
  0
LINE
  5
1C1B4
  8
0
 10
4421.1894294997892
 20
433.68274427497607
 30
0.0
 11
4421.2055590256887
 21
433.68094135637608
 31
0.0
  0
LINE
  5
1C1B5
  8
0
 10
4421.2055590256887
 20
433.68094135637608
 30
0.0
 11
4421.2184037447896
 21
433.68460273537607
 31
0.0
  0
LINE
  5
1C1B6
  8
0
 10
4421.2184037447896
 20
433.68460273537607
 30
0.0
 11
4421.2151189379892
 21
433.69006703317598
 31
0.0
  0
LINE
  5
1C1B7
  8
0
 10
4421.2151189379892
 20
433.69006703317598
 30
0.0
 11
4421.1989894120888
 21
433.69186995187601
 31
0.0
  0
LINE
  5
1C1B8
  8
0
 10
4421.1989894120888
 20
433.69186995187601
 30
0.0
 11
4421.1861446928879
 21
433.68820857277609
 31
0.0
  0
LINE
  5
1C1B9
  8
0
 10
4421.1894294997892
 20
433.68914490487612
 30
0.0
 11
4421.1894294997892
 21
433.68274427497607
 31
0.0
  0
LINE
  5
1C1BA
  8
0
 10
4421.2055590256887
 20
433.6911356165761
 30
0.0
 11
4421.2055590256887
 21
433.68094135637608
 31
0.0
  0
LINE
  5
1C1BB
  8
0
 10
4421.1988912425886
 20
433.70037614187612
 30
0.0
 11
4421.202176049489
 21
433.69491184407599
 31
0.0
  0
LINE
  5
1C1BC
  8
0
 10
4421.202176049489
 20
433.69491184407599
 30
0.0
 11
4421.2183055753894
 21
433.693108925476
 31
0.0
  0
LINE
  5
1C1BD
  8
0
 10
4421.2183055753894
 20
433.693108925476
 30
0.0
 11
4421.2311502944895
 21
433.6967703044761
 31
0.0
  0
LINE
  5
1C1BE
  8
0
 10
4421.2311502944895
 20
433.6967703044761
 30
0.0
 11
4421.2278654876891
 21
433.70223460227612
 31
0.0
  0
LINE
  5
1C1BF
  8
0
 10
4421.2278654876891
 20
433.70223460227612
 30
0.0
 11
4421.2117359617887
 21
433.7040375209761
 31
0.0
  0
LINE
  5
1C1C0
  8
0
 10
4421.2117359617887
 20
433.7040375209761
 30
0.0
 11
4421.1988912425886
 21
433.70037614187612
 31
0.0
  0
LINE
  5
1C1C1
  8
0
 10
4421.202176049489
 20
433.70131247397609
 30
0.0
 11
4421.202176049489
 21
433.69491184407599
 31
0.0
  0
LINE
  5
1C1C2
  8
0
 10
4421.2183055753894
 20
433.70330318567608
 30
0.0
 11
4421.2183055753894
 21
433.693108925476
 31
0.0
  0
LINE
  5
1C1C3
  8
0
 10
4421.2116377923903
 20
433.71254371107608
 30
0.0
 11
4421.2149225992889
 21
433.70707941327612
 31
0.0
  0
LINE
  5
1C1C4
  8
0
 10
4421.2149225992889
 20
433.70707941327612
 30
0.0
 11
4421.2310521251893
 21
433.70527649467601
 31
0.0
  0
LINE
  5
1C1C5
  8
0
 10
4421.2310521251893
 20
433.70527649467601
 30
0.0
 11
4421.2438968442893
 21
433.70893787367612
 31
0.0
  0
LINE
  5
1C1C6
  8
0
 10
4421.2438968442893
 20
433.70893787367612
 30
0.0
 11
4421.240612037489
 21
433.71440217147608
 31
0.0
  0
LINE
  5
1C1C7
  8
0
 10
4421.240612037489
 20
433.71440217147608
 30
0.0
 11
4421.2244825115886
 21
433.71620509017612
 31
0.0
  0
LINE
  5
1C1C8
  8
0
 10
4421.2244825115886
 20
433.71620509017612
 30
0.0
 11
4421.2116377923903
 21
433.71254371107608
 31
0.0
  0
LINE
  5
1C1C9
  8
0
 10
4421.2149225992889
 20
433.71348004317611
 30
0.0
 11
4421.2149225992889
 21
433.70707941327612
 31
0.0
  0
LINE
  5
1C1CA
  8
0
 10
4421.2310521251893
 20
433.71547075487598
 30
0.0
 11
4421.2310521251893
 21
433.70527649467601
 31
0.0
  0
LINE
  5
1C1CB
  8
0
 10
4421.2243843420893
 20
433.72471128017611
 30
0.0
 11
4421.2276691489888
 21
433.71924698237609
 31
0.0
  0
LINE
  5
1C1CC
  8
0
 10
4421.2276691489888
 20
433.71924698237609
 30
0.0
 11
4421.2437986748891
 21
433.7174440637761
 31
0.0
  0
LINE
  5
1C1CD
  8
0
 10
4421.2437986748891
 20
433.7174440637761
 30
0.0
 11
4421.2566433939892
 21
433.72110544277598
 31
0.0
  0
LINE
  5
1C1CE
  8
0
 10
4421.2566433939892
 20
433.72110544277598
 30
0.0
 11
4421.2533585871888
 21
433.72656974057611
 31
0.0
  0
LINE
  5
1C1CF
  8
0
 10
4421.2533585871888
 20
433.72656974057611
 30
0.0
 11
4421.2372290612893
 21
433.72837265927609
 31
0.0
  0
LINE
  5
1C1D0
  8
0
 10
4421.2372290612893
 20
433.72837265927609
 30
0.0
 11
4421.2243843420893
 21
433.72471128017611
 31
0.0
  0
LINE
  5
1C1D1
  8
0
 10
4421.2276691489888
 20
433.72564761227608
 30
0.0
 11
4421.2276691489888
 21
433.71924698237609
 31
0.0
  0
LINE
  5
1C1D2
  8
0
 10
4421.2437986748891
 20
433.72763832397601
 30
0.0
 11
4421.2437986748891
 21
433.7174440637761
 31
0.0
  0
LINE
  5
1C1D3
  8
0
 10
4421.2371308917891
 20
433.73687884927608
 30
0.0
 11
4421.2404156986886
 21
433.73141455147612
 31
0.0
  0
LINE
  5
1C1D4
  8
0
 10
4421.2404156986886
 20
433.73141455147612
 30
0.0
 11
4421.256545224589
 21
433.72961163287607
 31
0.0
  0
LINE
  5
1C1D5
  8
0
 10
4421.256545224589
 20
433.72961163287607
 30
0.0
 11
4421.269389943689
 21
433.73327301187601
 31
0.0
  0
LINE
  5
1C1D6
  8
0
 10
4421.269389943689
 20
433.73327301187601
 30
0.0
 11
4421.2661051368887
 21
433.73873730967608
 31
0.0
  0
LINE
  5
1C1D7
  8
0
 10
4421.2661051368887
 20
433.73873730967608
 30
0.0
 11
4421.2499756109892
 21
433.74054022837612
 31
0.0
  0
LINE
  5
1C1D8
  8
0
 10
4421.2499756109892
 20
433.74054022837612
 30
0.0
 11
4421.2371308917891
 21
433.73687884927608
 31
0.0
  0
LINE
  5
1C1D9
  8
0
 10
4421.2404156986886
 20
433.73781518137599
 30
0.0
 11
4421.2404156986886
 21
433.73141455147612
 31
0.0
  0
LINE
  5
1C1DA
  8
0
 10
4421.256545224589
 20
433.7398058930761
 30
0.0
 11
4421.256545224589
 21
433.72961163287607
 31
0.0
  0
LINE
  5
1C1DB
  8
0
 10
4421.249877441488
 20
433.74904641837611
 30
0.0
 11
4421.2531622483893
 21
433.74358212057609
 31
0.0
  0
LINE
  5
1C1DC
  8
0
 10
4421.2531622483893
 20
433.74358212057609
 30
0.0
 11
4421.2692917742888
 21
433.7417792019761
 31
0.0
  0
LINE
  5
1C1DD
  8
0
 10
4421.2692917742888
 20
433.7417792019761
 30
0.0
 11
4421.282136493388
 21
433.74544058097609
 31
0.0
  0
LINE
  5
1C1DE
  8
0
 10
4421.282136493388
 20
433.74544058097609
 30
0.0
 11
4421.2788516865894
 21
433.75090487877611
 31
0.0
  0
LINE
  5
1C1DF
  8
0
 10
4421.2788516865894
 20
433.75090487877611
 30
0.0
 11
4421.262722160689
 21
433.75270779747609
 31
0.0
  0
LINE
  5
1C1E0
  8
0
 10
4421.262722160689
 20
433.75270779747609
 30
0.0
 11
4421.249877441488
 21
433.74904641837611
 31
0.0
  0
LINE
  5
1C1E1
  8
0
 10
4421.2531622483893
 20
433.74998275047608
 30
0.0
 11
4421.2531622483893
 21
433.74358212057609
 31
0.0
  0
LINE
  5
1C1E2
  8
0
 10
4421.2692917742888
 20
433.75197346217612
 30
0.0
 11
4421.2692917742888
 21
433.7417792019761
 31
0.0
  0
LINE
  5
1C1E3
  8
0
 10
4421.2626239912879
 20
433.76121398757613
 30
0.0
 11
4421.2659087981892
 21
433.75574968977611
 31
0.0
  0
LINE
  5
1C1E4
  8
0
 10
4421.2659087981892
 20
433.75574968977611
 30
0.0
 11
4421.2820383240887
 21
433.75394677117612
 31
0.0
  0
LINE
  5
1C1E5
  8
0
 10
4421.2820383240887
 20
433.75394677117612
 30
0.0
 11
4421.2948830431887
 21
433.75760815017611
 31
0.0
  0
LINE
  5
1C1E6
  8
0
 10
4421.2948830431887
 20
433.75760815017611
 30
0.0
 11
4421.2915982363893
 21
433.76307244797613
 31
0.0
  0
LINE
  5
1C1E7
  8
0
 10
4421.2915982363893
 20
433.76307244797613
 30
0.0
 11
4421.2754687104889
 21
433.76487536667611
 31
0.0
  0
LINE
  5
1C1E8
  8
0
 10
4421.2754687104889
 20
433.76487536667611
 30
0.0
 11
4421.2626239912879
 21
433.76121398757613
 31
0.0
  0
LINE
  5
1C1E9
  8
0
 10
4421.2659087981892
 20
433.7621503196761
 30
0.0
 11
4421.2659087981892
 21
433.75574968977611
 31
0.0
  0
LINE
  5
1C1EA
  8
0
 10
4421.2820383240887
 20
433.76414103137608
 30
0.0
 11
4421.2820383240887
 21
433.75394677117612
 31
0.0
  0
LINE
  5
1C1EB
  8
0
 10
4421.2753705409887
 20
433.77338155667599
 30
0.0
 11
4421.2786553478891
 21
433.76791725887608
 31
0.0
  0
LINE
  5
1C1EC
  8
0
 10
4421.2786553478891
 20
433.76791725887608
 30
0.0
 11
4421.2947848737886
 21
433.76611434027609
 31
0.0
  0
LINE
  5
1C1ED
  8
0
 10
4421.2947848737886
 20
433.76611434027609
 30
0.0
 11
4421.3076295928886
 21
433.76977571927608
 31
0.0
  0
LINE
  5
1C1EE
  8
0
 10
4421.3076295928886
 20
433.76977571927608
 30
0.0
 11
4421.3043447860891
 21
433.7752400170761
 31
0.0
  0
LINE
  5
1C1EF
  8
0
 10
4421.3043447860891
 20
433.7752400170761
 30
0.0
 11
4421.2882152601878
 21
433.77704293577608
 31
0.0
  0
LINE
  5
1C1F0
  8
0
 10
4421.2882152601878
 20
433.77704293577608
 30
0.0
 11
4421.2753705409887
 21
433.77338155667599
 31
0.0
  0
LINE
  5
1C1F1
  8
0
 10
4421.2786553478891
 20
433.77431788877612
 30
0.0
 11
4421.2786553478891
 21
433.76791725887608
 31
0.0
  0
LINE
  5
1C1F2
  8
0
 10
4421.2947848737886
 20
433.77630860047611
 30
0.0
 11
4421.2947848737886
 21
433.76611434027609
 31
0.0
  0
LINE
  5
1C1F3
  8
0
 10
4421.2881170907904
 20
433.78554912577607
 30
0.0
 11
4421.291401897689
 21
433.78008482797611
 31
0.0
  0
LINE
  5
1C1F4
  8
0
 10
4421.291401897689
 20
433.78008482797611
 30
0.0
 11
4421.3075314235894
 21
433.77828190937612
 31
0.0
  0
LINE
  5
1C1F5
  8
0
 10
4421.3075314235894
 20
433.77828190937612
 30
0.0
 11
4421.3203761426903
 21
433.78194328837611
 31
0.0
  0
LINE
  5
1C1F6
  8
0
 10
4421.3203761426903
 20
433.78194328837611
 30
0.0
 11
4421.317091335889
 21
433.78740758617607
 31
0.0
  0
LINE
  5
1C1F7
  8
0
 10
4421.317091335889
 20
433.78740758617607
 30
0.0
 11
4421.3009618099886
 21
433.789210504876
 31
0.0
  0
LINE
  5
1C1F8
  8
0
 10
4421.3009618099886
 20
433.789210504876
 30
0.0
 11
4421.2881170907904
 21
433.78554912577607
 31
0.0
  0
LINE
  5
1C1F9
  8
0
 10
4421.291401897689
 20
433.7864854578761
 30
0.0
 11
4421.291401897689
 21
433.78008482797611
 31
0.0
  0
LINE
  5
1C1FA
  8
0
 10
4421.3075314235894
 20
433.78847616957609
 30
0.0
 11
4421.3075314235894
 21
433.77828190937612
 31
0.0
  0
LINE
  5
1C1FB
  8
0
 10
4421.3008636404893
 20
433.7977166948761
 30
0.0
 11
4421.3041484473888
 21
433.79225239707608
 31
0.0
  0
LINE
  5
1C1FC
  8
0
 10
4421.3041484473888
 20
433.79225239707608
 30
0.0
 11
4421.3202779732892
 21
433.79044947847598
 31
0.0
  0
LINE
  5
1C1FD
  8
0
 10
4421.3202779732892
 20
433.79044947847598
 30
0.0
 11
4421.3331226923892
 21
433.79411085747608
 31
0.0
  0
LINE
  5
1C1FE
  8
0
 10
4421.3331226923892
 20
433.79411085747608
 30
0.0
 11
4421.3298378855889
 21
433.79957515527599
 31
0.0
  0
LINE
  5
1C1FF
  8
0
 10
4421.3298378855889
 20
433.79957515527599
 30
0.0
 11
4421.3137083596894
 21
433.80137807397608
 31
0.0
  0
LINE
  5
1C200
  8
0
 10
4421.3137083596894
 20
433.80137807397608
 30
0.0
 11
4421.3008636404893
 21
433.7977166948761
 31
0.0
  0
LINE
  5
1C201
  8
0
 10
4421.3041484473888
 20
433.79865302697613
 30
0.0
 11
4421.3041484473888
 21
433.79225239707608
 31
0.0
  0
LINE
  5
1C202
  8
0
 10
4421.3202779732892
 20
433.80064373867611
 30
0.0
 11
4421.3202779732892
 21
433.79044947847598
 31
0.0
  0
LINE
  5
1C203
  8
0
 10
4421.3136101901891
 20
433.80988426407612
 30
0.0
 11
4421.3168949970886
 21
433.8044199662761
 31
0.0
  0
LINE
  5
1C204
  8
0
 10
4421.3168949970886
 20
433.8044199662761
 30
0.0
 11
4421.333024522989
 21
433.80261704767599
 31
0.0
  0
LINE
  5
1C205
  8
0
 10
4421.333024522989
 20
433.80261704767599
 30
0.0
 11
4421.3458692420891
 21
433.80627842667599
 31
0.0
  0
LINE
  5
1C206
  8
0
 10
4421.3458692420891
 20
433.80627842667599
 30
0.0
 11
4421.3448390508547
 21
433.8079921565955
 31
0.0
  0
LINE
  5
1C207
  8
0
 10
4421.325014443094
 20
433.81313503916778
 30
0.0
 11
4421.3136101901891
 21
433.80988426407612
 31
0.0
  0
LINE
  5
1C208
  8
0
 10
4421.3168949970886
 20
433.81082059617609
 30
0.0
 11
4421.3168949970886
 21
433.8044199662761
 31
0.0
  0
LINE
  5
1C209
  8
0
 10
4421.333024522989
 20
433.81119265599631
 30
0.0
 11
4421.333024522989
 21
433.80261704767599
 31
0.0
  0
LINE
  5
1C20A
  8
0
 10
4421.2247770195891
 20
433.69068652007599
 30
0.0
 11
4421.2280618264886
 21
433.68522222227608
 31
0.0
  0
LINE
  5
1C20B
  8
0
 10
4421.2280618264886
 20
433.68522222227608
 30
0.0
 11
4421.244191352388
 21
433.68341930367609
 31
0.0
  0
LINE
  5
1C20C
  8
0
 10
4421.244191352388
 20
433.68341930367609
 30
0.0
 11
4421.257036071489
 21
433.68708068267608
 31
0.0
  0
LINE
  5
1C20D
  8
0
 10
4421.257036071489
 20
433.68708068267608
 30
0.0
 11
4421.2537512646886
 21
433.6925449804761
 31
0.0
  0
LINE
  5
1C20E
  8
0
 10
4421.2537512646886
 20
433.6925449804761
 30
0.0
 11
4421.2376217387882
 21
433.69434789917608
 31
0.0
  0
LINE
  5
1C20F
  8
0
 10
4421.2376217387882
 20
433.69434789917608
 30
0.0
 11
4421.2247770195891
 21
433.69068652007599
 31
0.0
  0
LINE
  5
1C210
  8
0
 10
4421.2280618264886
 20
433.69162285217612
 30
0.0
 11
4421.2280618264886
 21
433.68522222227608
 31
0.0
  0
LINE
  5
1C211
  8
0
 10
4421.244191352388
 20
433.69361356387611
 30
0.0
 11
4421.244191352388
 21
433.68341930367609
 31
0.0
  0
LINE
  5
1C212
  8
0
 10
4421.237523569288
 20
433.70285408917613
 30
0.0
 11
4421.2408083761893
 21
433.69738979137611
 31
0.0
  0
LINE
  5
1C213
  8
0
 10
4421.2408083761893
 20
433.69738979137611
 30
0.0
 11
4421.2569379020879
 21
433.69558687277612
 31
0.0
  0
LINE
  5
1C214
  8
0
 10
4421.2569379020879
 20
433.69558687277612
 30
0.0
 11
4421.2697826211879
 21
433.69924825177611
 31
0.0
  0
LINE
  5
1C215
  8
0
 10
4421.2697826211879
 20
433.69924825177611
 30
0.0
 11
4421.2664978143875
 21
433.70471254957607
 31
0.0
  0
LINE
  5
1C216
  8
0
 10
4421.2664978143875
 20
433.70471254957607
 30
0.0
 11
4421.250368288489
 21
433.706515468276
 31
0.0
  0
LINE
  5
1C217
  8
0
 10
4421.250368288489
 20
433.706515468276
 30
0.0
 11
4421.237523569288
 21
433.70285408917613
 31
0.0
  0
LINE
  5
1C218
  8
0
 10
4421.2408083761893
 20
433.7037904212761
 30
0.0
 11
4421.2408083761893
 21
433.69738979137611
 31
0.0
  0
LINE
  5
1C219
  8
0
 10
4421.2569379020879
 20
433.70578113297609
 30
0.0
 11
4421.2569379020879
 21
433.69558687277612
 31
0.0
  0
LINE
  5
1C21A
  8
0
 10
4421.2502701190879
 20
433.71502165827599
 30
0.0
 11
4421.2535549259883
 21
433.70955736047608
 31
0.0
  0
LINE
  5
1C21B
  8
0
 10
4421.2535549259883
 20
433.70955736047608
 30
0.0
 11
4421.2696844518887
 21
433.70775444187598
 31
0.0
  0
LINE
  5
1C21C
  8
0
 10
4421.2696844518887
 20
433.70775444187598
 30
0.0
 11
4421.2825291709887
 21
433.71141582087608
 31
0.0
  0
LINE
  5
1C21D
  8
0
 10
4421.2825291709887
 20
433.71141582087608
 30
0.0
 11
4421.2792443641893
 21
433.7168801186761
 31
0.0
  0
LINE
  5
1C21E
  8
0
 10
4421.2792443641893
 20
433.7168801186761
 30
0.0
 11
4421.2631148382879
 21
433.71868303737608
 31
0.0
  0
LINE
  5
1C21F
  8
0
 10
4421.2631148382879
 20
433.71868303737608
 30
0.0
 11
4421.2502701190879
 21
433.71502165827599
 31
0.0
  0
LINE
  5
1C220
  8
0
 10
4421.2535549259883
 20
433.71595799037613
 30
0.0
 11
4421.2535549259883
 21
433.70955736047608
 31
0.0
  0
LINE
  5
1C221
  8
0
 10
4421.2696844518887
 20
433.71794870207611
 30
0.0
 11
4421.2696844518887
 21
433.70775444187598
 31
0.0
  0
LINE
  5
1C222
  8
0
 10
4421.2630166687886
 20
433.72718922737602
 30
0.0
 11
4421.2663014756881
 21
433.721724929576
 31
0.0
  0
LINE
  5
1C223
  8
0
 10
4421.2663014756881
 20
433.721724929576
 30
0.0
 11
4421.2824310015894
 21
433.71992201097612
 31
0.0
  0
LINE
  5
1C224
  8
0
 10
4421.2824310015894
 20
433.71992201097612
 30
0.0
 11
4421.2952757206886
 21
433.72358338997611
 31
0.0
  0
LINE
  5
1C225
  8
0
 10
4421.2952757206886
 20
433.72358338997611
 30
0.0
 11
4421.2919909138882
 21
433.72904768777607
 31
0.0
  0
LINE
  5
1C226
  8
0
 10
4421.2919909138882
 20
433.72904768777607
 30
0.0
 11
4421.2758613879887
 21
433.730850606476
 31
0.0
  0
LINE
  5
1C227
  8
0
 10
4421.2758613879887
 20
433.730850606476
 30
0.0
 11
4421.2630166687886
 21
433.72718922737602
 31
0.0
  0
LINE
  5
1C228
  8
0
 10
4421.2663014756881
 20
433.7281255594761
 30
0.0
 11
4421.2663014756881
 21
433.721724929576
 31
0.0
  0
LINE
  5
1C229
  8
0
 10
4421.2824310015894
 20
433.73011627117609
 30
0.0
 11
4421.2824310015894
 21
433.71992201097612
 31
0.0
  0
LINE
  5
1C22A
  8
0
 10
4421.2757632185903
 20
433.73935679657609
 30
0.0
 11
4421.279048025488
 21
433.73389249877602
 31
0.0
  0
LINE
  5
1C22B
  8
0
 10
4421.279048025488
 20
433.73389249877602
 30
0.0
 11
4421.2951775513893
 21
433.73208958017608
 31
0.0
  0
LINE
  5
1C22C
  8
0
 10
4421.2951775513893
 20
433.73208958017608
 30
0.0
 11
4421.3080222704903
 21
433.73575095917607
 31
0.0
  0
LINE
  5
1C22D
  8
0
 10
4421.3080222704903
 20
433.73575095917607
 30
0.0
 11
4421.304737463689
 21
433.74121525697609
 31
0.0
  0
LINE
  5
1C22E
  8
0
 10
4421.304737463689
 20
433.74121525697609
 30
0.0
 11
4421.2886079377886
 21
433.74301817567613
 31
0.0
  0
LINE
  5
1C22F
  8
0
 10
4421.2886079377886
 20
433.74301817567613
 30
0.0
 11
4421.2757632185903
 21
433.73935679657609
 31
0.0
  0
LINE
  5
1C230
  8
0
 10
4421.279048025488
 20
433.74029312867611
 30
0.0
 11
4421.279048025488
 21
433.73389249877602
 31
0.0
  0
LINE
  5
1C231
  8
0
 10
4421.2951775513893
 20
433.74228384037599
 30
0.0
 11
4421.2951775513893
 21
433.73208958017608
 31
0.0
  0
LINE
  5
1C232
  8
0
 10
4421.2885097682893
 20
433.75152436567612
 30
0.0
 11
4421.2917945751879
 21
433.7460600678761
 31
0.0
  0
LINE
  5
1C233
  8
0
 10
4421.2917945751879
 20
433.7460600678761
 30
0.0
 11
4421.3079241010892
 21
433.744257149276
 31
0.0
  0
LINE
  5
1C234
  8
0
 10
4421.3079241010892
 20
433.744257149276
 30
0.0
 11
4421.3207688201892
 21
433.74791852827599
 31
0.0
  0
LINE
  5
1C235
  8
0
 10
4421.3207688201892
 20
433.74791852827599
 30
0.0
 11
4421.3174840133879
 21
433.75338282607601
 31
0.0
  0
LINE
  5
1C236
  8
0
 10
4421.3174840133879
 20
433.75338282607601
 30
0.0
 11
4421.3013544874893
 21
433.7551857447761
 31
0.0
  0
LINE
  5
1C237
  8
0
 10
4421.3013544874893
 20
433.7551857447761
 30
0.0
 11
4421.2885097682893
 21
433.75152436567612
 31
0.0
  0
LINE
  5
1C238
  8
0
 10
4421.2917945751879
 20
433.75246069777609
 30
0.0
 11
4421.2917945751879
 21
433.7460600678761
 31
0.0
  0
LINE
  5
1C239
  8
0
 10
4421.3079241010892
 20
433.75445140947608
 30
0.0
 11
4421.3079241010892
 21
433.744257149276
 31
0.0
  0
LINE
  5
1C23A
  8
0
 10
4421.3012563179891
 20
433.76369193477609
 30
0.0
 11
4421.3045411248886
 21
433.75822763697607
 31
0.0
  0
LINE
  5
1C23B
  8
0
 10
4421.3045411248886
 20
433.75822763697607
 30
0.0
 11
4421.3206706507881
 21
433.75642471837608
 31
0.0
  0
LINE
  5
1C23C
  8
0
 10
4421.3206706507881
 20
433.75642471837608
 30
0.0
 11
4421.333515369889
 21
433.76008609737607
 31
0.0
  0
LINE
  5
1C23D
  8
0
 10
4421.333515369889
 20
433.76008609737607
 30
0.0
 11
4421.3302305630887
 21
433.76555039517609
 31
0.0
  0
LINE
  5
1C23E
  8
0
 10
4421.3302305630887
 20
433.76555039517609
 30
0.0
 11
4421.3141010371892
 21
433.76735331387607
 31
0.0
  0
LINE
  5
1C23F
  8
0
 10
4421.3141010371892
 20
433.76735331387607
 30
0.0
 11
4421.3012563179891
 21
433.76369193477609
 31
0.0
  0
LINE
  5
1C240
  8
0
 10
4421.3045411248886
 20
433.76462826687612
 30
0.0
 11
4421.3045411248886
 21
433.75822763697607
 31
0.0
  0
LINE
  5
1C241
  8
0
 10
4421.3206706507881
 20
433.76661897857599
 30
0.0
 11
4421.3206706507881
 21
433.75642471837608
 31
0.0
  0
LINE
  5
1C242
  8
0
 10
4421.314002867688
 20
433.77585950387612
 30
0.0
 11
4421.3172876745894
 21
433.7703952060761
 31
0.0
  0
LINE
  5
1C243
  8
0
 10
4421.3172876745894
 20
433.7703952060761
 30
0.0
 11
4421.3334172004888
 21
433.76859228747611
 31
0.0
  0
LINE
  5
1C244
  8
0
 10
4421.3334172004888
 20
433.76859228747611
 30
0.0
 11
4421.346261919588
 21
433.77225366647599
 31
0.0
  0
LINE
  5
1C245
  8
0
 10
4421.346261919588
 20
433.77225366647599
 30
0.0
 11
4421.3429771127894
 21
433.77771796427612
 31
0.0
  0
LINE
  5
1C246
  8
0
 10
4421.3429771127894
 20
433.77771796427612
 30
0.0
 11
4421.326847586889
 21
433.7795208829761
 31
0.0
  0
LINE
  5
1C247
  8
0
 10
4421.326847586889
 20
433.7795208829761
 30
0.0
 11
4421.314002867688
 21
433.77585950387612
 31
0.0
  0
LINE
  5
1C248
  8
0
 10
4421.3172876745894
 20
433.77679583597609
 30
0.0
 11
4421.3172876745894
 21
433.7703952060761
 31
0.0
  0
LINE
  5
1C249
  8
0
 10
4421.3334172004888
 20
433.77878654767608
 30
0.0
 11
4421.3334172004888
 21
433.76859228747611
 31
0.0
  0
LINE
  5
1C24A
  8
0
 10
4421.3267494174879
 20
433.78802707307608
 30
0.0
 11
4421.3300342243883
 21
433.78256277527612
 31
0.0
  0
LINE
  5
1C24B
  8
0
 10
4421.3300342243883
 20
433.78256277527612
 30
0.0
 11
4421.3461637502878
 21
433.78075985667613
 31
0.0
  0
LINE
  5
1C24C
  8
0
 10
4421.3461637502878
 20
433.78075985667613
 30
0.0
 11
4421.3590084693888
 21
433.78442123567612
 31
0.0
  0
LINE
  5
1C24D
  8
0
 10
4421.3590084693888
 20
433.78442123567612
 30
0.0
 11
4421.3557236625893
 21
433.78988553347608
 31
0.0
  0
LINE
  5
1C24E
  8
0
 10
4421.3557236625893
 20
433.78988553347608
 30
0.0
 11
4421.339594136688
 21
433.79168845217612
 31
0.0
  0
LINE
  5
1C24F
  8
0
 10
4421.339594136688
 20
433.79168845217612
 30
0.0
 11
4421.3267494174879
 21
433.78802707307608
 31
0.0
  0
LINE
  5
1C250
  8
0
 10
4421.3300342243883
 20
433.78896340517599
 30
0.0
 11
4421.3300342243883
 21
433.78256277527612
 31
0.0
  0
LINE
  5
1C251
  8
0
 10
4421.3461637502878
 20
433.79095411687609
 30
0.0
 11
4421.3461637502878
 21
433.78075985667613
 31
0.0
  0
LINE
  5
1C252
  8
0
 10
4421.3394959671887
 20
433.80019464217611
 30
0.0
 11
4421.3427807740891
 21
433.79473034437609
 31
0.0
  0
LINE
  5
1C253
  8
0
 10
4421.3427807740891
 20
433.79473034437609
 30
0.0
 11
4421.3589102999886
 21
433.7929274257761
 31
0.0
  0
LINE
  5
1C254
  8
0
 10
4421.3589102999886
 20
433.7929274257761
 30
0.0
 11
4421.3717550190886
 21
433.79658880477609
 31
0.0
  0
LINE
  5
1C255
  8
0
 10
4421.3717550190886
 20
433.79658880477609
 30
0.0
 11
4421.3697784156029
 21
433.79987689772622
 31
0.0
  0
LINE
  5
1C256
  8
0
 10
4421.3612696301316
 20
433.80285796592432
 30
0.0
 11
4421.3523406863887
 21
433.80385602127609
 31
0.0
  0
LINE
  5
1C257
  8
0
 10
4421.3523406863887
 20
433.80385602127609
 30
0.0
 11
4421.3394959671887
 21
433.80019464217611
 31
0.0
  0
LINE
  5
1C258
  8
0
 10
4421.3427807740891
 20
433.80113097427608
 30
0.0
 11
4421.3427807740891
 21
433.79473034437609
 31
0.0
  0
LINE
  5
1C259
  8
0
 10
4421.3589102999886
 20
433.80312168597612
 30
0.0
 11
4421.3589102999886
 21
433.7929274257761
 31
0.0
  0
LINE
  5
1C25A
  8
0
 10
4421.2634093463903
 20
433.69316446727612
 30
0.0
 11
4421.266694153288
 21
433.6877001694761
 31
0.0
  0
LINE
  5
1C25B
  8
0
 10
4421.266694153288
 20
433.6877001694761
 30
0.0
 11
4421.2828236791893
 21
433.685897250876
 31
0.0
  0
LINE
  5
1C25C
  8
0
 10
4421.2828236791893
 20
433.685897250876
 30
0.0
 11
4421.2956683982893
 21
433.68955862987599
 31
0.0
  0
LINE
  5
1C25D
  8
0
 10
4421.2956683982893
 20
433.68955862987599
 30
0.0
 11
4421.2923835914889
 21
433.69502292767601
 31
0.0
  0
LINE
  5
1C25E
  8
0
 10
4421.2923835914889
 20
433.69502292767601
 30
0.0
 11
4421.2762540655885
 21
433.6968258463761
 31
0.0
  0
LINE
  5
1C25F
  8
0
 10
4421.2762540655885
 20
433.6968258463761
 30
0.0
 11
4421.2634093463903
 21
433.69316446727612
 31
0.0
  0
LINE
  5
1C260
  8
0
 10
4421.266694153288
 20
433.69410079937609
 30
0.0
 11
4421.266694153288
 21
433.6877001694761
 31
0.0
  0
LINE
  5
1C261
  8
0
 10
4421.2828236791893
 20
433.69609151107608
 30
0.0
 11
4421.2828236791893
 21
433.685897250876
 31
0.0
  0
LINE
  5
1C262
  8
0
 10
4421.2761558960892
 20
433.70533203637609
 30
0.0
 11
4421.2794407029878
 21
433.69986773857607
 31
0.0
  0
LINE
  5
1C263
  8
0
 10
4421.2794407029878
 20
433.69986773857607
 30
0.0
 11
4421.2955702288891
 21
433.69806481997608
 31
0.0
  0
LINE
  5
1C264
  8
0
 10
4421.2955702288891
 20
433.69806481997608
 30
0.0
 11
4421.3084149479891
 21
433.70172619897608
 31
0.0
  0
LINE
  5
1C265
  8
0
 10
4421.3084149479891
 20
433.70172619897608
 30
0.0
 11
4421.3051301411879
 21
433.70719049677609
 31
0.0
  0
LINE
  5
1C266
  8
0
 10
4421.3051301411879
 20
433.70719049677609
 30
0.0
 11
4421.2890006152893
 21
433.70899341547607
 31
0.0
  0
LINE
  5
1C267
  8
0
 10
4421.2890006152893
 20
433.70899341547607
 30
0.0
 11
4421.2761558960892
 21
433.70533203637609
 31
0.0
  0
LINE
  5
1C268
  8
0
 10
4421.2794407029878
 20
433.70626836847612
 30
0.0
 11
4421.2794407029878
 21
433.69986773857607
 31
0.0
  0
LINE
  5
1C269
  8
0
 10
4421.2955702288891
 20
433.70825908017599
 30
0.0
 11
4421.2955702288891
 21
433.69806481997608
 31
0.0
  0
LINE
  5
1C26A
  8
0
 10
4421.2889024457891
 20
433.71749960547612
 30
0.0
 11
4421.2921872526904
 21
433.7120353076761
 31
0.0
  0
LINE
  5
1C26B
  8
0
 10
4421.2921872526904
 20
433.7120353076761
 30
0.0
 11
4421.3083167785881
 21
433.71023238907611
 31
0.0
  0
LINE
  5
1C26C
  8
0
 10
4421.3083167785881
 20
433.71023238907611
 30
0.0
 11
4421.321161497689
 21
433.71389376807599
 31
0.0
  0
LINE
  5
1C26D
  8
0
 10
4421.321161497689
 20
433.71389376807599
 30
0.0
 11
4421.3178766908886
 21
433.71935806587612
 31
0.0
  0
LINE
  5
1C26E
  8
0
 10
4421.3178766908886
 20
433.71935806587612
 30
0.0
 11
4421.3017471649891
 21
433.7211609845761
 31
0.0
  0
LINE
  5
1C26F
  8
0
 10
4421.3017471649891
 20
433.7211609845761
 30
0.0
 11
4421.2889024457891
 21
433.71749960547612
 31
0.0
  0
LINE
  5
1C270
  8
0
 10
4421.2921872526904
 20
433.71843593757609
 30
0.0
 11
4421.2921872526904
 21
433.7120353076761
 31
0.0
  0
LINE
  5
1C271
  8
0
 10
4421.3083167785881
 20
433.72042664927608
 30
0.0
 11
4421.3083167785881
 21
433.71023238907611
 31
0.0
  0
LINE
  5
1C272
  8
0
 10
4421.3016489954889
 20
433.72966717457598
 30
0.0
 11
4421.3049338023893
 21
433.72420287677608
 31
0.0
  0
LINE
  5
1C273
  8
0
 10
4421.3049338023893
 20
433.72420287677608
 30
0.0
 11
4421.3210633282888
 21
433.72239995817608
 31
0.0
  0
LINE
  5
1C274
  8
0
 10
4421.3210633282888
 20
433.72239995817608
 30
0.0
 11
4421.3339080473888
 21
433.72606133717608
 31
0.0
  0
LINE
  5
1C275
  8
0
 10
4421.3339080473888
 20
433.72606133717608
 30
0.0
 11
4421.3306232405894
 21
433.73152563497609
 31
0.0
  0
LINE
  5
1C276
  8
0
 10
4421.3306232405894
 20
433.73152563497609
 30
0.0
 11
4421.314493714689
 21
433.73332855367607
 31
0.0
  0
LINE
  5
1C277
  8
0
 10
4421.314493714689
 20
433.73332855367607
 30
0.0
 11
4421.3016489954889
 21
433.72966717457598
 31
0.0
  0
LINE
  5
1C278
  8
0
 10
4421.3049338023893
 20
433.730603506676
 30
0.0
 11
4421.3049338023893
 21
433.72420287677608
 31
0.0
  0
LINE
  5
1C279
  8
0
 10
4421.3210633282888
 20
433.73259421837611
 30
0.0
 11
4421.3210633282888
 21
433.72239995817608
 31
0.0
  0
LINE
  5
1C27A
  8
0
 10
4421.3143955452879
 20
433.741834743776
 30
0.0
 11
4421.3176803521883
 21
433.73637044597598
 31
0.0
  0
LINE
  5
1C27B
  8
0
 10
4421.3176803521883
 20
433.73637044597598
 30
0.0
 11
4421.3338098780887
 21
433.7345675273761
 31
0.0
  0
LINE
  5
1C27C
  8
0
 10
4421.3338098780887
 20
433.7345675273761
 30
0.0
 11
4421.3466545971887
 21
433.73822890637609
 31
0.0
  0
LINE
  5
1C27D
  8
0
 10
4421.3466545971887
 20
433.73822890637609
 30
0.0
 11
4421.3433697903893
 21
433.74369320417611
 31
0.0
  0
LINE
  5
1C27E
  8
0
 10
4421.3433697903893
 20
433.74369320417611
 30
0.0
 11
4421.327240264488
 21
433.74549612287609
 31
0.0
  0
LINE
  5
1C27F
  8
0
 10
4421.327240264488
 20
433.74549612287609
 30
0.0
 11
4421.3143955452879
 21
433.741834743776
 31
0.0
  0
LINE
  5
1C280
  8
0
 10
4421.3176803521883
 20
433.74277107587608
 30
0.0
 11
4421.3176803521883
 21
433.73637044597598
 31
0.0
  0
LINE
  5
1C281
  8
0
 10
4421.3338098780887
 20
433.74476178757612
 30
0.0
 11
4421.3338098780887
 21
433.7345675273761
 31
0.0
  0
LINE
  5
1C282
  8
0
 10
4421.3271420949886
 20
433.75400231287608
 30
0.0
 11
4421.330426901889
 21
433.74853801507612
 31
0.0
  0
LINE
  5
1C283
  8
0
 10
4421.330426901889
 20
433.74853801507612
 30
0.0
 11
4421.3465564277894
 21
433.74673509647607
 31
0.0
  0
LINE
  5
1C284
  8
0
 10
4421.3465564277894
 20
433.74673509647607
 30
0.0
 11
4421.3594011468886
 21
433.75039647547612
 31
0.0
  0
LINE
  5
1C285
  8
0
 10
4421.3594011468886
 20
433.75039647547612
 30
0.0
 11
4421.3561163400882
 21
433.75586077327608
 31
0.0
  0
LINE
  5
1C286
  8
0
 10
4421.3561163400882
 20
433.75586077327608
 30
0.0
 11
4421.3399868141878
 21
433.75766369197612
 31
0.0
  0
LINE
  5
1C287
  8
0
 10
4421.3399868141878
 20
433.75766369197612
 30
0.0
 11
4421.3271420949886
 21
433.75400231287608
 31
0.0
  0
LINE
  5
1C288
  8
0
 10
4421.330426901889
 20
433.75493864497611
 30
0.0
 11
4421.330426901889
 21
433.74853801507612
 31
0.0
  0
LINE
  5
1C289
  8
0
 10
4421.3465564277894
 20
433.7569293566761
 30
0.0
 11
4421.3465564277894
 21
433.74673509647607
 31
0.0
  0
LINE
  5
1C28A
  8
0
 10
4421.3398886447903
 20
433.766169881976
 30
0.0
 11
4421.343173451688
 21
433.76070558417598
 31
0.0
  0
LINE
  5
1C28B
  8
0
 10
4421.343173451688
 20
433.76070558417598
 30
0.0
 11
4421.3593029775893
 21
433.7589026655761
 31
0.0
  0
LINE
  5
1C28C
  8
0
 10
4421.3593029775893
 20
433.7589026655761
 30
0.0
 11
4421.3721476966894
 21
433.7625640445761
 31
0.0
  0
LINE
  5
1C28D
  8
0
 10
4421.3721476966894
 20
433.7625640445761
 30
0.0
 11
4421.368862889889
 21
433.76802834237611
 31
0.0
  0
LINE
  5
1C28E
  8
0
 10
4421.368862889889
 20
433.76802834237611
 30
0.0
 11
4421.3527333639886
 21
433.76983126107609
 31
0.0
  0
LINE
  5
1C28F
  8
0
 10
4421.3527333639886
 20
433.76983126107609
 30
0.0
 11
4421.3398886447903
 21
433.766169881976
 31
0.0
  0
LINE
  5
1C290
  8
0
 10
4421.343173451688
 20
433.76710621407608
 30
0.0
 11
4421.343173451688
 21
433.76070558417598
 31
0.0
  0
LINE
  5
1C291
  8
0
 10
4421.3593029775893
 20
433.76909692577613
 30
0.0
 11
4421.3593029775893
 21
433.7589026655761
 31
0.0
  0
LINE
  5
1C292
  8
0
 10
4421.3526351944893
 20
433.77833745107608
 30
0.0
 11
4421.3559200013879
 21
433.77287315327612
 31
0.0
  0
LINE
  5
1C293
  8
0
 10
4421.3559200013879
 20
433.77287315327612
 30
0.0
 11
4421.3720495272892
 21
433.77107023467607
 31
0.0
  0
LINE
  5
1C294
  8
0
 10
4421.3720495272892
 20
433.77107023467607
 30
0.0
 11
4421.3848942463892
 21
433.77473161367612
 31
0.0
  0
LINE
  5
1C295
  8
0
 10
4421.3848942463892
 20
433.77473161367612
 30
0.0
 11
4421.3816094395879
 21
433.78019591147608
 31
0.0
  0
LINE
  5
1C296
  8
0
 10
4421.3816094395879
 20
433.78019591147608
 30
0.0
 11
4421.3654799136893
 21
433.78199883017601
 31
0.0
  0
LINE
  5
1C297
  8
0
 10
4421.3654799136893
 20
433.78199883017601
 30
0.0
 11
4421.3526351944893
 21
433.77833745107608
 31
0.0
  0
LINE
  5
1C298
  8
0
 10
4421.3559200013879
 20
433.77927378317611
 30
0.0
 11
4421.3559200013879
 21
433.77287315327612
 31
0.0
  0
LINE
  5
1C299
  8
0
 10
4421.3720495272892
 20
433.7812644948761
 30
0.0
 11
4421.3720495272892
 21
433.77107023467607
 31
0.0
  0
LINE
  5
1C29A
  8
0
 10
4421.3653817441891
 20
433.7905050202761
 30
0.0
 11
4421.3686665510904
 21
433.78504072247608
 31
0.0
  0
LINE
  5
1C29B
  8
0
 10
4421.3686665510904
 20
433.78504072247608
 30
0.0
 11
4421.3847960769881
 21
433.78323780387598
 31
0.0
  0
LINE
  5
1C29C
  8
0
 10
4421.3847960769881
 20
433.78323780387598
 30
0.0
 11
4421.397640796089
 21
433.78689918287608
 31
0.0
  0
LINE
  5
1C29D
  8
0
 10
4421.397640796089
 20
433.78689918287608
 30
0.0
 11
4421.396657707458
 21
433.78853455730302
 31
0.0
  0
LINE
  5
1C29E
  8
0
 10
4421.3869065595854
 20
433.79319615959059
 30
0.0
 11
4421.3782264633892
 21
433.79416639937608
 31
0.0
  0
LINE
  5
1C29F
  8
0
 10
4421.3782264633892
 20
433.79416639937608
 30
0.0
 11
4421.3653817441891
 21
433.7905050202761
 31
0.0
  0
LINE
  5
1C2A0
  8
0
 10
4421.3686665510904
 20
433.79144135237613
 30
0.0
 11
4421.3686665510904
 21
433.78504072247608
 31
0.0
  0
LINE
  5
1C2A1
  8
0
 10
4421.3847960769881
 20
433.79343206407611
 30
0.0
 11
4421.3847960769881
 21
433.78323780387598
 31
0.0
  0
LINE
  5
1C2A2
  8
0
 10
4421.3020416730888
 20
433.69564241447608
 30
0.0
 11
4421.3053264799892
 21
433.69017811667612
 31
0.0
  0
LINE
  5
1C2A3
  8
0
 10
4421.3053264799892
 20
433.69017811667612
 30
0.0
 11
4421.3214560058886
 21
433.68837519807607
 31
0.0
  0
LINE
  5
1C2A4
  8
0
 10
4421.3214560058886
 20
433.68837519807607
 30
0.0
 11
4421.3343007249887
 21
433.69203657707612
 31
0.0
  0
LINE
  5
1C2A5
  8
0
 10
4421.3343007249887
 20
433.69203657707612
 30
0.0
 11
4421.3310159181892
 21
433.69750087487608
 31
0.0
  0
LINE
  5
1C2A6
  8
0
 10
4421.3310159181892
 20
433.69750087487608
 30
0.0
 11
4421.3148863922888
 21
433.69930379357612
 31
0.0
  0
LINE
  5
1C2A7
  8
0
 10
4421.3148863922888
 20
433.69930379357612
 30
0.0
 11
4421.3020416730888
 21
433.69564241447608
 31
0.0
  0
LINE
  5
1C2A8
  8
0
 10
4421.3053264799892
 20
433.69657874657611
 30
0.0
 11
4421.3053264799892
 21
433.69017811667612
 31
0.0
  0
LINE
  5
1C2A9
  8
0
 10
4421.3214560058886
 20
433.6985694582761
 30
0.0
 11
4421.3214560058886
 21
433.68837519807607
 31
0.0
  0
LINE
  5
1C2AA
  8
0
 10
4421.3147882227886
 20
433.707809983576
 30
0.0
 11
4421.318073029689
 21
433.70234568577598
 31
0.0
  0
LINE
  5
1C2AB
  8
0
 10
4421.318073029689
 20
433.70234568577598
 30
0.0
 11
4421.3342025555894
 21
433.7005427671761
 31
0.0
  0
LINE
  5
1C2AC
  8
0
 10
4421.3342025555894
 20
433.7005427671761
 30
0.0
 11
4421.3470472746894
 21
433.7042041461761
 31
0.0
  0
LINE
  5
1C2AD
  8
0
 10
4421.3470472746894
 20
433.7042041461761
 30
0.0
 11
4421.3437624678891
 21
433.70966844397611
 31
0.0
  0
LINE
  5
1C2AE
  8
0
 10
4421.3437624678891
 20
433.70966844397611
 30
0.0
 11
4421.3276329419896
 21
433.71147136267598
 31
0.0
  0
LINE
  5
1C2AF
  8
0
 10
4421.3276329419896
 20
433.71147136267598
 30
0.0
 11
4421.3147882227886
 21
433.707809983576
 31
0.0
  0
LINE
  5
1C2B0
  8
0
 10
4421.318073029689
 20
433.70874631567608
 30
0.0
 11
4421.318073029689
 21
433.70234568577598
 31
0.0
  0
LINE
  5
1C2B1
  8
0
 10
4421.3342025555894
 20
433.71073702737613
 30
0.0
 11
4421.3342025555894
 21
433.7005427671761
 31
0.0
  0
LINE
  5
1C2B2
  8
0
 10
4421.3275347725894
 20
433.71997755277607
 30
0.0
 11
4421.330819579488
 21
433.714513254976
 31
0.0
  0
LINE
  5
1C2B3
  8
0
 10
4421.330819579488
 20
433.714513254976
 30
0.0
 11
4421.3469491053893
 21
433.71271033637612
 31
0.0
  0
LINE
  5
1C2B4
  8
0
 10
4421.3469491053893
 20
433.71271033637612
 30
0.0
 11
4421.3597938244893
 21
433.71637171537611
 31
0.0
  0
LINE
  5
1C2B5
  8
0
 10
4421.3597938244893
 20
433.71637171537611
 30
0.0
 11
4421.3565090176889
 21
433.72183601317607
 31
0.0
  0
LINE
  5
1C2B6
  8
0
 10
4421.3565090176889
 20
433.72183601317607
 30
0.0
 11
4421.3403794917886
 21
433.72363893187611
 31
0.0
  0
LINE
  5
1C2B7
  8
0
 10
4421.3403794917886
 20
433.72363893187611
 30
0.0
 11
4421.3275347725894
 21
433.71997755277607
 31
0.0
  0
LINE
  5
1C2B8
  8
0
 10
4421.330819579488
 20
433.7209138848761
 30
0.0
 11
4421.330819579488
 21
433.714513254976
 31
0.0
  0
LINE
  5
1C2B9
  8
0
 10
4421.3469491053893
 20
433.72290459657609
 30
0.0
 11
4421.3469491053893
 21
433.71271033637612
 31
0.0
  0
LINE
  5
1C2BA
  8
0
 10
4421.3402813222892
 20
433.7321451218761
 30
0.0
 11
4421.3435661291887
 21
433.72668082407608
 31
0.0
  0
LINE
  5
1C2BB
  8
0
 10
4421.3435661291887
 20
433.72668082407608
 30
0.0
 11
4421.3596956550891
 21
433.72487790547598
 31
0.0
  0
LINE
  5
1C2BC
  8
0
 10
4421.3596956550891
 20
433.72487790547598
 30
0.0
 11
4421.3725403741882
 21
433.72853928447608
 31
0.0
  0
LINE
  5
1C2BD
  8
0
 10
4421.3725403741882
 20
433.72853928447608
 30
0.0
 11
4421.3692555673879
 21
433.73400358227599
 31
0.0
  0
LINE
  5
1C2BE
  8
0
 10
4421.3692555673879
 20
433.73400358227599
 30
0.0
 11
4421.3531260414902
 21
433.73580650097608
 31
0.0
  0
LINE
  5
1C2BF
  8
0
 10
4421.3531260414902
 20
433.73580650097608
 30
0.0
 11
4421.3402813222892
 21
433.7321451218761
 31
0.0
  0
LINE
  5
1C2C0
  8
0
 10
4421.3435661291887
 20
433.73308145397613
 30
0.0
 11
4421.3435661291887
 21
433.72668082407608
 31
0.0
  0
LINE
  5
1C2C1
  8
0
 10
4421.3596956550891
 20
433.735072165676
 30
0.0
 11
4421.3596956550891
 21
433.72487790547598
 31
0.0
  0
LINE
  5
1C2C2
  8
0
 10
4421.3530278719891
 20
433.74431269097607
 30
0.0
 11
4421.3563126788904
 21
433.73884839317611
 31
0.0
  0
LINE
  5
1C2C3
  8
0
 10
4421.3563126788904
 20
433.73884839317611
 30
0.0
 11
4421.372442204789
 21
433.73704547457601
 31
0.0
  0
LINE
  5
1C2C4
  8
0
 10
4421.372442204789
 20
433.73704547457601
 30
0.0
 11
4421.3852869238881
 21
433.740706853576
 31
0.0
  0
LINE
  5
1C2C5
  8
0
 10
4421.3852869238881
 20
433.740706853576
 30
0.0
 11
4421.3820021170886
 21
433.74617115137607
 31
0.0
  0
LINE
  5
1C2C6
  8
0
 10
4421.3820021170886
 20
433.74617115137607
 30
0.0
 11
4421.3658725911891
 21
433.74797407007611
 31
0.0
  0
LINE
  5
1C2C7
  8
0
 10
4421.3658725911891
 20
433.74797407007611
 30
0.0
 11
4421.3530278719891
 21
433.74431269097607
 31
0.0
  0
LINE
  5
1C2C8
  8
0
 10
4421.3563126788904
 20
433.74524902307598
 30
0.0
 11
4421.3563126788904
 21
433.73884839317611
 31
0.0
  0
LINE
  5
1C2C9
  8
0
 10
4421.372442204789
 20
433.74723973477609
 30
0.0
 11
4421.372442204789
 21
433.73704547457601
 31
0.0
  0
LINE
  5
1C2CA
  8
0
 10
4421.3657744216889
 20
433.7564802600761
 30
0.0
 11
4421.3690592285893
 21
433.75101596227609
 31
0.0
  0
LINE
  5
1C2CB
  8
0
 10
4421.3690592285893
 20
433.75101596227609
 30
0.0
 11
4421.3851887544888
 21
433.74921304367609
 31
0.0
  0
LINE
  5
1C2CC
  8
0
 10
4421.3851887544888
 20
433.74921304367609
 30
0.0
 11
4421.3980334735888
 21
433.75287442267609
 31
0.0
  0
LINE
  5
1C2CD
  8
0
 10
4421.3980334735888
 20
433.75287442267609
 30
0.0
 11
4421.3947486667903
 21
433.7583387204761
 31
0.0
  0
LINE
  5
1C2CE
  8
0
 10
4421.3947486667903
 20
433.7583387204761
 30
0.0
 11
4421.378619140889
 21
433.76014163917608
 31
0.0
  0
LINE
  5
1C2CF
  8
0
 10
4421.378619140889
 20
433.76014163917608
 30
0.0
 11
4421.3657744216889
 21
433.7564802600761
 31
0.0
  0
LINE
  5
1C2D0
  8
0
 10
4421.3690592285893
 20
433.75741659217613
 30
0.0
 11
4421.3690592285893
 21
433.75101596227609
 31
0.0
  0
LINE
  5
1C2D1
  8
0
 10
4421.3851887544888
 20
433.759407303876
 30
0.0
 11
4421.3851887544888
 21
433.74921304367609
 31
0.0
  0
LINE
  5
1C2D2
  8
0
 10
4421.3785209714888
 20
433.76864782927612
 30
0.0
 11
4421.3818057783892
 21
433.7631835314761
 31
0.0
  0
LINE
  5
1C2D3
  8
0
 10
4421.3818057783892
 20
433.7631835314761
 30
0.0
 11
4421.3979353042887
 21
433.76138061287611
 31
0.0
  0
LINE
  5
1C2D4
  8
0
 10
4421.3979353042887
 20
433.76138061287611
 30
0.0
 11
4421.4107800233878
 21
433.7650419918761
 31
0.0
  0
LINE
  5
1C2D5
  8
0
 10
4421.4107800233878
 20
433.7650419918761
 30
0.0
 11
4421.4074952165893
 21
433.77050628967612
 31
0.0
  0
LINE
  5
1C2D6
  8
0
 10
4421.4074952165893
 20
433.77050628967612
 30
0.0
 11
4421.3913656906889
 21
433.7723092083761
 31
0.0
  0
LINE
  5
1C2D7
  8
0
 10
4421.3913656906889
 20
433.7723092083761
 30
0.0
 11
4421.3785209714888
 21
433.76864782927612
 31
0.0
  0
LINE
  5
1C2D8
  8
0
 10
4421.3818057783892
 20
433.76958416137609
 30
0.0
 11
4421.3818057783892
 21
433.7631835314761
 31
0.0
  0
LINE
  5
1C2D9
  8
0
 10
4421.3979353042887
 20
433.77157487307608
 30
0.0
 11
4421.3979353042887
 21
433.76138061287611
 31
0.0
  0
LINE
  5
1C2DA
  8
0
 10
4421.3912675211886
 20
433.78081539837598
 30
0.0
 11
4421.394552328089
 21
433.77535110057607
 31
0.0
  0
LINE
  5
1C2DB
  8
0
 10
4421.394552328089
 20
433.77535110057607
 30
0.0
 11
4421.4106818539894
 21
433.77354818197608
 31
0.0
  0
LINE
  5
1C2DC
  8
0
 10
4421.4106818539894
 20
433.77354818197608
 30
0.0
 11
4421.4171224145648
 21
433.77538405966681
 31
0.0
  0
LINE
  5
1C2DD
  8
0
 10
4421.4039322087101
 20
433.78442545955949
 30
0.0
 11
4421.3912675211886
 21
433.78081539837598
 31
0.0
  0
LINE
  5
1C2DE
  8
0
 10
4421.394552328089
 20
433.78175173047612
 30
0.0
 11
4421.394552328089
 21
433.77535110057607
 31
0.0
  0
LINE
  5
1C2DF
  8
0
 10
4421.4106818539894
 20
433.78007501954681
 30
0.0
 11
4421.4106818539894
 21
433.77354818197608
 31
0.0
  0
LINE
  5
1C2E0
  8
0
 10
4421.353420549588
 20
433.71028793087612
 30
0.0
 11
4421.3567053564893
 21
433.7048236330761
 31
0.0
  0
LINE
  5
1C2E1
  8
0
 10
4421.3567053564893
 20
433.7048236330761
 30
0.0
 11
4421.3728348823888
 21
433.70302071447611
 31
0.0
  0
LINE
  5
1C2E2
  8
0
 10
4421.3728348823888
 20
433.70302071447611
 30
0.0
 11
4421.3856796014879
 21
433.7066820934761
 31
0.0
  0
LINE
  5
1C2E3
  8
0
 10
4421.3856796014879
 20
433.7066820934761
 30
0.0
 11
4421.3823947946894
 21
433.71214639127612
 31
0.0
  0
LINE
  5
1C2E4
  8
0
 10
4421.3823947946894
 20
433.71214639127612
 30
0.0
 11
4421.366265268789
 21
433.7139493099761
 31
0.0
  0
LINE
  5
1C2E5
  8
0
 10
4421.366265268789
 20
433.7139493099761
 30
0.0
 11
4421.353420549588
 21
433.71028793087612
 31
0.0
  0
LINE
  5
1C2E6
  8
0
 10
4421.3567053564893
 20
433.71122426297609
 30
0.0
 11
4421.3567053564893
 21
433.7048236330761
 31
0.0
  0
LINE
  5
1C2E7
  8
0
 10
4421.3728348823888
 20
433.71321497467608
 30
0.0
 11
4421.3728348823888
 21
433.70302071447611
 31
0.0
  0
LINE
  5
1C2E8
  8
0
 10
4421.3661670992878
 20
433.72245549997598
 30
0.0
 11
4421.3694519061901
 21
433.71699120217608
 31
0.0
  0
LINE
  5
1C2E9
  8
0
 10
4421.3694519061901
 20
433.71699120217608
 30
0.0
 11
4421.3855814320887
 21
433.71518828357608
 31
0.0
  0
LINE
  5
1C2EA
  8
0
 10
4421.3855814320887
 20
433.71518828357608
 30
0.0
 11
4421.3984261511887
 21
433.71884966257608
 31
0.0
  0
LINE
  5
1C2EB
  8
0
 10
4421.3984261511887
 20
433.71884966257608
 30
0.0
 11
4421.3951413443892
 21
433.72431396037609
 31
0.0
  0
LINE
  5
1C2EC
  8
0
 10
4421.3951413443892
 20
433.72431396037609
 30
0.0
 11
4421.3790118184888
 21
433.72611687907607
 31
0.0
  0
LINE
  5
1C2ED
  8
0
 10
4421.3790118184888
 20
433.72611687907607
 30
0.0
 11
4421.3661670992878
 21
433.72245549997598
 31
0.0
  0
LINE
  5
1C2EE
  8
0
 10
4421.3694519061901
 20
433.72339183207612
 30
0.0
 11
4421.3694519061901
 21
433.71699120217608
 31
0.0
  0
LINE
  5
1C2EF
  8
0
 10
4421.3855814320887
 20
433.72538254377611
 30
0.0
 11
4421.3855814320887
 21
433.71518828357608
 31
0.0
  0
LINE
  5
1C2F0
  8
0
 10
4421.3789136489886
 20
433.73462306907612
 30
0.0
 11
4421.382198455889
 21
433.7291587712761
 31
0.0
  0
LINE
  5
1C2F1
  8
0
 10
4421.382198455889
 20
433.7291587712761
 30
0.0
 11
4421.3983279817903
 21
433.72735585267611
 31
0.0
  0
LINE
  5
1C2F2
  8
0
 10
4421.3983279817903
 20
433.72735585267611
 30
0.0
 11
4421.4111727008903
 21
433.73101723167611
 31
0.0
  0
LINE
  5
1C2F3
  8
0
 10
4421.4111727008903
 20
433.73101723167611
 30
0.0
 11
4421.4078878940891
 21
433.73648152947612
 31
0.0
  0
LINE
  5
1C2F4
  8
0
 10
4421.4078878940891
 20
433.73648152947612
 30
0.0
 11
4421.3917583681896
 21
433.73828444817599
 31
0.0
  0
LINE
  5
1C2F5
  8
0
 10
4421.3917583681896
 20
433.73828444817599
 30
0.0
 11
4421.3789136489886
 21
433.73462306907612
 31
0.0
  0
LINE
  5
1C2F6
  8
0
 10
4421.382198455889
 20
433.73555940117609
 30
0.0
 11
4421.382198455889
 21
433.7291587712761
 31
0.0
  0
LINE
  5
1C2F7
  8
0
 10
4421.3983279817903
 20
433.73755011287608
 30
0.0
 11
4421.3983279817903
 21
433.72735585267611
 31
0.0
  0
LINE
  5
1C2F8
  8
0
 10
4421.3916601986894
 20
433.74679063817598
 30
0.0
 11
4421.3949450055889
 21
433.74132634037608
 31
0.0
  0
LINE
  5
1C2F9
  8
0
 10
4421.3949450055889
 20
433.74132634037608
 30
0.0
 11
4421.4110745314892
 21
433.73952342177608
 31
0.0
  0
LINE
  5
1C2FA
  8
0
 10
4421.4110745314892
 20
433.73952342177608
 30
0.0
 11
4421.4239192505893
 21
433.74318480077608
 31
0.0
  0
LINE
  5
1C2FB
  8
0
 10
4421.4239192505893
 20
433.74318480077608
 30
0.0
 11
4421.4206344437889
 21
433.74864909857598
 31
0.0
  0
LINE
  5
1C2FC
  8
0
 10
4421.4206344437889
 20
433.74864909857598
 30
0.0
 11
4421.4045049178894
 21
433.75045201727607
 31
0.0
  0
LINE
  5
1C2FD
  8
0
 10
4421.4045049178894
 20
433.75045201727607
 30
0.0
 11
4421.3916601986894
 21
433.74679063817598
 31
0.0
  0
LINE
  5
1C2FE
  8
0
 10
4421.3949450055889
 20
433.74772697027612
 30
0.0
 11
4421.3949450055889
 21
433.74132634037608
 31
0.0
  0
LINE
  5
1C2FF
  8
0
 10
4421.4110745314892
 20
433.74971768197611
 30
0.0
 11
4421.4110745314892
 21
433.73952342177608
 31
0.0
  0
LINE
  5
1C300
  8
0
 10
4421.4044067484892
 20
433.75895820737611
 30
0.0
 11
4421.4076915553887
 21
433.75349390957598
 31
0.0
  0
LINE
  5
1C301
  8
0
 10
4421.4076915553887
 20
433.75349390957598
 30
0.0
 11
4421.4238210812891
 21
433.75169099097599
 31
0.0
  0
LINE
  5
1C302
  8
0
 10
4421.4238210812891
 20
433.75169099097599
 30
0.0
 11
4421.4362871229314
 21
433.75524442820802
 31
0.0
  0
LINE
  5
1C303
  8
0
 10
4421.4328089128239
 20
433.76088061355568
 30
0.0
 11
4421.4172514676902
 21
433.76261958647609
 31
0.0
  0
LINE
  5
1C304
  8
0
 10
4421.4172514676902
 20
433.76261958647609
 30
0.0
 11
4421.4044067484892
 21
433.75895820737611
 31
0.0
  0
LINE
  5
1C305
  8
0
 10
4421.4076915553887
 20
433.75989453947608
 30
0.0
 11
4421.4076915553887
 21
433.75349390957598
 31
0.0
  0
LINE
  5
1C306
  8
0
 10
4421.4238210812891
 20
433.76188525117612
 30
0.0
 11
4421.4238210812891
 21
433.75169099097599
 31
0.0
  0
LINE
  5
1C307
  8
0
 10
4421.4171532981891
 20
433.77112577647608
 30
0.0
 11
4421.4204381050904
 21
433.76566147867612
 31
0.0
  0
LINE
  5
1C308
  8
0
 10
4421.4204381050904
 20
433.76566147867612
 30
0.0
 11
4421.4294917788129
 21
433.7646494813701
 31
0.0
  0
LINE
  5
1C309
  8
0
 10
4421.4210488014241
 20
433.77223618721428
 30
0.0
 11
4421.4171532981891
 21
433.77112577647608
 31
0.0
  0
LINE
  5
1C30A
  8
0
 10
4421.4204381050904
 20
433.77206210857611
 30
0.0
 11
4421.4204381050904
 21
433.76566147867612
 31
0.0
  0
LINE
  5
1C30B
  8
0
 10
4421.2120304698892
 20
433.67851895097613
 30
0.0
 11
4421.2153152767878
 21
433.67305465317611
 31
0.0
  0
LINE
  5
1C30C
  8
0
 10
4421.2153152767878
 20
433.67305465317611
 30
0.0
 11
4421.2301224388057
 21
433.67139954514761
 31
0.0
  0
LINE
  5
1C30D
  8
0
 10
4421.2327713005843
 20
433.67162985195642
 30
0.0
 11
4421.2442895217891
 21
433.67491311357611
 31
0.0
  0
LINE
  5
1C30E
  8
0
 10
4421.2442895217891
 20
433.67491311357611
 30
0.0
 11
4421.2410047149879
 21
433.68037741137613
 31
0.0
  0
LINE
  5
1C30F
  8
0
 10
4421.2410047149879
 20
433.68037741137613
 30
0.0
 11
4421.2248751890893
 21
433.68218033007611
 31
0.0
  0
LINE
  5
1C310
  8
0
 10
4421.2248751890893
 20
433.68218033007611
 30
0.0
 11
4421.2120304698892
 21
433.67851895097613
 31
0.0
  0
LINE
  5
1C311
  8
0
 10
4421.2153152767878
 20
433.67945528307598
 30
0.0
 11
4421.2153152767878
 21
433.67305465317611
 31
0.0
  0
LINE
  5
1C312
  8
0
 10
4421.2314448026891
 20
433.68144599477608
 30
0.0
 11
4421.2314448026891
 21
433.67151337563359
 31
0.0
  0
LINE
  5
1C313
  8
0
 10
4421.173398143088
 20
433.676041003676
 30
0.0
 11
4421.1766829499893
 21
433.67057670587599
 31
0.0
  0
LINE
  5
1C314
  8
0
 10
4421.1766829499893
 20
433.67057670587599
 30
0.0
 11
4421.1904340090468
 21
433.66903964642989
 31
0.0
  0
LINE
  5
1C315
  8
0
 10
4421.194227268229
 20
433.66917707293152
 30
0.0
 11
4421.2056571949879
 21
433.6724351662761
 31
0.0
  0
LINE
  5
1C316
  8
0
 10
4421.2056571949879
 20
433.6724351662761
 30
0.0
 11
4421.2023723881894
 21
433.67789946407612
 31
0.0
  0
LINE
  5
1C317
  8
0
 10
4421.2023723881894
 20
433.67789946407612
 30
0.0
 11
4421.186242862289
 21
433.67970238277599
 31
0.0
  0
LINE
  5
1C318
  8
0
 10
4421.186242862289
 20
433.67970238277599
 30
0.0
 11
4421.173398143088
 21
433.676041003676
 31
0.0
  0
LINE
  5
1C319
  8
0
 10
4421.1766829499893
 20
433.67697733577609
 30
0.0
 11
4421.1766829499893
 21
433.67057670587599
 31
0.0
  0
LINE
  5
1C31A
  8
0
 10
4421.1928124758888
 20
433.67896804747608
 30
0.0
 11
4421.1928124758888
 21
433.66912364345831
 31
0.0
  0
LINE
  5
1C31B
  8
0
 10
4421.2506627965886
 20
433.68099689817609
 30
0.0
 11
4421.253947603489
 21
433.67553260037607
 31
0.0
  0
LINE
  5
1C31C
  8
0
 10
4421.253947603489
 20
433.67553260037607
 30
0.0
 11
4421.261378250626
 21
433.67470202097672
 31
0.0
  0
LINE
  5
1C31D
  8
0
 10
4421.2827365549983
 20
433.67769929772243
 30
0.0
 11
4421.2796370416881
 21
433.68285535857609
 31
0.0
  0
LINE
  5
1C31E
  8
0
 10
4421.2796370416881
 20
433.68285535857609
 30
0.0
 11
4421.2635075157896
 21
433.68465827727613
 31
0.0
  0
LINE
  5
1C31F
  8
0
 10
4421.2635075157896
 20
433.68465827727613
 30
0.0
 11
4421.2506627965886
 21
433.68099689817609
 31
0.0
  0
LINE
  5
1C320
  8
0
 10
4421.253947603489
 20
433.68193323027612
 30
0.0
 11
4421.253947603489
 21
433.67553260037607
 31
0.0
  0
LINE
  5
1C321
  8
0
 10
4421.2700771293894
 20
433.68392394197599
 30
0.0
 11
4421.2700771293894
 21
433.6758497140583
 31
0.0
  0
LINE
  5
1C322
  8
0
 10
4421.005729608888
 20
433.68798640587607
 30
0.0
 11
4421.0078074107369
 21
433.68452996888749
 31
0.0
  0
LINE
  5
1C323
  8
0
 10
4421.026102894336
 20
433.68099253831753
 30
0.0
 11
4421.037988660788
 21
433.68438056847612
 31
0.0
  0
LINE
  5
1C324
  8
0
 10
4421.037988660788
 20
433.68438056847612
 30
0.0
 11
4421.0347038539894
 21
433.68984486627608
 31
0.0
  0
LINE
  5
1C325
  8
0
 10
4421.0347038539894
 20
433.68984486627608
 30
0.0
 11
4421.018574328089
 21
433.69164778497611
 31
0.0
  0
LINE
  5
1C326
  8
0
 10
4421.018574328089
 20
433.69164778497611
 30
0.0
 11
4421.005729608888
 21
433.68798640587607
 31
0.0
  0
LINE
  5
1C327
  8
0
 10
4421.0090144157903
 20
433.6889227379761
 30
0.0
 11
4421.0090144157903
 21
433.68428252161448
 31
0.0
  0
LINE
  5
1C328
  8
0
 10
4421.0251439416879
 20
433.69091344967609
 30
0.0
 11
4421.0251439416879
 21
433.6811666549857
 31
0.0
  0
ARC
  5
1C329
  8
0
 10
4421.1642386203621
 20
434.44450688127318
 30
0.0
 40
0.7759095505946203
 50
258.27437357086387
 51
281.72562642913613
  0
ARC
  5
1C32A
  8
0
 10
4420.9512036537089
 20
433.7759817741296
 30
0.0
 40
0.0666859000757508
 50
203.36904936814659
 51
240.68410708904099
  0
ARC
  5
1C32B
  8
0
 10
4421.0579285656549
 20
433.95528838833098
 30
0.0
 40
0.2753347833113164
 50
239.58859848267809
 51
259.24622953539352
  0
ARC
  5
1C32C
  8
0
 10
4420.9231792466944
 20
433.74001257031512
 30
0.0
 40
0.0345289585211754
 50
131.88971090905281
 51
228.11028909094719
  0
ARC
  5
1C32D
  8
0
 10
4421.1642378892057
 20
434.42933187383011
 30
0.0
 40
0.7793400223136581
 50
258.6022814382639
 51
281.39771856173599
  0
ARC
  5
1C32E
  8
0
 10
4421.0029186175234
 20
433.82275597107508
 30
0.0
 40
0.1494242504319166
 50
226.53305510389669
 51
252.93984465002171
  0
ARC
  5
1C32F
  8
0
 10
4421.0952627645238
 20
434.06155447369377
 30
0.0
 40
0.4052164487965721
 50
250.3623106173803
 51
257.8861401588486
  0
ARC
  5
1C330
  8
0
 10
4421.1642407096178
 20
433.05551889610467
 30
0.0
 40
0.7745164506373006
 50
78.143894599633569
 51
101.8561054003664
  0
ARC
  5
1C331
  8
0
 10
4420.9972199188032
 20
433.66426237478481
 30
0.0
 40
0.1404300642702813
 50
110.9578717707856
 51
133.7423168889716
  0
ARC
  5
1C332
  8
0
 10
4421.0900336194736
 20
433.43864913429519
 30
0.0
 40
0.3843617542569383
 50
102.7642346691878
 51
111.84870785118871
  0
ARC
  5
1C333
  8
0
 10
4420.9096574846581
 20
433.74001245390588
 30
0.0
 40
0.0387252520690295
 50
124.76399493964701
 51
235.23600506035299
  0
ARC
  5
1C334
  8
0
 10
4421.1642415208007
 20
433.00258153583678
 30
0.0
 40
0.8332402554301182
 50
78.947686105686884
 51
101.0523138943131
  0
ARC
  5
1C335
  8
0
 10
4421.001334164097
 20
433.6344268022155
 30
0.0
 40
0.1783794648323034
 50
108.2223620444674
 51
129.6226682935293
  0
ARC
  5
1C336
  8
0
 10
4421.0937155808288
 20
433.38824634939118
 30
0.0
 40
0.4412335540140145
 50
101.6647259758159
 51
109.6205666664259
  0
ARC
  5
1C337
  8
0
 10
4421.164237869255
 20
434.4521054496484
 30
0.0
 40
0.8079386526367681
 50
256.84736301739008
 51
283.15263698260992
  0
ARC
  5
1C338
  8
0
 10
4421.0432107787738
 20
433.92344044099087
 30
0.0
 40
0.2656139455313168
 50
234.13044282648761
 51
256.32029299211689
  0
ARC
  5
1C339
  8
0
 10
4420.8495762223247
 20
433.74001366519968
 30
0.0
 40
0.0455724510352645
 50
130.5023986341383
 51
229.4976013658617
  0
ARC
  5
1C33A
  8
0
 10
4420.8535414180606
 20
433.74144135195718
 30
0.0
 40
0.0597009928578941
 50
135.75279620977
 51
224.24720379022989
  0
ARC
  5
1C33B
  8
0
 10
4421.1642404991326
 20
432.65913280982329
 30
0.0
 40
1.209053877052769
 50
79.87029460505957
 51
100.1297053949404
  0
ARC
  5
1C33C
  8
0
 10
4420.9508754124854
 20
433.64625524732958
 30
0.0
 40
0.1958416509202502
 50
111.4448045569972
 51
135.67383286353291
  0
ARC
  5
1C33D
  8
0
 10
4421.0399708022887
 20
433.40596069357792
 30
0.0
 40
0.4521011903431138
 50
101.2725690953274
 51
110.82057333274329
  0
ARC
  5
1C33E
  8
0
 10
4421.1642495904362
 20
432.82917179632159
 30
0.0
 40
1.028513031205845
 50
79.348108219193705
 51
100.6518917808063
  0
ARC
  5
1C33F
  8
0
 10
4420.9311778286683
 20
433.66167533557518
 30
0.0
 40
0.1585317858985974
 50
112.4735989528634
 51
134.542376324971
  0
ARC
  5
1C340
  8
0
 10
4421.0634037328573
 20
433.36465211484511
 30
0.0
 40
0.4836194424608994
 50
100.6365933838845
 51
113.4978160684626
  0
ARC
  5
1C341
  8
0
 10
4420.9034917274976
 20
433.80742310025352
 30
0.0
 40
0.0657795753693762
 50
194.29114640947941
 51
240.33164797717561
  0
ARC
  5
1C342
  8
0
 10
4420.9075652215952
 20
433.81800976038352
 30
0.0
 40
0.0831679569658781
 50
203.4516517472214
 51
243.86612793807001
  0
LINE
  5
1C343
  8
0
 10
4420.8709322325894
 20
433.79582928257611
 30
0.0
 11
4420.8709322325894
 21
433.74001245390588
 31
0.0
  0
ARC
  5
1C344
  8
0
 10
4420.9047450808093
 20
433.79556932605681
 30
0.0
 40
0.0338138474907522
 50
155.30549533235799
 51
179.55951306241269
  0
ARC
  5
1C345
  8
0
 10
4421.1642433343904
 20
434.69020102833599
 30
0.0
 40
1.0767756134599129
 50
258.00968187235071
 51
281.99031812764929
  0
ARC
  5
1C346
  8
0
 10
4421.1642393111624
 20
434.66414416252729
 30
0.0
 40
1.041801762251237
 50
260.40462572143429
 51
279.5953742785656
  0
ARC
  5
1C347
  8
0
 10
4420.9563738100642
 20
433.85473262496839
 30
0.0
 40
0.2022761561589623
 50
227.59973809762721
 51
251.28679807555051
  0
ARC
  5
1C348
  8
0
 10
4421.095028553329
 20
434.23184842189153
 30
0.0
 40
0.6040294317198024
 50
250.30646871578401
 51
260.04260165008628
  0
ARC
  5
1C349
  8
0
 10
4420.9105457945489
 20
433.77715109134851
 30
0.0
 40
0.1262524749890919
 50
217.791616881686
 51
249.55959590624011
  0
ARC
  5
1C34A
  8
0
 10
4421.0272464497384
 20
434.06596608709981
 30
0.0
 40
0.437720543051333
 50
248.44835107689789
 51
258.57587084258728
  0
ARC
  5
1C34B
  8
0
 10
4424.7652762689077
 20
435.87300613950993
 30
0.0
 40
4.5144980546458262
 50
206.4517534494322
 51
208.57985137908369
  0
ARC
  5
1C34C
  8
0
 10
4420.5599706895
 20
434.34620425637547
 30
0.0
 40
0.021920514543286
 50
95.954444276648559
 51
174.45743262464799
  0
ARC
  5
1C34D
  8
0
 10
4420.5360662038229
 20
434.3778736433419
 30
0.0
 40
0.029625751511208
 50
225.30737098054891
 51
274.03851879473473
  0
ARC
  5
1C34E
  8
0
 10
4420.5847819163773
 20
434.41605479533803
 30
0.0
 40
0.0913620056580868
 50
190.32158064048059
 51
220.4232821395774
  0
ARC
  5
1C34F
  8
0
 10
4422.666134048859
 20
434.69285285327271
 30
0.0
 40
2.1909385342044421
 50
180.4418029373941
 51
187.68976497731819
  0
ARC
  5
1C350
  8
0
 10
4421.1642393192378
 20
434.14606624962607
 30
0.0
 40
1.1967382024499991
 50
290.20787073349112
 51
54.850366249468181
  0
ARC
  5
1C351
  8
0
 10
4421.1642393192378
 20
434.14606624962607
 30
0.0
 40
1.1967382024499991
 50
125.14963375053181
 51
249.79212926650891
  0
ARC
  5
1C352
  8
0
 10
4420.5134419953292
 20
435.54678007725221
 30
0.0
 40
0.0382086028255937
 50
124.2034585589778
 51
177.83569831656499
  0
ARC
  5
1C353
  8
0
 10
4420.2696999556883
 20
435.94107490845659
 30
0.0
 40
0.4253803977875578
 50
301.50048406843922
 51
349.90601190257883
  0
ARC
  5
1C354
  8
0
 10
4420.2315995854833
 20
435.98477593715882
 30
0.0
 40
0.4826456348626806
 50
302.64633185622722
 51
345.8260995207234
  0
ARC
  5
1C355
  8
0
 10
4419.0229195226293
 20
436.07523671810742
 30
0.0
 40
1.6786028667969639
 50
352.85742715775541
 51
0.1956583327813057
  0
ARC
  5
1C356
  8
0
 10
4419.5381592882586
 20
436.0652061660976
 30
0.0
 40
1.1782531487529651
 50
350.29553655035761
 51
0.7665301687343243
  0
LINE
  5
1C357
  8
0
 10
4420.7015126019887
 20
436.82567199347608
 30
0.0
 11
4420.7015126019887
 21
436.08096893787598
 31
0.0
  0
ARC
  5
1C358
  8
0
 10
4420.7249314153814
 20
436.82467403276638
 30
0.0
 40
0.0234400510882274
 50
109.66279436360649
 51
177.5606363557998
  0
ARC
  5
1C359
  8
0
 10
4421.0159963761034
 20
436.01842619795451
 30
0.0
 40
0.8806180800360624
 50
103.626213992701
 51
109.8451914116537
  0
ARC
  5
1C35A
  8
0
 10
4420.8700871326446
 20
436.67192661091138
 30
0.0
 40
0.2114867586899337
 50
90.2511753170552
 51
106.9206907616007
  0
ARC
  5
1C35B
  8
0
 10
4420.7583572105514
 20
436.7798217919165
 30
0.0
 40
0.0232280019527436
 50
105.4403543391673
 51
164.59312942727539
  0
ARC
  5
1C35C
  8
0
 10
4420.8393842291434
 20
436.70529781956151
 30
0.0
 40
0.1177687715009293
 50
90.80436447611676
 51
107.2885344037101
  0
LINE
  5
1C35D
  8
0
 10
4420.8043852570881
 20
436.81774583197608
 30
0.0
 11
4420.7521731016059
 21
436.80221145183481
 31
0.0
  0
ARC
  5
1C35E
  8
0
 10
4423.5415554086803
 20
436.47037938407072
 30
0.0
 40
2.8232880342856821
 50
173.5815280529491
 51
179.9436990716153
  0
ARC
  5
1C35F
  8
0
 10
4449.2332299158679
 20
436.13442201070592
 30
0.0
 40
28.51697301836905
 50
179.31941059438881
 51
180.10739702000481
  0
ARC
  5
1C360
  8
0
 10
4420.8439771032226
 20
436.81851667930738
 30
0.0
 40
0.0396743184393535
 50
181.1417997441294
 51
229.44446379958021
  0
ARC
  5
1C361
  8
0
 10
4420.9327954617811
 20
436.94345490440361
 30
0.0
 40
0.1928386386842621
 50
233.53356089881251
 51
262.7224087770465
  0
LINE
  5
1C362
  8
0
 10
4420.6229007365891
 20
435.46862052097612
 30
0.0
 11
4420.6229007365891
 21
435.42925044217611
 31
0.0
  0
LINE
  5
1C363
  8
0
 10
4421.8532179894892
 20
435.548223033076
 30
0.0
 11
4421.8532179894892
 21
435.46862052097612
 31
0.0
  0
LINE
  5
1C364
  8
0
 10
4421.8532179894892
 20
435.42925044217611
 30
0.0
 11
4421.8532179894892
 21
434.14605614259398
 31
0.0
  0
LINE
  5
1C365
  8
0
 10
4421.7941648871893
 20
433.769769423676
 30
0.0
 11
4421.7941648871893
 21
433.4059079222763
 31
0.0
  0
ARC
  5
1C366
  8
0
 10
4422.6400691510944
 20
433.79188308821938
 30
0.0
 40
0.8461932627083996
 50
164.75069582811511
 51
181.49748758871411
  0
ARC
  5
1C367
  8
0
 10
4419.0958909103138
 20
434.69600003040171
 30
0.0
 40
2.8116349160735452
 50
345.97152869260771
 51
348.72047126611301
  0
LINE
  5
1C368
  8
0
 10
4421.7903259788882
 20
434.34832145467612
 30
0.0
 11
4421.7889059310892
 21
434.14606609017608
 31
0.0
  0
ARC
  5
1C369
  8
0
 10
4420.8546107635648
 20
434.54928806612691
 30
0.0
 40
1.0175929549418039
 50
317.51813821822259
 51
336.65599674013879
  0
ARC
  5
1C36A
  8
0
 10
4421.3772749847694
 20
433.7759817741296
 30
0.0
 40
0.0666859000757508
 50
299.31589291095901
 51
336.63095063185341
  0
ARC
  5
1C36B
  8
0
 10
4421.2705539109711
 20
433.95528034039842
 30
0.0
 40
0.2753258997795728
 50
280.75301249661879
 51
300.41156047324893
  0
ARC
  5
1C36C
  8
0
 10
4421.405299391784
 20
433.74001257031512
 30
0.0
 40
0.0345289585211754
 50
311.88971090905289
 51
48.110289090947191
  0
ARC
  5
1C36D
  8
0
 10
4421.325560020955
 20
433.82275597107508
 30
0.0
 40
0.1494242504319166
 50
287.06015534997829
 51
313.46694489610331
  0
ARC
  5
1C36E
  8
0
 10
4421.2332583510624
 20
434.06142182892609
 30
0.0
 40
0.4050772437950433
 50
282.11152722296799
 51
289.6383360070293
  0
ARC
  5
1C36F
  8
0
 10
4421.3312587196751
 20
433.66426237478481
 30
0.0
 40
0.1404300642702813
 50
46.257683111028399
 51
69.042128229214413
  0
ARC
  5
1C370
  8
0
 10
4421.2384122065296
 20
433.43855687198129
 30
0.0
 40
0.3844596007616465
 50
68.151870460309311
 51
77.233629855579721
  0
ARC
  5
1C371
  8
0
 10
4421.4188211538203
 20
433.74001245390588
 30
0.0
 40
0.0387252520690291
 50
304.76399493964698
 51
55.236005060353023
  0
ARC
  5
1C372
  8
0
 10
4421.3271444743814
 20
433.6344268022155
 30
0.0
 40
0.1783794648323034
 50
50.377331706470727
 51
71.777637955532597
  0
ARC
  5
1C373
  8
0
 10
4421.2347070233263
 20
433.38807004432562
 30
0.0
 40
0.441418438070534
 50
70.380266725816071
 51
78.332218144337475
  0
ARC
  5
1C374
  8
0
 10
4421.285277164423
 20
433.92342453195857
 30
0.0
 40
0.2655956015790593
 50
283.67796047477879
 51
305.86994152325019
  0
ARC
  5
1C375
  8
0
 10
4421.4789024161528
 20
433.74001366519968
 30
0.0
 40
0.0455724510352645
 50
310.50239863413827
 51
49.497601365861712
  0
ARC
  5
1C376
  8
0
 10
4421.474937220416
 20
433.74144135195718
 30
0.0
 40
0.0597009928578941
 50
315.75279620977011
 51
44.247203790229918
  0
ARC
  5
1C377
  8
0
 10
4421.377603225993
 20
433.64625524732958
 30
0.0
 40
0.1958416509202502
 50
44.326167136467042
 51
68.55519544300283
  0
ARC
  5
1C378
  8
0
 10
4421.2884867909406
 20
433.40589755277631
 30
0.0
 40
0.452167688317354
 50
69.179777914439072
 51
78.726086351818253
  0
ARC
  5
1C379
  8
0
 10
4421.3973008098101
 20
433.66167533557518
 30
0.0
 40
0.1585317858985974
 50
45.457623675028941
 51
67.526401047136588
  0
ARC
  5
1C37A
  8
0
 10
4421.2649701532
 20
433.36436866637553
 30
0.0
 40
0.4839211526091008
 50
66.504190682028892
 51
79.355021208603162
  0
ARC
  5
1C37B
  8
0
 10
4421.4249869109799
 20
433.80742310025352
 30
0.0
 40
0.0657795753693762
 50
299.66835202282448
 51
345.7088535905205
  0
ARC
  5
1C37C
  8
0
 10
4421.4209134168832
 20
433.81800976038352
 30
0.0
 40
0.0831679569658781
 50
296.13387206192988
 51
336.46533420687859
  0
LINE
  5
1C37D
  8
0
 10
4421.457546405888
 20
433.79582928257611
 30
0.0
 11
4421.457546405888
 21
433.74001245390588
 31
0.0
  0
ARC
  5
1C37E
  8
0
 10
4421.423733557669
 20
433.79556932605681
 30
0.0
 40
0.0338138474907522
 50
0.4404869375872642
 51
24.587260878207669
  0
ARC
  5
1C37F
  8
0
 10
4421.3721048284142
 20
433.85473262496839
 30
0.0
 40
0.2022761561589623
 50
288.71320192444938
 51
312.40026190237279
  0
ARC
  5
1C380
  8
0
 10
4421.233450200124
 20
434.23184805182848
 30
0.0
 40
0.6040290445570226
 50
279.95739216876927
 51
289.69353284529387
  0
ARC
  5
1C381
  8
0
 10
4421.4179328439286
 20
433.77715109134851
 30
0.0
 40
0.1262524749890919
 50
290.44040409375992
 51
322.20838311831398
  0
ARC
  5
1C382
  8
0
 10
4421.3011656634326
 20
434.06615907428102
 30
0.0
 40
0.4379244753683819
 50
281.4286892097582
 51
291.55046911174992
  0
ARC
  5
1C383
  8
0
 10
4417.5632023695698
 20
435.87300613950993
 30
0.0
 40
4.5144980546458262
 50
331.42014862091628
 51
333.54824655056791
  0
ARC
  5
1C384
  8
0
 10
4421.7685079489784
 20
434.34620425637547
 30
0.0
 40
0.021920514543286
 50
5.5425673753520011
 51
84.045555723351441
  0
ARC
  5
1C385
  8
0
 10
4421.7924124346546
 20
434.3778736433419
 30
0.0
 40
0.029625751511208
 50
265.96148120526527
 51
314.69262901945098
  0
ARC
  5
1C386
  8
0
 10
4421.743696722101
 20
434.41605479533803
 30
0.0
 40
0.0913620056580868
 50
319.5767178604226
 51
349.6784193595193
  0
ARC
  5
1C387
  8
0
 10
4419.6623445896194
 20
434.69285285327271
 30
0.0
 40
2.1909385342044421
 50
352.31023502268192
 51
359.55819706260581
  0
ARC
  5
1C388
  8
0
 10
4421.8150366431482
 20
435.54678007725221
 30
0.0
 40
0.0382086028255939
 50
2.1643016834349171
 51
55.796541441022143
  0
ARC
  5
1C389
  8
0
 10
4422.05877868279
 20
435.94107490845659
 30
0.0
 40
0.4253803977875578
 50
190.0939880974212
 51
238.49951593156081
  0
ARC
  5
1C38A
  8
0
 10
4422.0968790529951
 20
435.98477593715882
 30
0.0
 40
0.4826456348626806
 50
194.1739004792766
 51
237.35366814377281
  0
ARC
  5
1C38B
  8
0
 10
4423.3055591158482
 20
436.07523671810742
 30
0.0
 40
1.6786028667969639
 50
179.80434166721869
 51
187.1425728422445
  0
ARC
  5
1C38C
  8
0
 10
4422.7903193502198
 20
436.0652061660976
 30
0.0
 40
1.1782531487529651
 50
179.23346983126561
 51
189.70446344964239
  0
LINE
  5
1C38D
  8
0
 10
4421.6269660364878
 20
436.82567199347608
 30
0.0
 11
4421.6269660364878
 21
436.08096893787598
 31
0.0
  0
ARC
  5
1C38E
  8
0
 10
4421.6035471937676
 20
436.82467399332899
 30
0.0
 40
0.0234400980944882
 50
2.4401982576944059
 51
70.337170564001696
  0
ARC
  5
1C38F
  8
0
 10
4421.3124822623759
 20
436.01842619795451
 30
0.0
 40
0.8806180800360624
 50
70.154808588346285
 51
76.373786007298989
  0
ARC
  5
1C390
  8
0
 10
4421.458391505832
 20
436.67192661091138
 30
0.0
 40
0.2114867586899337
 50
73.079309238399262
 51
89.748824682944786
  0
ARC
  5
1C391
  8
0
 10
4421.570121427927
 20
436.7798217919165
 30
0.0
 40
0.0232280019527436
 50
15.406870572724509
 51
74.559645660832714
  0
ARC
  5
1C392
  8
0
 10
4421.489094409334
 20
436.70529781956151
 30
0.0
 40
0.1177687715009293
 50
72.711465596289869
 51
89.195635523883226
  0
LINE
  5
1C393
  8
0
 10
4421.5240933813893
 20
436.81774583197608
 30
0.0
 11
4421.5763055368734
 21
436.80221145183481
 31
0.0
  0
ARC
  5
1C394
  8
0
 10
4418.786923229798
 20
436.47037938407072
 30
0.0
 40
2.8232880342856821
 50
0.0563009283846852
 51
6.4184719470508851
  0
ARC
  5
1C395
  8
0
 10
4393.0952487226114
 20
436.13442201070592
 30
0.0
 40
28.51697301836905
 50
359.8926029799951
 51
0.6805894056111452
  0
ARC
  5
1C396
  8
0
 10
4421.4845015352548
 20
436.81851667930738
 30
0.0
 40
0.0396743184393535
 50
310.55553620041979
 51
358.85820025587049
  0
ARC
  5
1C397
  8
0
 10
4421.3956831766964
 20
436.94345490440361
 30
0.0
 40
0.1928386386842621
 50
277.2775912229535
 51
306.46643910118752
  0
LINE
  5
1C398
  8
0
 10
4421.7055779018892
 20
435.46862052097612
 30
0.0
 11
4421.7055779018892
 21
435.42925044217611
 31
0.0
  0
ARC
  5
1C399
  8
0
 10
4421.7862962809786
 20
433.4059033572633
 30
0.0
 40
0.007868607535145
 50
270.0566636158066
 51
0.0332404407667118
  0
ARC
  5
1C39A
  8
0
 10
4421.1642393192378
 20
427.75513574555561
 30
0.0
 40
9.1330436919204772
 50
88.148509710508705
 51
91.851490289491281
  0
ARC
  5
1C39B
  8
0
 10
4421.1642393192378
 20
438.54006360898899
 30
0.0
 40
1.80611043291354
 50
261.85549537760221
 51
278.1445046223979
  0
ARC
  5
1C39C
  8
0
 10
4421.1642393192378
 20
410.17304222141871
 30
0.0
 40
26.652012833157389
 50
89.298063541626135
 51
90.701936458373879
  0
ENDSEC
  0
EOF
