  0
SECTION
  2
HEADER
  9
$ACADVER
  1
AC1009
  9
$INSBASE
 10
4424.4217145148532
 20
435.63231022361941
 30
0.0
  9
$EXTMIN
 10
4423.2249763124028
 20
429.9414502649193
 30
0.0
  9
$EXTMAX
 10
4425.6184527173018
 20
435.63664381229938
 30
0.0
  9
$LIMMIN
 10
0.0
 20
0.0
  9
$LIMMAX
 10
11.692913385800001
 20
8.2677165353999982
  9
$ORTHOMODE
 70
     0
  9
$REGENMODE
 70
     1
  9
$FILLMODE
 70
     1
  9
$QTEXTMODE
 70
     0
  9
$MIRRTEXT
 70
     0
  9
$DRAGMODE
 70
     2
  9
$LTSCALE
 40
0.6431102362
  9
$OSMODE
 70
    19
  9
$ATTMODE
 70
     1
  9
$TEXTSIZE
 40
0.2
  9
$TRACEWID
 40
0.05
  9
$TEXTSTYLE
  7
STANDARD
  9
$CLAYER
  8
0
  9
$CELTYPE
  6
BYLAYER
  9
$CECOLOR
 62
   256
  9
$DIMSCALE
 40
1.0
  9
$DIMASZ
 40
0.1875
  9
$DIMEXO
 40
0.0625
  9
$DIMDLI
 40
0.4443307087
  9
$DIMRND
 40
0.0
  9
$DIMDLE
 40
0.0
  9
$DIMEXE
 40
0.125
  9
$DIMTP
 40
0.01
  9
$DIMTM
 40
0.01
  9
$DIMTXT
 40
2.0
  9
$DIMCEN
 40
0.1052362205
  9
$DIMTSZ
 40
0.0
  9
$DIMTOL
 70
     1
  9
$DIMLIM
 70
     0
  9
$DIMTIH
 70
     1
  9
$DIMTOH
 70
     1
  9
$DIMSE1
 70
     0
  9
$DIMSE2
 70
     0
  9
$DIMTAD
 70
     0
  9
$DIMZIN
 70
     0
  9
$DIMBLK
  1

  9
$DIMASO
 70
     1
  9
$DIMSHO
 70
     1
  9
$DIMPOST
  1
\X
  9
$DIMAPOST
  1

  9
$DIMALT
 70
     1
  9
$DIMALTD
 70
     2
  9
$DIMALTF
 40
25.399999999999999
  9
$DIMLFAC
 40
1.0
  9
$DIMTOFL
 70
     0
  9
$DIMTVP
 40
0.0
  9
$DIMTIX
 70
     0
  9
$DIMSOXD
 70
     0
  9
$DIMSAH
 70
     0
  9
$DIMBLK1
  1

  9
$DIMBLK2
  1

  9
$DIMSTYLE
  2
STANDARD
  9
$DIMCLRD
 70
     0
  9
$DIMCLRE
 70
     0
  9
$DIMCLRT
 70
     0
  9
$DIMTFAC
 40
1.0
  9
$DIMGAP
 40
0.09
  9
$LUNITS
 70
     2
  9
$LUPREC
 70
     4
  9
$SKETCHINC
 40
0.1
  9
$FILLETRAD
 40
0.0
  9
$AUNITS
 70
     0
  9
$AUPREC
 70
     0
  9
$MENU
  1
.
  9
$ELEVATION
 40
0.0
  9
$PELEVATION
 40
0.0
  9
$THICKNESS
 40
0.0
  9
$LIMCHECK
 70
     0
  9
$BLIPMODE
 70
     0
  9
$CHAMFERA
 40
0.0
  9
$CHAMFERB
 40
0.0
  9
$SKPOLY
 70
     0
  9
$TDCREATE
 40
2458060.4683680669
  9
$TDUPDATE
 40
2459206.85992721
  9
$TDINDWG
 40
1.4464721411999999
  9
$TDUSRTIMER
 40
1.4464721411999999
  9
$USRTIMER
 70
     1
  9
$ANGBASE
 50
0.0
  9
$ANGDIR
 70
     0
  9
$PDMODE
 70
     0
  9
$PDSIZE
 40
0.3125
  9
$PLINEWID
 40
0.0
  9
$COORDS
 70
     1
  9
$SPLFRAME
 70
     0
  9
$SPLINETYPE
 70
     6
  9
$SPLINESEGS
 70
     8
  9
$ATTDIA
 70
     1
  9
$ATTREQ
 70
     1
  9
$HANDLING
 70
     1
  9
$HANDSEED
  5
1B97A
  9
$SURFTAB1
 70
     6
  9
$SURFTAB2
 70
     6
  9
$SURFTYPE
 70
     6
  9
$SURFU
 70
     6
  9
$SURFV
 70
     6
  9
$UCSNAME
  2

  9
$UCSORG
 10
0.0
 20
0.0
 30
0.0
  9
$UCSXDIR
 10
1.0
 20
0.0
 30
0.0
  9
$UCSYDIR
 10
0.0
 20
1.0
 30
0.0
  9
$PUCSNAME
  2

  9
$PUCSORG
 10
0.0
 20
0.0
 30
0.0
  9
$PUCSXDIR
 10
1.0
 20
0.0
 30
0.0
  9
$PUCSYDIR
 10
0.0
 20
1.0
 30
0.0
  9
$USERI1
 70
     0
  9
$USERI2
 70
     0
  9
$USERI3
 70
     0
  9
$USERI4
 70
     0
  9
$USERI5
 70
     0
  9
$USERR1
 40
0.0
  9
$USERR2
 40
0.0
  9
$USERR3
 40
0.0
  9
$USERR4
 40
0.0
  9
$USERR5
 40
0.0
  9
$WORLDVIEW
 70
     1
  9
$SHADEDGE
 70
     3
  9
$SHADEDIF
 70
    70
  9
$TILEMODE
 70
     1
  9
$MAXACTVP
 70
    64
  9
$PLIMCHECK
 70
     0
  9
$PEXTMIN
 10
1.0000000000000000E+020
 20
1.0000000000000000E+020
 30
1.0000000000000000E+020
  9
$PEXTMAX
 10
-1.0000000000000000E+020
 20
-1.0000000000000000E+020
 30
-1.0000000000000000E+020
  9
$PLIMMIN
 10
0.0
 20
0.0
  9
$PLIMMAX
 10
12.0
 20
9.0
  9
$UNITMODE
 70
     0
  9
$VISRETAIN
 70
     1
  9
$PLINEGEN
 70
     0
  9
$PSLTSCALE
 70
     1
  0
ENDSEC
  0
SECTION
  2
TABLES
  0
TABLE
  2
VPORT
 70
     1
  0
VPORT
  2
*ACTIVE
 70
     0
 10
0.0
 20
0.0
 11
1.0
 21
1.0
 12
513.05635806954024
 22
300.20944193607028
 13
0.0
 23
0.0
 14
1.0
 24
1.0
 15
0.0
 25
0.0
 16
0.0
 26
0.0
 36
60.496018696580158
 17
3911.365356445312
 27
132.57960510253901
 37
0.0
 40
5.7544156639905282
 41
2.3628472222222219
 42
50.0
 43
0.0
 44
0.0
 50
0.0
 51
0.0
 71
     0
 72
   100
 73
     1
 74
     1
 75
     0
 76
     0
 77
     0
 78
     0
  0
ENDTAB
  0
TABLE
  2
LTYPE
 70
     2
  0
LTYPE
  2
CONTINUOUS
 70
     0
  3
Solid line
 72
    65
 73
     0
 40
0.0
  0
LTYPE
  2
PHANTOM2
 70
     0
  3
___ _ _ ___ _ _ ___ _ _ ___ _ _
 72
    65
 73
     6
 40
1.25
 49
0.625
 49
-0.125
 49
0.125
 49
-0.125
 49
0.125
 49
-0.125
  0
ENDTAB
  0
TABLE
  2
LAYER
 70
     2
  0
LAYER
  2
0
 70
     0
 62
   255
  6
CONTINUOUS
  0
LAYER
  2
DEFPOINTS
 70
     0
 62
     7
  6
CONTINUOUS
  0
ENDTAB
  0
TABLE
  2
STYLE
 70
     1
  0
STYLE
  2
STANDARD
 70
     0
 40
0.0
 41
0.8
 50
0.0
 71
     0
 42
0.2
  3
txt
  4

  0
ENDTAB
  0
TABLE
  2
VIEW
 70
     0
  0
ENDTAB
  0
TABLE
  2
UCS
 70
     0
  0
ENDTAB
  0
TABLE
  2
APPID
 70
    11
  0
APPID
  2
ACAD
 70
     0
  0
APPID
  2
ACAD_MLEADERVER
 70
     0
  0
APPID
  2
ACAD_EXEMPT_FROM_CAD_STANDARDS
 70
     0
  0
APPID
  2
ACAD_NAV_VCDISPLAY
 70
     0
  0
APPID
  2
ACAECLAYERSTANDARD
 70
     0
  0
APPID
  2
ACCMTRANSPARENCY
 70
     0
  0
APPID
  2
ACAD_DSTYLE_DIMJAG
 70
     0
  0
APPID
  2
ACAD_DSTYLE_DIMTALN
 70
     0
  0
APPID
  2
ACDBATTR
 70
     0
  0
APPID
  2
ACADANNOTATIVE
 70
     0
  0
APPID
  2
DCO15
 70
     0
  0
ENDTAB
  0
TABLE
  2
DIMSTYLE
 70
     1
  0
DIMSTYLE
  2
STANDARD
 70
     0
  3

  4

  5

  6

  7

 40
1.0
 41
0.1875
 42
0.0625
 43
0.38
 44
0.125
 45
0.0
 46
0.0
 47
0.01
 48
0.01
140
0.15625
141
0.09
142
0.0
143
25.399999999999999
144
1.0
145
0.0
146
1.0
147
0.09
 71
     1
 72
     0
 73
     1
 74
     1
 75
     0
 76
     0
 77
     0
 78
     4
170
     0
171
     2
172
     0
173
     0
174
     0
175
     0
176
     0
177
     0
178
     0
  0
ENDTAB
  0
ENDSEC
  0
SECTION
  2
BLOCKS
  0
BLOCK
  8
0
  2
$MODEL_SPACE
 70
     0
 10
0.0
 20
0.0
 30
0.0
  3
$MODEL_SPACE
  1

  0
ENDBLK
  5
21
  8
0
  0
BLOCK
 67
     1
  8
0
  2
$PAPER_SPACE
 70
     0
 10
0.0
 20
0.0
 30
0.0
  3
$PAPER_SPACE
  1

  0
ENDBLK
  5
1D
 67
     1
  8
0
  0
ENDSEC
  0
SECTION
  2
ENTITIES
  0
ATTDEF
  5
159BF
  8
DEFPOINTS
 10
4424.4217144865024
 20
435.63564381229929
 30
0.0
 40
0.001
  1
K-20076IN-4
  3

  2
MODELNUMBER
 70
     0
1001
ACDBATTR
1070
     0
1070
     1
  0
ATTDEF
  5
159C0
  8
DEFPOINTS
 10
4424.4215886768461
 20
435.63397697192022
 30
0.0
 40
0.001
  1
ALEO
  3

  2
TRADENAME
 70
     0
1001
ACDBATTR
1070
     0
1070
     1
  0
ATTDEF
  5
159C1
  8
DEFPOINTS
 10
4424.4217144865024
 20
435.63231047896608
 30
0.0
 40
0.001
  1
BATHROOM SINK FAUCET
  3

  2
PRODUCT
 70
     0
1001
ACDBATTR
1070
     0
1070
     1
  0
LINE
  5
1B8C3
  8
0
 10
4423.2249763124028
 20
435.63231022361941
 30
0.0
 11
4425.6184527173018
 21
435.63231022361941
 31
0.0
  0
LINE
  5
1B8C4
  8
0
 10
4423.7524231763018
 20
433.94453827160868
 30
0.0
 11
4423.7524231763018
 21
435.3960897511194
 31
0.0
  0
LINE
  5
1B8C5
  8
0
 10
4425.5400644550582
 20
435.3960897511194
 30
0.0
 11
4423.3033645746473
 21
435.3960897511194
 31
0.0
  0
LINE
  5
1B8C6
  8
0
 10
4423.2249763124028
 20
435.63231022361941
 30
0.0
 11
4423.2406121526028
 21
435.45359175161929
 31
0.0
  0
ARC
  5
1B8C7
  8
0
 10
4423.3033645746427
 20
435.45908187722318
 30
0.0
 40
0.0629921261038097
 50
185.00000006024001
 51
270.00000000349138
  0
ARC
  5
1B8C8
  8
0
 10
4417.5175616354763
 20
433.92080851758681
 30
0.0
 40
6.2349066981393566
 50
355.89833572948743
 51
0.2180654984249636
  0
ARC
  5
1B8C9
  8
0
 10
4458.1314085185213
 20
434.15672729234637
 30
0.0
 40
34.407012808128918
 50
181.2993709805356
 51
183.68373788382081
  0
ARC
  5
1B8CA
  8
0
 10
4424.2292093634942
 20
430.28629707445322
 30
0.0
 40
0.3268941169063168
 50
185.88076470351371
 51
258.63031171403389
  0
ARC
  5
1B8CB
  8
0
 10
4424.4217140223864
 20
431.30833937212577
 30
0.0
 40
1.3668891072064291
 50
259.16506322446702
 51
280.83493677553298
  0
ARC
  5
1B8CC
  8
0
 10
4427.5579904965316
 20
430.79469274532329
 30
0.0
 40
3.693917950250083
 50
183.0449266920468
 51
188.43559399747531
  0
LINE
  5
1B8CD
  8
0
 10
4423.7954842419122
 20
431.94610872511828
 30
0.0
 11
4423.8692876560017
 21
430.59847557621941
 31
0.0
  0
ARC
  5
1B8CE
  8
0
 10
4424.265064449376
 20
430.92052783972679
 30
0.0
 40
0.1795042189732311
 50
187.40387837500521
 51
255.78483763928099
  0
ARC
  5
1B8CF
  8
0
 10
4424.4217145148486
 20
432.02771327557969
 30
0.0
 40
1.2968225606603061
 50
261.09562157855021
 51
278.90437842144979
  0
ARC
  5
1B8D0
  8
0
 10
4424.1455120761166
 20
433.84070679563098
 30
0.0
 40
0.1720192242514854
 50
112.70589091220791
 51
163.72806919444011
  0
ARC
  5
1B8D1
  8
0
 10
4424.4217145148532
 20
432.68478645557411
 30
0.0
 40
1.366216491645335
 50
78.62874302389514
 51
101.3712569761048
  0
ARC
  5
1B8D2
  8
0
 10
4424.24141098982
 20
433.64051651380788
 30
0.0
 40
0.3938705789532512
 50
103.069536734938
 51
114.3343348761216
  0
ARC
  5
1B8D3
  8
0
 10
4424.6671463652356
 20
433.7197013664923
 30
0.0
 40
0.7073001183860012
 50
166.1591347375695
 51
180.99792361667949
  0
ARC
  5
1B8D4
  8
0
 10
4435.2509896295078
 20
433.6320447391933
 30
0.0
 40
11.29128744422427
 50
179.61770603805121
 51
182.86155634878099
  0
ARC
  5
1B8D5
  8
0
 10
4493.5078821124043
 20
435.6080440333173
 30
0.0
 40
69.580465504903927
 50
182.09176487923961
 51
183.8819347742388
  0
LINE
  5
1B8D6
  8
0
 10
4425.0910058534018
 20
433.94453827160868
 30
0.0
 11
4425.0910058534018
 21
435.3960897511194
 31
0.0
  0
LINE
  5
1B8D7
  8
0
 10
4425.6184527173018
 20
435.63231022361941
 30
0.0
 11
4425.6028168771018
 21
435.45359175161929
 31
0.0
  0
ARC
  5
1B8D8
  8
0
 10
4425.5400644550618
 20
435.45908187722318
 30
0.0
 40
0.0629921261038113
 50
269.99999999650862
 51
354.9999999397599
  0
ARC
  5
1B8D9
  8
0
 10
4431.3258673942291
 20
433.92080851758681
 30
0.0
 40
6.2349066981393566
 50
179.78193450157499
 51
184.1016642705126
  0
ARC
  5
1B8DA
  8
0
 10
4390.712020511186
 20
434.15672729234637
 30
0.0
 40
34.407012808128918
 50
356.31626211617908
 51
358.70062901946432
  0
ARC
  5
1B8DB
  8
0
 10
4424.6142201450721
 20
430.28629686056701
 30
0.0
 40
0.3268936186496998
 50
281.36944414670239
 51
354.11926398821259
  0
ARC
  5
1B8DC
  8
0
 10
4421.2854385331739
 20
430.79469274532329
 30
0.0
 40
3.693917950250083
 50
351.56440600252461
 51
356.95507330795311
  0
LINE
  5
1B8DD
  8
0
 10
4425.0479447877942
 20
431.94610872511828
 30
0.0
 11
4424.974141373702
 21
430.59847557621941
 31
0.0
  0
ARC
  5
1B8DE
  8
0
 10
4424.5783645803294
 20
430.92052783972679
 30
0.0
 40
0.1795042189732311
 50
284.21516236071898
 51
352.59612162499468
  0
ARC
  5
1B8DF
  8
0
 10
4424.6979169535889
 20
433.84070679563098
 30
0.0
 40
0.1720192242514854
 50
16.271930805559911
 51
67.294109087792037
  0
ARC
  5
1B8E0
  8
0
 10
4424.6020180398864
 20
433.64051651380788
 30
0.0
 40
0.3938705789532512
 50
65.665665123878355
 51
76.930463265062002
  0
ARC
  5
1B8E1
  8
0
 10
4424.1762826644681
 20
433.7197013664923
 30
0.0
 40
0.7073001183860012
 50
359.0020763833204
 51
13.840865262430439
  0
ARC
  5
1B8E2
  8
0
 10
4413.5924394001959
 20
433.6320447391933
 30
0.0
 40
11.29128744422427
 50
357.13844365121901
 51
0.3822939619487364
  0
ARC
  5
1B8E3
  8
0
 10
4355.3355469173011
 20
435.6080440333173
 30
0.0
 40
69.580465504903927
 50
356.1180652257612
 51
357.90823512076031
  0
ARC
  5
1B8E5
  8
0
 10
4424.4217145148532
 20
433.40293711276939
 30
0.0
 40
0.6889786702499994
 50
123.6936872593716
 51
230.25313752833571
  0
ARC
  5
1B8E6
  8
0
 10
4424.4217145148532
 20
433.40293711276939
 30
0.0
 40
0.6889786702499994
 50
309.7468624716642
 51
56.306312740628371
  0
ARC
  5
1B8E7
  8
0
 10
4424.4217145148532
 20
433.40293711276939
 30
0.0
 40
0.6889786702499994
 50
59.195496068456109
 51
120.80450393154391
  0
ENDSEC
  0
EOF
