  0
SECTION
  2
HEADER
  9
$ACADVER
  1
AC1009
  9
$INSBASE
 10
4436.0925793490569
 20
432.07714461806842
 30
0.0
  9
$EXTMIN
 10
4430.4018670150581
 20
430.77793201961839
 30
0.0
  9
$EXTMAX
 10
4436.1032462170569
 20
434.81925780591843
 30
0.0
  9
$LIMMIN
 10
0.0
 20
0.0
  9
$LIMMAX
 10
11.692913385800001
 20
8.2677165353999982
  9
$ORTHOMODE
 70
     0
  9
$REGENMODE
 70
     1
  9
$FILLMODE
 70
     1
  9
$QTEXTMODE
 70
     0
  9
$MIRRTEXT
 70
     0
  9
$DRAGMODE
 70
     2
  9
$LTSCALE
 40
0.6431102362
  9
$OSMODE
 70
    19
  9
$ATTMODE
 70
     1
  9
$TEXTSIZE
 40
0.2
  9
$TRACEWID
 40
0.05
  9
$TEXTSTYLE
  7
STANDARD
  9
$CLAYER
  8
0
  9
$CELTYPE
  6
BYLAYER
  9
$CECOLOR
 62
   256
  9
$DIMSCALE
 40
1.0
  9
$DIMASZ
 40
0.1875
  9
$DIMEXO
 40
0.0625
  9
$DIMDLI
 40
0.4443307087
  9
$DIMRND
 40
0.0
  9
$DIMDLE
 40
0.0
  9
$DIMEXE
 40
0.125
  9
$DIMTP
 40
0.01
  9
$DIMTM
 40
0.01
  9
$DIMTXT
 40
2.0
  9
$DIMCEN
 40
0.1052362205
  9
$DIMTSZ
 40
0.0
  9
$DIMTOL
 70
     1
  9
$DIMLIM
 70
     0
  9
$DIMTIH
 70
     1
  9
$DIMTOH
 70
     1
  9
$DIMSE1
 70
     0
  9
$DIMSE2
 70
     0
  9
$DIMTAD
 70
     0
  9
$DIMZIN
 70
     0
  9
$DIMBLK
  1

  9
$DIMASO
 70
     1
  9
$DIMSHO
 70
     1
  9
$DIMPOST
  1
\X
  9
$DIMAPOST
  1

  9
$DIMALT
 70
     1
  9
$DIMALTD
 70
     2
  9
$DIMALTF
 40
25.399999999999999
  9
$DIMLFAC
 40
1.0
  9
$DIMTOFL
 70
     0
  9
$DIMTVP
 40
0.0
  9
$DIMTIX
 70
     0
  9
$DIMSOXD
 70
     0
  9
$DIMSAH
 70
     0
  9
$DIMBLK1
  1

  9
$DIMBLK2
  1

  9
$DIMSTYLE
  2
STANDARD
  9
$DIMCLRD
 70
     0
  9
$DIMCLRE
 70
     0
  9
$DIMCLRT
 70
     0
  9
$DIMTFAC
 40
1.0
  9
$DIMGAP
 40
0.09
  9
$LUNITS
 70
     2
  9
$LUPREC
 70
     4
  9
$SKETCHINC
 40
0.1
  9
$FILLETRAD
 40
0.0
  9
$AUNITS
 70
     0
  9
$AUPREC
 70
     0
  9
$MENU
  1
.
  9
$ELEVATION
 40
0.0
  9
$PELEVATION
 40
0.0
  9
$THICKNESS
 40
0.0
  9
$LIMCHECK
 70
     0
  9
$BLIPMODE
 70
     0
  9
$CHAMFERA
 40
0.0
  9
$CHAMFERB
 40
0.0
  9
$SKPOLY
 70
     0
  9
$TDCREATE
 40
2458060.4683680669
  9
$TDUPDATE
 40
2459206.858619757
  9
$TDINDWG
 40
1.4459806480999999
  9
$TDUSRTIMER
 40
1.4459806480999999
  9
$USRTIMER
 70
     1
  9
$ANGBASE
 50
0.0
  9
$ANGDIR
 70
     0
  9
$PDMODE
 70
     0
  9
$PDSIZE
 40
0.3125
  9
$PLINEWID
 40
0.0
  9
$COORDS
 70
     1
  9
$SPLFRAME
 70
     0
  9
$SPLINETYPE
 70
     6
  9
$SPLINESEGS
 70
     8
  9
$ATTDIA
 70
     1
  9
$ATTREQ
 70
     1
  9
$HANDLING
 70
     1
  9
$HANDSEED
  5
1BDB8
  9
$SURFTAB1
 70
     6
  9
$SURFTAB2
 70
     6
  9
$SURFTYPE
 70
     6
  9
$SURFU
 70
     6
  9
$SURFV
 70
     6
  9
$UCSNAME
  2

  9
$UCSORG
 10
0.0
 20
0.0
 30
0.0
  9
$UCSXDIR
 10
1.0
 20
0.0
 30
0.0
  9
$UCSYDIR
 10
0.0
 20
1.0
 30
0.0
  9
$PUCSNAME
  2

  9
$PUCSORG
 10
0.0
 20
0.0
 30
0.0
  9
$PUCSXDIR
 10
1.0
 20
0.0
 30
0.0
  9
$PUCSYDIR
 10
0.0
 20
1.0
 30
0.0
  9
$USERI1
 70
     0
  9
$USERI2
 70
     0
  9
$USERI3
 70
     0
  9
$USERI4
 70
     0
  9
$USERI5
 70
     0
  9
$USERR1
 40
0.0
  9
$USERR2
 40
0.0
  9
$USERR3
 40
0.0
  9
$USERR4
 40
0.0
  9
$USERR5
 40
0.0
  9
$WORLDVIEW
 70
     1
  9
$SHADEDGE
 70
     3
  9
$SHADEDIF
 70
    70
  9
$TILEMODE
 70
     1
  9
$MAXACTVP
 70
    64
  9
$PLIMCHECK
 70
     0
  9
$PEXTMIN
 10
1.0000000000000000E+020
 20
1.0000000000000000E+020
 30
1.0000000000000000E+020
  9
$PEXTMAX
 10
-1.0000000000000000E+020
 20
-1.0000000000000000E+020
 30
-1.0000000000000000E+020
  9
$PLIMMIN
 10
0.0
 20
0.0
  9
$PLIMMAX
 10
12.0
 20
9.0
  9
$UNITMODE
 70
     0
  9
$VISRETAIN
 70
     1
  9
$PLINEGEN
 70
     0
  9
$PSLTSCALE
 70
     1
  0
ENDSEC
  0
SECTION
  2
TABLES
  0
TABLE
  2
VPORT
 70
     1
  0
VPORT
  2
*ACTIVE
 70
     0
 10
0.0
 20
0.0
 11
1.0
 21
1.0
 12
521.88720017074536
 22
300.21898981022929
 13
0.0
 23
0.0
 14
1.0
 24
1.0
 15
0.0
 25
0.0
 16
0.0
 26
0.0
 36
60.496018696580158
 17
3911.365356445312
 27
132.57960510253901
 37
0.0
 40
4.0833499712528569
 41
2.3628472222222219
 42
50.0
 43
0.0
 44
0.0
 50
0.0
 51
0.0
 71
     0
 72
   100
 73
     1
 74
     1
 75
     0
 76
     0
 77
     0
 78
     0
  0
ENDTAB
  0
TABLE
  2
LTYPE
 70
     2
  0
LTYPE
  2
CONTINUOUS
 70
     0
  3
Solid line
 72
    65
 73
     0
 40
0.0
  0
LTYPE
  2
PHANTOM2
 70
     0
  3
___ _ _ ___ _ _ ___ _ _ ___ _ _
 72
    65
 73
     6
 40
1.25
 49
0.625
 49
-0.125
 49
0.125
 49
-0.125
 49
0.125
 49
-0.125
  0
ENDTAB
  0
TABLE
  2
LAYER
 70
     2
  0
LAYER
  2
0
 70
     0
 62
   255
  6
CONTINUOUS
  0
LAYER
  2
DEFPOINTS
 70
     0
 62
     7
  6
CONTINUOUS
  0
ENDTAB
  0
TABLE
  2
STYLE
 70
     1
  0
STYLE
  2
STANDARD
 70
     0
 40
0.0
 41
0.8
 50
0.0
 71
     0
 42
0.2
  3
txt
  4

  0
ENDTAB
  0
TABLE
  2
VIEW
 70
     0
  0
ENDTAB
  0
TABLE
  2
UCS
 70
     0
  0
ENDTAB
  0
TABLE
  2
APPID
 70
    11
  0
APPID
  2
ACAD
 70
     0
  0
APPID
  2
ACAD_MLEADERVER
 70
     0
  0
APPID
  2
ACAD_EXEMPT_FROM_CAD_STANDARDS
 70
     0
  0
APPID
  2
ACAD_NAV_VCDISPLAY
 70
     0
  0
APPID
  2
ACAECLAYERSTANDARD
 70
     0
  0
APPID
  2
ACCMTRANSPARENCY
 70
     0
  0
APPID
  2
ACAD_DSTYLE_DIMJAG
 70
     0
  0
APPID
  2
ACAD_DSTYLE_DIMTALN
 70
     0
  0
APPID
  2
ACDBATTR
 70
     0
  0
APPID
  2
ACADANNOTATIVE
 70
     0
  0
APPID
  2
DCO15
 70
     0
  0
ENDTAB
  0
TABLE
  2
DIMSTYLE
 70
     1
  0
DIMSTYLE
  2
STANDARD
 70
     0
  3

  4

  5

  6

  7

 40
1.0
 41
0.1875
 42
0.0625
 43
0.38
 44
0.125
 45
0.0
 46
0.0
 47
0.01
 48
0.01
140
0.15625
141
0.09
142
0.0
143
25.399999999999999
144
1.0
145
0.0
146
1.0
147
0.09
 71
     1
 72
     0
 73
     1
 74
     1
 75
     0
 76
     0
 77
     0
 78
     4
170
     0
171
     2
172
     0
173
     0
174
     0
175
     0
176
     0
177
     0
178
     0
  0
ENDTAB
  0
ENDSEC
  0
SECTION
  2
BLOCKS
  0
BLOCK
  8
0
  2
$MODEL_SPACE
 70
     0
 10
0.0
 20
0.0
 30
0.0
  3
$MODEL_SPACE
  1

  0
ENDBLK
  5
21
  8
0
  0
BLOCK
 67
     1
  8
0
  2
$PAPER_SPACE
 70
     0
 10
0.0
 20
0.0
 30
0.0
  3
$PAPER_SPACE
  1

  0
ENDBLK
  5
1D
 67
     1
  8
0
  0
ENDSEC
  0
SECTION
  2
ENTITIES
  0
ATTDEF
  5
159BF
  8
DEFPOINTS
 10
4436.092579550389
 20
432.08047844246562
 30
0.0
 40
0.001
  1
K-20076IN-4
  3

  2
MODELNUMBER
 70
     0
1001
ACDBATTR
1070
     0
1070
     1
  0
ATTDEF
  5
159C0
  8
DEFPOINTS
 10
4436.0924537407327
 20
432.07881160208649
 30
0.0
 40
0.001
  1
ALEO
  3

  2
TRADENAME
 70
     0
1001
ACDBATTR
1070
     0
1070
     1
  0
ATTDEF
  5
159C1
  8
DEFPOINTS
 10
4436.092579550389
 20
432.07714510913229
 30
0.0
 40
0.001
  1
BATHROOM SINK FAUCET
  3

  2
PRODUCT
 70
     0
1001
ACDBATTR
1070
     0
1070
     1
  0
LINE
  5
1BBFA
  8
0
 10
4436.0925793490569
 20
430.88040641561838
 30
0.0
 11
4436.0925793490569
 21
433.27388282051839
 31
0.0
  0
LINE
  5
1BBFB
  8
0
 10
4433.1739076001568
 20
433.3996988894184
 30
0.0
 11
4434.5519076001574
 21
433.3996988894184
 31
0.0
  0
LINE
  5
1BBFC
  8
0
 10
4433.1739076001568
 20
433.3603288106184
 30
0.0
 11
4434.5519076001574
 21
433.3603288106184
 31
0.0
  0
LINE
  5
1BBFD
  8
0
 10
4434.2172574322576
 20
430.77793201961839
 30
0.0
 11
4433.5085960149581
 21
430.77793201961839
 31
0.0
  0
LINE
  5
1BBFE
  8
0
 10
4435.8563588766574
 20
430.95879467786523
 30
0.0
 11
4435.8563588766574
 21
433.19549455827149
 31
0.0
  0
LINE
  5
1BBFF
  8
0
 10
4434.8444293762732
 20
432.74643595661843
 30
0.0
 11
4435.8563588766574
 21
432.74643595661843
 31
0.0
  0
LINE
  5
1BC00
  8
0
 10
4434.7087188492569
 20
431.40785327951841
 30
0.0
 11
4435.8563588766574
 21
431.40785327951841
 31
0.0
  0
LINE
  5
1BC01
  8
0
 10
4433.2408823604574
 20
431.32911312201838
 30
0.0
 11
4434.4849711320558
 21
431.32911312201838
 31
0.0
  0
LINE
  5
1BC02
  8
0
 10
4432.4304230022171
 20
432.29908487141842
 30
0.0
 11
4430.4182334116567
 21
432.29908487141842
 31
0.0
  0
LINE
  5
1BC03
  8
0
 10
4433.4495635368767
 20
430.83698713771838
 30
0.0
 11
4434.276312550458
 21
430.83698713771838
 31
0.0
  0
LINE
  5
1BC04
  8
0
 10
4433.4496744046583
 20
431.17144364223191
 30
0.0
 11
4433.4664398894574
 21
431.16176071233201
 31
0.0
  0
LINE
  5
1BC05
  8
0
 10
4433.4664398894574
 20
431.16176071233201
 30
0.0
 11
4433.449674147857
 21
431.1520776341319
 31
0.0
  0
ARC
  5
1BC06
  8
0
 10
4434.2761522969504
 20
431.17160606093188
 30
0.0
 40
0.0001602535075551
 50
279.60583730762829
 51
80.394162692424686
  0
LINE
  5
1BC07
  8
0
 10
4434.2761958345582
 20
431.19113652743192
 30
0.0
 11
4434.2763125509582
 21
431.19128528973198
 31
0.0
  0
ARC
  5
1BC08
  8
0
 10
4433.9763259493548
 20
417.52288416334312
 30
0.0
 40
13.65903232473161
 50
90.475683158512908
 51
92.209702095271709
  0
ARC
  5
1BC09
  8
0
 10
4433.7498467188843
 20
444.82071588205417
 30
0.0
 40
13.639738882233621
 50
270.47501505217031
 51
272.21155793172392
  0
ARC
  5
1BC0A
  8
0
 10
4433.9765533705013
 20
417.48922512747669
 30
0.0
 40
13.673007728143411
 50
90.476149969104455
 51
92.208397181420864
  0
ARC
  5
1BC0B
  8
0
 10
4434.2579061793067
 20
431.18376450300173
 30
0.0
 40
0.0027105225964837
 50
279.36395472989199
 51
301.78754159883948
  0
LINE
  5
1BC0C
  8
0
 10
4434.2761958345582
 20
431.19113652743192
 30
0.0
 11
4434.2593340039566
 21
431.18146053913199
 31
0.0
  0
LINE
  5
1BC0D
  8
0
 10
4434.2593340039566
 20
431.18146053913199
 30
0.0
 11
4434.2761790383247
 21
431.17176406753168
 31
0.0
  0
LINE
  5
1BC0E
  8
0
 10
4433.8629267242577
 20
431.16176071233201
 30
0.0
 11
4434.0697380311067
 21
431.16504408543648
 31
0.0
  0
LINE
  5
1BC0F
  8
0
 10
4434.0697380311067
 20
431.16504408543648
 30
0.0
 11
4434.2761790383247
 21
431.17144805433207
 31
0.0
  0
ARC
  5
1BC10
  8
0
 10
4433.4497011512331
 20
431.17160164883171
 30
0.0
 40
0.00016025437553
 50
99.607670761128887
 51
260.39232923823721
  0
LINE
  5
1BC11
  8
0
 10
4433.449674147857
 20
431.1520776341319
 30
0.0
 11
4433.4495408968578
 21
431.15192118632751
 31
0.0
  0
ARC
  5
1BC12
  8
0
 10
4433.4680130057232
 20
431.15942126425711
 30
0.0
 40
0.0028191686859011
 50
102.17877425494051
 51
123.91809017345111
  0
ARC
  5
1BC13
  8
0
 10
4434.0037700207977
 20
417.08500325692359
 30
0.0
 40
14.08738774139956
 50
90.572894635665534
 51
92.181960321310385
  0
ARC
  5
1BC14
  8
0
 10
4433.7727904252488
 20
443.28080401616302
 30
0.0
 40
12.10945259940107
 50
270.4264230127938
 51
272.29802410444671
  0
LINE
  5
1BC15
  8
0
 10
4433.4496744046583
 20
431.2108137209184
 30
0.0
 11
4433.4664398894574
 21
431.20113079101839
 31
0.0
  0
LINE
  5
1BC16
  8
0
 10
4433.4664398894574
 20
431.20113079101839
 30
0.0
 11
4433.449674147857
 21
431.19144771281839
 31
0.0
  0
ARC
  5
1BC17
  8
0
 10
4434.2761522969504
 20
431.21097613961842
 30
0.0
 40
0.0001602535075551
 50
279.60583730762829
 51
80.394162692424686
  0
LINE
  5
1BC18
  8
0
 10
4434.2761958345582
 20
431.23050660611841
 30
0.0
 11
4434.2763125509582
 21
431.23065536841841
 31
0.0
  0
ARC
  5
1BC19
  8
0
 10
4433.9763259493548
 20
417.5622542420295
 30
0.0
 40
13.65903232473161
 50
90.475683158512908
 51
92.209702095271709
  0
ARC
  5
1BC1A
  8
0
 10
4433.7498467188843
 20
444.86008596074061
 30
0.0
 40
13.639738882233621
 50
270.47501505217031
 51
272.21155793172392
  0
ARC
  5
1BC1B
  8
0
 10
4433.9765533705013
 20
417.52859520616312
 30
0.0
 40
13.673007728143411
 50
90.476149969104455
 51
92.208397181420864
  0
ARC
  5
1BC1C
  8
0
 10
4434.2579061793067
 20
431.2231345816881
 30
0.0
 40
0.0027105225964837
 50
279.36395472989199
 51
301.78754159883948
  0
LINE
  5
1BC1D
  8
0
 10
4434.2761958345582
 20
431.23050660611841
 30
0.0
 11
4434.2593340039566
 21
431.22083061781842
 31
0.0
  0
LINE
  5
1BC1E
  8
0
 10
4434.2593340039566
 20
431.22083061781842
 30
0.0
 11
4434.2761790383247
 21
431.21113414621823
 31
0.0
  0
LINE
  5
1BC1F
  8
0
 10
4433.8629267242577
 20
431.20113079101839
 30
0.0
 11
4434.0697380311067
 21
431.20441416412302
 31
0.0
  0
LINE
  5
1BC20
  8
0
 10
4434.0697380311067
 20
431.20441416412302
 30
0.0
 11
4434.2761790383247
 21
431.21081813301862
 31
0.0
  0
ARC
  5
1BC21
  8
0
 10
4433.4497011512331
 20
431.21097172751809
 30
0.0
 40
0.0001602543755311
 50
99.607670759806368
 51
260.39232923950499
  0
LINE
  5
1BC22
  8
0
 10
4433.449674147857
 20
431.19144771281839
 30
0.0
 11
4433.4495408968578
 21
431.19129126571841
 31
0.0
  0
ARC
  5
1BC23
  8
0
 10
4433.4680130057232
 20
431.19879134294359
 30
0.0
 40
0.0028191686859011
 50
102.17877425494051
 51
123.91809017345111
  0
ARC
  5
1BC24
  8
0
 10
4434.0037700207977
 20
417.12437333561002
 30
0.0
 40
14.08738774139956
 50
90.572894635665534
 51
92.181960321310385
  0
ARC
  5
1BC25
  8
0
 10
4433.7727904252488
 20
443.32017409484939
 30
0.0
 40
12.10945259940107
 50
270.4264230127938
 51
272.29802410444671
  0
LINE
  5
1BC26
  8
0
 10
4433.4496744046583
 20
431.1320735634319
 30
0.0
 11
4433.4664398894574
 21
431.12239063353201
 31
0.0
  0
LINE
  5
1BC27
  8
0
 10
4433.4664398894574
 20
431.12239063353201
 30
0.0
 11
4433.449674147857
 21
431.11270755533189
 31
0.0
  0
ARC
  5
1BC28
  8
0
 10
4434.2761522969504
 20
431.13223598213187
 30
0.0
 40
0.0001602535075551
 50
279.60583730762829
 51
80.394162692424686
  0
LINE
  5
1BC29
  8
0
 10
4434.2761958345582
 20
431.15176644863192
 30
0.0
 11
4434.2763125509582
 21
431.15191521093192
 31
0.0
  0
ARC
  5
1BC2A
  8
0
 10
4433.9763259493548
 20
417.48351408454317
 30
0.0
 40
13.65903232473161
 50
90.475683158512908
 51
92.209702095271709
  0
ARC
  5
1BC2B
  8
0
 10
4433.7498467188843
 20
444.78134580325423
 30
0.0
 40
13.639738882233621
 50
270.47501505217031
 51
272.21155793172392
  0
ARC
  5
1BC2C
  8
0
 10
4433.9765533705013
 20
417.44985504867668
 30
0.0
 40
13.673007728143411
 50
90.476149969104455
 51
92.208397181420864
  0
ARC
  5
1BC2D
  8
0
 10
4434.2579061793067
 20
431.14439442420172
 30
0.0
 40
0.0027105225964837
 50
279.36395472989199
 51
301.78754159883948
  0
LINE
  5
1BC2E
  8
0
 10
4434.2761958345582
 20
431.15176644863192
 30
0.0
 11
4434.2593340039566
 21
431.14209046033199
 31
0.0
  0
LINE
  5
1BC2F
  8
0
 10
4434.2593340039566
 20
431.14209046033199
 30
0.0
 11
4434.2761790383247
 21
431.13239398873168
 31
0.0
  0
LINE
  5
1BC30
  8
0
 10
4433.8629267242577
 20
431.12239063353201
 30
0.0
 11
4434.0697380311067
 21
431.12567400663647
 31
0.0
  0
LINE
  5
1BC31
  8
0
 10
4434.0697380311067
 20
431.12567400663647
 30
0.0
 11
4434.2761790383247
 21
431.13207797553213
 31
0.0
  0
ARC
  5
1BC32
  8
0
 10
4433.4497011512331
 20
431.13223157003171
 30
0.0
 40
0.0001602543755294
 50
99.607670757957521
 51
260.39232924130312
  0
LINE
  5
1BC33
  8
0
 10
4433.449674147857
 20
431.11270755533189
 30
0.0
 11
4433.4495408968578
 21
431.11255110752751
 31
0.0
  0
ARC
  5
1BC34
  8
0
 10
4433.4680130057232
 20
431.1200511854571
 30
0.0
 40
0.0028191686859011
 50
102.17877425494051
 51
123.91809017345111
  0
ARC
  5
1BC35
  8
0
 10
4434.0037700207977
 20
417.04563317812358
 30
0.0
 40
14.08738774139956
 50
90.572894635665534
 51
92.181960321310385
  0
ARC
  5
1BC36
  8
0
 10
4433.7727904252488
 20
443.24143393736301
 30
0.0
 40
12.10945259940107
 50
270.4264230127938
 51
272.29802410444671
  0
LINE
  5
1BC37
  8
0
 10
4433.4496744046583
 20
431.092703484732
 30
0.0
 11
4433.4664398894574
 21
431.08302055483188
 31
0.0
  0
LINE
  5
1BC38
  8
0
 10
4433.4664398894574
 20
431.08302055483188
 30
0.0
 11
4433.449674147857
 21
431.07333747663199
 31
0.0
  0
ARC
  5
1BC39
  8
0
 10
4434.2761522969504
 20
431.09286590343203
 30
0.0
 40
0.0001602535075551
 50
279.60583730762829
 51
80.394162692424686
  0
LINE
  5
1BC3A
  8
0
 10
4434.2761958345582
 20
431.11239636993201
 30
0.0
 11
4434.2763125509582
 21
431.1125451322319
 31
0.0
  0
ARC
  5
1BC3B
  8
0
 10
4433.9763259493548
 20
417.4441440058431
 30
0.0
 40
13.65903232473161
 50
90.475683158512908
 51
92.209702095271709
  0
ARC
  5
1BC3C
  8
0
 10
4433.7498467188843
 20
444.74197572455409
 30
0.0
 40
13.639738882233621
 50
270.47501505217031
 51
272.21155793172392
  0
ARC
  5
1BC3D
  8
0
 10
4433.9765533705013
 20
417.41048496997672
 30
0.0
 40
13.673007728143411
 50
90.476149969104455
 51
92.208397181420864
  0
ARC
  5
1BC3E
  8
0
 10
4434.2579061793067
 20
431.1050243455017
 30
0.0
 40
0.0027105225964837
 50
279.36395472989199
 51
301.78754159883948
  0
LINE
  5
1BC3F
  8
0
 10
4434.2761958345582
 20
431.11239636993201
 30
0.0
 11
4434.2593340039566
 21
431.10272038163191
 31
0.0
  0
LINE
  5
1BC40
  8
0
 10
4434.2593340039566
 20
431.10272038163191
 30
0.0
 11
4434.2761790383247
 21
431.09302391003177
 31
0.0
  0
LINE
  5
1BC41
  8
0
 10
4433.8629267242577
 20
431.08302055483188
 30
0.0
 11
4434.0697380311067
 21
431.08630392793651
 31
0.0
  0
LINE
  5
1BC42
  8
0
 10
4434.0697380311067
 20
431.08630392793651
 30
0.0
 11
4434.2761790383247
 21
431.09270789683222
 31
0.0
  0
ARC
  5
1BC43
  8
0
 10
4433.4497011512331
 20
431.09286149133169
 30
0.0
 40
0.0001602543755285
 50
99.607670758010542
 51
260.39232924135553
  0
LINE
  5
1BC44
  8
0
 10
4433.449674147857
 20
431.07333747663199
 30
0.0
 11
4433.4495408968578
 21
431.07318102882749
 31
0.0
  0
ARC
  5
1BC45
  8
0
 10
4433.4680130057232
 20
431.08068110675708
 30
0.0
 40
0.0028191686859011
 50
102.17877425494051
 51
123.91809017345111
  0
ARC
  5
1BC46
  8
0
 10
4434.0037700207977
 20
417.00626309942362
 30
0.0
 40
14.08738774139956
 50
90.572894635665534
 51
92.181960321310385
  0
ARC
  5
1BC47
  8
0
 10
4433.7727904252488
 20
443.202063858663
 30
0.0
 40
12.10945259940107
 50
270.4264230127938
 51
272.29802410444671
  0
LINE
  5
1BC48
  8
0
 10
4433.4496744046583
 20
431.05333340593199
 30
0.0
 11
4433.4664398894574
 21
431.04365047603193
 31
0.0
  0
LINE
  5
1BC49
  8
0
 10
4433.4664398894574
 20
431.04365047603193
 30
0.0
 11
4433.449674147857
 21
431.03396739783199
 31
0.0
  0
ARC
  5
1BC4A
  8
0
 10
4434.2761522969504
 20
431.05349582463202
 30
0.0
 40
0.0001602535075551
 50
279.60583730762829
 51
80.394162692424686
  0
LINE
  5
1BC4B
  8
0
 10
4434.2761958345582
 20
431.0730262911319
 30
0.0
 11
4434.2763125509582
 21
431.07317505343201
 31
0.0
  0
ARC
  5
1BC4C
  8
0
 10
4433.9763259493548
 20
417.4047739270431
 30
0.0
 40
13.65903232473161
 50
90.475683158512908
 51
92.209702095271709
  0
ARC
  5
1BC4D
  8
0
 10
4433.7498467188843
 20
444.70260564575409
 30
0.0
 40
13.639738882233621
 50
270.47501505217031
 51
272.21155793172392
  0
ARC
  5
1BC4E
  8
0
 10
4433.9765533705013
 20
417.37111489117672
 30
0.0
 40
13.673007728143411
 50
90.476149969104455
 51
92.208397181420864
  0
ARC
  5
1BC4F
  8
0
 10
4434.2579061793067
 20
431.0656542667017
 30
0.0
 40
0.0027105225964837
 50
279.36395472989199
 51
301.78754159883948
  0
LINE
  5
1BC50
  8
0
 10
4434.2761958345582
 20
431.0730262911319
 30
0.0
 11
4434.2593340039566
 21
431.06335030283191
 31
0.0
  0
LINE
  5
1BC51
  8
0
 10
4434.2593340039566
 20
431.06335030283191
 30
0.0
 11
4434.2761790383247
 21
431.05365383123183
 31
0.0
  0
LINE
  5
1BC52
  8
0
 10
4433.8629267242577
 20
431.04365047603193
 30
0.0
 11
4434.0697380311067
 21
431.04693384913651
 31
0.0
  0
LINE
  5
1BC53
  8
0
 10
4434.0697380311067
 20
431.04693384913651
 30
0.0
 11
4434.2761790383247
 21
431.05333781803222
 31
0.0
  0
ARC
  5
1BC54
  8
0
 10
4433.4497011512331
 20
431.05349141253168
 30
0.0
 40
0.0001602543755279
 50
99.607670758696955
 51
260.39232924077459
  0
LINE
  5
1BC55
  8
0
 10
4433.449674147857
 20
431.03396739783199
 30
0.0
 11
4433.4495408968578
 21
431.03381095002749
 31
0.0
  0
ARC
  5
1BC56
  8
0
 10
4433.4680130057232
 20
431.04131102795708
 30
0.0
 40
0.0028191686859011
 50
102.17877425494051
 51
123.91809017345111
  0
ARC
  5
1BC57
  8
0
 10
4434.0037700207977
 20
416.96689302062362
 30
0.0
 40
14.08738774139956
 50
90.572894635665534
 51
92.181960321310385
  0
ARC
  5
1BC58
  8
0
 10
4433.7727904252488
 20
443.16269377986299
 30
0.0
 40
12.10945259940107
 50
270.4264230127938
 51
272.29802410444671
  0
LINE
  5
1BC59
  8
0
 10
4433.4496744045582
 20
431.01396332723198
 30
0.0
 11
4433.4664398893574
 21
431.00428039733202
 31
0.0
  0
LINE
  5
1BC5A
  8
0
 10
4433.4664398893574
 20
431.00428039733202
 30
0.0
 11
4433.4496741477578
 21
430.99459731913191
 31
0.0
  0
ARC
  5
1BC5B
  8
0
 10
4434.2761522968503
 20
431.01412574593201
 30
0.0
 40
0.0001602535075551
 50
279.60583730762829
 51
80.394162692424686
  0
LINE
  5
1BC5C
  8
0
 10
4434.2761958344581
 20
431.03365621243188
 30
0.0
 11
4434.2763125508582
 21
431.03380497473188
 31
0.0
  0
ARC
  5
1BC5D
  8
0
 10
4433.9763259492547
 20
417.36540384834319
 30
0.0
 40
13.65903232473161
 50
90.475683158512908
 51
92.209702095271709
  0
ARC
  5
1BC5E
  8
0
 10
4433.7498467187834
 20
444.66323556705419
 30
0.0
 40
13.639738882233621
 50
270.47501505217031
 51
272.21155793172392
  0
ARC
  5
1BC5F
  8
0
 10
4433.9765533704021
 20
417.3317448124767
 30
0.0
 40
13.673007728143411
 50
90.476149969104455
 51
92.208397181420864
  0
ARC
  5
1BC60
  8
0
 10
4434.2579061792067
 20
431.02628418800168
 30
0.0
 40
0.0027105225964837
 50
279.36395472989199
 51
301.78754159883948
  0
LINE
  5
1BC61
  8
0
 10
4434.2761958344581
 20
431.03365621243188
 30
0.0
 11
4434.2593340038566
 21
431.02398022413189
 31
0.0
  0
LINE
  5
1BC62
  8
0
 10
4434.2593340038566
 20
431.02398022413189
 30
0.0
 11
4434.2761790382237
 21
431.0142837525317
 31
0.0
  0
LINE
  5
1BC63
  8
0
 10
4433.8629267241577
 20
431.00428039733202
 30
0.0
 11
4434.0697380310066
 21
431.00756377043649
 31
0.0
  0
LINE
  5
1BC64
  8
0
 10
4434.0697380310066
 20
431.00756377043649
 30
0.0
 11
4434.2761790382237
 21
431.0139677393322
 31
0.0
  0
ARC
  5
1BC65
  8
0
 10
4433.4497011512531
 20
431.01412133383178
 30
0.0
 40
0.0001602543955628
 50
99.607713071096995
 51
260.39228692821501
  0
LINE
  5
1BC66
  8
0
 10
4433.4496741477578
 20
430.99459731913191
 30
0.0
 11
4433.4495408968578
 21
430.99444087144491
 31
0.0
  0
ARC
  5
1BC67
  8
0
 10
4433.4680130056231
 20
431.00194094925712
 30
0.0
 40
0.0028191686859011
 50
102.17877425494051
 51
123.91809017345111
  0
ARC
  5
1BC68
  8
0
 10
4434.0037700206976
 20
416.9275229419236
 30
0.0
 40
14.08738774139956
 50
90.572894635665534
 51
92.181960321310385
  0
ARC
  5
1BC69
  8
0
 10
4433.7727904251478
 20
443.12332370116297
 30
0.0
 40
12.10945259940107
 50
270.4264230127938
 51
272.29802410444671
  0
LINE
  5
1BC6A
  8
0
 10
4433.4496744045582
 20
430.9745932485319
 30
0.0
 11
4433.4664398893574
 21
430.96491031863201
 31
0.0
  0
LINE
  5
1BC6B
  8
0
 10
4433.4664398893574
 20
430.96491031863201
 30
0.0
 11
4433.4496741477578
 21
430.95522724043201
 31
0.0
  0
ARC
  5
1BC6C
  8
0
 10
4434.2761522968503
 20
430.97475566723188
 30
0.0
 40
0.0001602535075551
 50
279.60583730762829
 51
80.394162692424686
  0
LINE
  5
1BC6D
  8
0
 10
4434.2761958344581
 20
430.99428613373198
 30
0.0
 11
4434.2763125508582
 21
430.99443489603192
 31
0.0
  0
ARC
  5
1BC6E
  8
0
 10
4433.9763259492547
 20
417.32603376964312
 30
0.0
 40
13.65903232473161
 50
90.475683158512908
 51
92.209702095271709
  0
ARC
  5
1BC6F
  8
0
 10
4433.7498467187834
 20
444.62386548835423
 30
0.0
 40
13.639738882233621
 50
270.47501505217031
 51
272.21155793172392
  0
ARC
  5
1BC70
  8
0
 10
4433.9765533704021
 20
417.29237473377668
 30
0.0
 40
13.673007728143411
 50
90.476149969104455
 51
92.208397181420864
  0
ARC
  5
1BC71
  8
0
 10
4434.2579061792067
 20
430.98691410930172
 30
0.0
 40
0.0027105225964837
 50
279.36395472989199
 51
301.78754159883948
  0
LINE
  5
1BC72
  8
0
 10
4434.2761958344581
 20
430.99428613373198
 30
0.0
 11
4434.2593340038566
 21
430.98461014543187
 31
0.0
  0
LINE
  5
1BC73
  8
0
 10
4434.2593340038566
 20
430.98461014543187
 30
0.0
 11
4434.2761790382237
 21
430.97491367383168
 31
0.0
  0
LINE
  5
1BC74
  8
0
 10
4433.8629267241577
 20
430.96491031863201
 30
0.0
 11
4434.0697380310066
 21
430.96819369173647
 31
0.0
  0
LINE
  5
1BC75
  8
0
 10
4434.0697380310066
 20
430.96819369173647
 30
0.0
 11
4434.2761790382237
 21
430.97459766063213
 31
0.0
  0
ARC
  5
1BC76
  8
0
 10
4433.4497011512531
 20
430.97475125513171
 30
0.0
 40
0.0001602543955623
 50
99.607713071732604
 51
260.39228692763351
  0
LINE
  5
1BC77
  8
0
 10
4433.4496741477578
 20
430.95522724043201
 30
0.0
 11
4433.4495408968578
 21
430.95507079274489
 31
0.0
  0
ARC
  5
1BC78
  8
0
 10
4433.4680130056231
 20
430.96257087055722
 30
0.0
 40
0.0028191686859011
 50
102.17877425494051
 51
123.91809017345111
  0
ARC
  5
1BC79
  8
0
 10
4434.0037700206976
 20
416.88815286322358
 30
0.0
 40
14.08738774139956
 50
90.572894635665534
 51
92.181960321310385
  0
ARC
  5
1BC7A
  8
0
 10
4433.7727904251478
 20
443.08395362246301
 30
0.0
 40
12.10945259940107
 50
270.4264230127938
 51
272.29802410444671
  0
LINE
  5
1BC7B
  8
0
 10
4433.4496744045582
 20
430.93522316973201
 30
0.0
 11
4433.4664398893574
 21
430.925540239832
 31
0.0
  0
LINE
  5
1BC7C
  8
0
 10
4433.4664398893574
 20
430.925540239832
 30
0.0
 11
4433.4496741477578
 21
430.915857161632
 31
0.0
  0
ARC
  5
1BC7D
  8
0
 10
4434.2761522968503
 20
430.93538558843193
 30
0.0
 40
0.0001602535075551
 50
279.60583730762829
 51
80.394162692424686
  0
LINE
  5
1BC7E
  8
0
 10
4434.2761958344581
 20
430.95491605493203
 30
0.0
 11
4434.2763125508582
 21
430.95506481723203
 31
0.0
  0
ARC
  5
1BC7F
  8
0
 10
4433.9763259492547
 20
417.28666369084311
 30
0.0
 40
13.65903232473161
 50
90.475683158512908
 51
92.209702095271709
  0
ARC
  5
1BC80
  8
0
 10
4433.7498467187834
 20
444.58449540955422
 30
0.0
 40
13.639738882233621
 50
270.47501505217031
 51
272.21155793172392
  0
ARC
  5
1BC81
  8
0
 10
4433.9765533704021
 20
417.25300465497668
 30
0.0
 40
13.673007728143411
 50
90.476149969104455
 51
92.208397181420864
  0
ARC
  5
1BC82
  8
0
 10
4434.2579061792067
 20
430.94754403050172
 30
0.0
 40
0.0027105225964837
 50
279.36395472989199
 51
301.78754159883948
  0
LINE
  5
1BC83
  8
0
 10
4434.2761958344581
 20
430.95491605493203
 30
0.0
 11
4434.2593340038566
 21
430.94524006663192
 31
0.0
  0
LINE
  5
1BC84
  8
0
 10
4434.2593340038566
 20
430.94524006663192
 30
0.0
 11
4434.2761790382237
 21
430.93554359503167
 31
0.0
  0
LINE
  5
1BC85
  8
0
 10
4433.8629267241577
 20
430.925540239832
 30
0.0
 11
4434.0697380310066
 21
430.92882361293653
 31
0.0
  0
LINE
  5
1BC86
  8
0
 10
4434.0697380310066
 20
430.92882361293653
 30
0.0
 11
4434.2761790382237
 21
430.93522758183212
 31
0.0
  0
ARC
  5
1BC87
  8
0
 10
4433.4497011512531
 20
430.9353811763317
 30
0.0
 40
0.0001602543955614
 50
99.607713071785042
 51
260.39228692768648
  0
LINE
  5
1BC88
  8
0
 10
4433.4496741477578
 20
430.915857161632
 30
0.0
 11
4433.4495408968578
 21
430.91570071394489
 31
0.0
  0
ARC
  5
1BC89
  8
0
 10
4433.4680130056231
 20
430.9232007917571
 30
0.0
 40
0.0028191686859011
 50
102.17877425494051
 51
123.91809017345111
  0
ARC
  5
1BC8A
  8
0
 10
4434.0037700206976
 20
416.84878278442358
 30
0.0
 40
14.08738774139956
 50
90.572894635665534
 51
92.181960321310385
  0
ARC
  5
1BC8B
  8
0
 10
4433.7727904251478
 20
443.0445835436629
 30
0.0
 40
12.10945259940107
 50
270.4264230127938
 51
272.29802410444671
  0
LINE
  5
1BC8C
  8
0
 10
4433.4496744045582
 20
430.89585309103188
 30
0.0
 11
4433.4664398893574
 21
430.88617016113187
 31
0.0
  0
LINE
  5
1BC8D
  8
0
 10
4433.4664398893574
 20
430.88617016113187
 30
0.0
 11
4433.4496741477578
 21
430.87648708293187
 31
0.0
  0
ARC
  5
1BC8E
  8
0
 10
4434.2761522968503
 20
430.89601550973191
 30
0.0
 40
0.0001602535075551
 50
279.60583730762829
 51
80.394162692424686
  0
LINE
  5
1BC8F
  8
0
 10
4434.2761958344581
 20
430.91554597623201
 30
0.0
 11
4434.2763125508582
 21
430.91569473853201
 31
0.0
  0
ARC
  5
1BC90
  8
0
 10
4433.9763259492547
 20
417.2472936121431
 30
0.0
 40
13.65903232473161
 50
90.475683158512908
 51
92.209702095271709
  0
ARC
  5
1BC91
  8
0
 10
4433.7498467187834
 20
444.54512533085421
 30
0.0
 40
13.639738882233621
 50
270.47501505217031
 51
272.21155793172392
  0
ARC
  5
1BC92
  8
0
 10
4433.9765533704021
 20
417.2136345762766
 30
0.0
 40
13.673007728143411
 50
90.476149969104455
 51
92.208397181420864
  0
ARC
  5
1BC93
  8
0
 10
4434.2579061792067
 20
430.9081739518017
 30
0.0
 40
0.0027105225964837
 50
279.36395472989199
 51
301.78754159883948
  0
LINE
  5
1BC94
  8
0
 10
4434.2761958344581
 20
430.91554597623201
 30
0.0
 11
4434.2593340038566
 21
430.90586998793202
 31
0.0
  0
LINE
  5
1BC95
  8
0
 10
4434.2593340038566
 20
430.90586998793202
 30
0.0
 11
4434.2761790382237
 21
430.89617351633171
 31
0.0
  0
LINE
  5
1BC96
  8
0
 10
4433.8629267241577
 20
430.88617016113187
 30
0.0
 11
4434.0697380310066
 21
430.88945353423651
 31
0.0
  0
LINE
  5
1BC97
  8
0
 10
4434.0697380310066
 20
430.88945353423651
 30
0.0
 11
4434.2761790382237
 21
430.89585750313222
 31
0.0
  0
ARC
  5
1BC98
  8
0
 10
4433.4497011512531
 20
430.89601109763169
 30
0.0
 40
0.0001602543955611
 50
99.607713071202454
 51
260.3922869283204
  0
LINE
  5
1BC99
  8
0
 10
4433.4496741477578
 20
430.87648708293187
 30
0.0
 11
4433.4495408968578
 21
430.87633063524493
 31
0.0
  0
ARC
  5
1BC9A
  8
0
 10
4433.4680130056231
 20
430.88383071305719
 30
0.0
 40
0.0028191686859011
 50
102.17877425494051
 51
123.91809017345111
  0
ARC
  5
1BC9B
  8
0
 10
4434.0037700206976
 20
416.8094127057235
 30
0.0
 40
14.08738774139956
 50
90.572894635665534
 51
92.181960321310385
  0
ARC
  5
1BC9C
  8
0
 10
4433.7727904251478
 20
443.00521346496299
 30
0.0
 40
12.10945259940107
 50
270.4264230127938
 51
272.29802410444671
  0
LINE
  5
1BC9D
  8
0
 10
4433.4496744045582
 20
430.85648301223188
 30
0.0
 11
4433.4664398893574
 21
430.84680008233192
 31
0.0
  0
LINE
  5
1BC9E
  8
0
 10
4433.4664398893574
 20
430.84680008233192
 30
0.0
 11
4433.4496741477578
 21
430.83711700413193
 31
0.0
  0
ARC
  5
1BC9F
  8
0
 10
4434.2761522968503
 20
430.85664543093191
 30
0.0
 40
0.0001602535075551
 50
279.60583730762829
 51
80.394162692424686
  0
LINE
  5
1BCA0
  8
0
 10
4434.2761958344581
 20
430.87617589743201
 30
0.0
 11
4434.2763125508582
 21
430.87632465973201
 31
0.0
  0
ARC
  5
1BCA1
  8
0
 10
4433.9763259492547
 20
417.20792353334309
 30
0.0
 40
13.65903232473161
 50
90.475683158512908
 51
92.209702095271709
  0
ARC
  5
1BCA2
  8
0
 10
4433.7498467187834
 20
444.5057552520542
 30
0.0
 40
13.639738882233621
 50
270.47501505217031
 51
272.21155793172392
  0
ARC
  5
1BCA3
  8
0
 10
4433.9765533704021
 20
417.17426449747671
 30
0.0
 40
13.673007728143411
 50
90.476149969104455
 51
92.208397181420864
  0
ARC
  5
1BCA4
  8
0
 10
4434.2579061792067
 20
430.8688038730017
 30
0.0
 40
0.0027105225964837
 50
279.36395472989199
 51
301.78754159883948
  0
LINE
  5
1BCA5
  8
0
 10
4434.2761958344581
 20
430.87617589743201
 30
0.0
 11
4434.2593340038566
 21
430.8664999091319
 31
0.0
  0
LINE
  5
1BCA6
  8
0
 10
4434.2593340038566
 20
430.8664999091319
 30
0.0
 11
4434.2761790382237
 21
430.85680343753171
 31
0.0
  0
LINE
  5
1BCA7
  8
0
 10
4433.8629267241577
 20
430.84680008233192
 30
0.0
 11
4434.0697380310066
 21
430.8500834554365
 31
0.0
  0
LINE
  5
1BCA8
  8
0
 10
4434.0697380310066
 20
430.8500834554365
 30
0.0
 11
4434.2761790382237
 21
430.85648742433222
 31
0.0
  0
ARC
  5
1BCA9
  8
0
 10
4433.4497011512531
 20
430.85664101883168
 30
0.0
 40
0.000160254395562
 50
99.607713071149988
 51
260.39228692826742
  0
LINE
  5
1BCAA
  8
0
 10
4433.4496741477578
 20
430.83711700413193
 30
0.0
 11
4433.4495531232851
 21
430.83697491129141
 31
0.0
  0
ARC
  5
1BCAB
  8
0
 10
4433.4680130056231
 20
430.84446063425719
 30
0.0
 40
0.0028191686859011
 50
102.17877425494051
 51
123.91809017345111
  0
ARC
  5
1BCAC
  8
0
 10
4434.0037700206976
 20
416.7700426269235
 30
0.0
 40
14.08738774139956
 50
90.572894635665534
 51
92.181960321310385
  0
ARC
  5
1BCAD
  8
0
 10
4433.7727904251478
 20
442.96584338616299
 30
0.0
 40
12.10945259940107
 50
270.4264230127938
 51
272.29802410444671
  0
LINE
  5
1BCAE
  8
0
 10
4434.276312550458
 20
431.32911312201838
 30
0.0
 11
4434.276312550458
 21
431.23065536778108
 31
0.0
  0
LINE
  5
1BCAF
  8
0
 10
4434.276312550458
 20
431.21097613961842
 30
0.0
 11
4434.276312550458
 21
431.19128528909471
 31
0.0
  0
LINE
  5
1BCB0
  8
0
 10
4434.276312550458
 20
431.17160606093188
 30
0.0
 11
4434.276312550458
 21
431.15191521029459
 31
0.0
  0
LINE
  5
1BCB1
  8
0
 10
4434.276312550458
 20
431.13223598213187
 30
0.0
 11
4434.276312550458
 21
431.11254513159457
 31
0.0
  0
LINE
  5
1BCB2
  8
0
 10
4434.276312550458
 20
431.09286590343203
 30
0.0
 11
4434.276312550458
 21
431.07317505279462
 31
0.0
  0
LINE
  5
1BCB3
  8
0
 10
4434.276312550458
 20
431.05349582463202
 30
0.0
 11
4434.276312550458
 21
431.03380497422211
 31
0.0
  0
LINE
  5
1BCB4
  8
0
 10
4434.276312550458
 20
431.01412574593201
 30
0.0
 11
4434.276312550458
 21
430.99443489552209
 31
0.0
  0
LINE
  5
1BCB5
  8
0
 10
4434.276312550458
 20
430.97475566723188
 30
0.0
 11
4434.276312550458
 21
430.95506481672209
 31
0.0
  0
LINE
  5
1BCB6
  8
0
 10
4434.276312550458
 20
430.93538558843193
 30
0.0
 11
4434.276312550458
 21
430.91569473802213
 31
0.0
  0
LINE
  5
1BCB7
  8
0
 10
4434.276312550458
 20
430.89601550973191
 30
0.0
 11
4434.276312550458
 21
430.87632465922218
 31
0.0
  0
LINE
  5
1BCB8
  8
0
 10
4434.276312550458
 20
430.85664543093191
 30
0.0
 11
4434.276312550458
 21
430.83698713771838
 31
0.0
  0
LINE
  5
1BCB9
  8
0
 10
4433.4495408968578
 20
431.32911312201838
 30
0.0
 11
4433.4495408968578
 21
431.25037296451842
 31
0.0
  0
LINE
  5
1BCBA
  8
0
 10
4433.4495408968578
 20
431.23068792511839
 30
0.0
 11
4433.4495408968578
 21
431.21097172751809
 31
0.0
  0
LINE
  5
1BCBB
  8
0
 10
4433.4495408968578
 20
431.19129126571841
 30
0.0
 11
4433.4495408968578
 21
431.17160164883171
 31
0.0
  0
LINE
  5
1BCBC
  8
0
 10
4433.4495408968578
 20
431.15192118632751
 30
0.0
 11
4433.4495408968578
 21
431.13223157003171
 31
0.0
  0
LINE
  5
1BCBD
  8
0
 10
4433.4495408968578
 20
431.11255110752751
 30
0.0
 11
4433.4495408968578
 21
431.09286149133169
 31
0.0
  0
LINE
  5
1BCBE
  8
0
 10
4433.4495408968578
 20
431.07318102882749
 30
0.0
 11
4433.4495408968578
 21
431.05349141253168
 31
0.0
  0
LINE
  5
1BCBF
  8
0
 10
4433.4495408968578
 20
431.03381095002749
 30
0.0
 11
4433.4495408968578
 21
431.01412133383178
 31
0.0
  0
LINE
  5
1BCC0
  8
0
 10
4433.4495408968578
 20
430.99444087144491
 30
0.0
 11
4433.4495408968578
 21
430.97475125513171
 31
0.0
  0
LINE
  5
1BCC1
  8
0
 10
4433.4495408968578
 20
430.95507079274489
 30
0.0
 11
4433.4495408968578
 21
430.9353811763317
 31
0.0
  0
LINE
  5
1BCC2
  8
0
 10
4433.4495408968578
 20
430.91570071394489
 30
0.0
 11
4433.4495408968578
 21
430.89601109763169
 31
0.0
  0
LINE
  5
1BCC3
  8
0
 10
4433.4495408968578
 20
430.87633063524493
 30
0.0
 11
4433.4495408968578
 21
430.85664101883168
 31
0.0
  0
LINE
  5
1BCC4
  8
0
 10
4433.4495408968578
 20
431.25037296451842
 30
0.0
 11
4433.4665886410567
 21
431.24053044481838
 31
0.0
  0
LINE
  5
1BCC5
  8
0
 10
4433.4665886410567
 20
431.24053044481838
 30
0.0
 11
4433.4495408968578
 21
431.23068792511839
 31
0.0
  0
LINE
  5
1BCC6
  8
0
 10
4433.4495531232851
 20
430.83697491129141
 30
0.0
 11
4433.5085960149581
 21
430.77793201961839
 31
0.0
  0
LINE
  5
1BCC7
  8
0
 10
4434.2172574322576
 20
430.77793201961839
 30
0.0
 11
4434.276312550458
 21
430.83698713771838
 31
0.0
  0
ARC
  5
1BCC8
  8
0
 10
4430.4208887794848
 20
432.28024056376381
 30
0.0
 40
0.0190304731752955
 50
98.020789866615615
 51
181.73343385316289
  0
ARC
  5
1BCC9
  8
0
 10
4431.6851039745434
 20
432.495596154422
 30
0.0
 40
1.301277603088417
 50
189.55172243722049
 51
212.3516031116944
  0
ARC
  5
1BCCA
  8
0
 10
4431.6728097708847
 20
430.58376613663711
 30
0.0
 40
1.0224575338738811
 50
90.244570598741817
 51
110.0095257322394
  0
ARC
  5
1BCCB
  8
0
 10
4432.0919198870306
 20
420.18975434285102
 30
0.0
 40
11.42431135332402
 50
87.996371305942247
 51
92.12431735987596
  0
ARC
  5
1BCCC
  8
0
 10
4432.3086551723009
 20
428.7769320514671
 30
0.0
 40
2.8360393380933022
 50
74.154368324262791
 51
86.306592603448863
  0
ARC
  5
1BCCD
  8
0
 10
4433.0548863541726
 20
431.3289612560514
 30
0.0
 40
0.1784752845060677
 50
3.6203662613983751
 51
80.928574503023114
  0
LINE
  5
1BCCE
  8
0
 10
4433.2330054637569
 20
431.3402311265184
 30
0.0
 11
4433.2330054637569
 21
431.33698629071841
 31
0.0
  0
ARC
  5
1BCCF
  8
0
 10
4433.2408883101671
 20
431.33699597212751
 30
0.0
 40
0.0078828523544051
 50
180.0703684395931
 51
269.95675508739851
  0
ARC
  5
1BCD0
  8
0
 10
4434.4849663554996
 20
431.33699094548638
 30
0.0
 40
0.0078778249160787
 50
270.0347401213096
 51
359.98849791114247
  0
LINE
  5
1BCD1
  8
0
 10
4434.4928441802567
 20
431.33698936401839
 30
0.0
 11
4434.492847983458
 21
431.3402311265184
 31
0.0
  0
ARC
  5
1BCD2
  8
0
 10
4434.5766395996852
 20
431.34773092418521
 30
0.0
 40
0.0841265826890601
 50
157.43804394932579
 51
185.11464949807481
  0
ARC
  5
1BCD3
  8
0
 10
4434.54333594537
 20
431.35471014647879
 30
0.0
 40
0.0510880545716459
 50
97.008767607218914
 51
150.31725648523479
  0
ARC
  5
1BCD4
  8
0
 10
4434.59700544521
 20
431.0563277972156
 30
0.0
 40
0.3541910397722834
 50
86.667063836044974
 51
99.737074541562365
  0
ARC
  5
1BCD5
  8
0
 10
4434.7279070805907
 20
434.26401434341278
 30
0.0
 40
2.8562255182545568
 50
267.78664080673269
 51
269.61508188527989
  0
LINE
  5
1BCD6
  8
0
 10
4436.0925793490569
 20
433.27388282051839
 30
0.0
 11
4435.9138608770581
 21
433.2582469803184
 31
0.0
  0
ARC
  5
1BCD7
  8
0
 10
4435.9193510027781
 20
433.19549455827149
 30
0.0
 40
0.0629921261203859
 50
95.000000165375326
 51
179.99999995742269
  0
LINE
  5
1BCD8
  8
0
 10
4435.9138608770581
 20
430.89604225581837
 30
0.0
 11
4436.0925793490569
 21
430.88040641561838
 31
0.0
  0
ARC
  5
1BCD9
  8
0
 10
4435.9193510027781
 20
430.95879467786523
 30
0.0
 40
0.0629921261203876
 50
180.00000004257731
 51
264.9999998346247
  0
LINE
  5
1BCDA
  8
0
 10
4434.5519076001574
 20
433.47930140151732
 30
0.0
 11
4434.5519076001574
 21
433.0150055922183
 31
0.0
  0
LINE
  5
1BCDB
  8
0
 10
4433.1739076001568
 20
433.47934801295258
 30
0.0
 11
4433.1739076001568
 21
433.3996988894184
 31
0.0
  0
ARC
  5
1BCDC
  8
0
 10
4434.771416366083
 20
432.99533012030338
 30
0.0
 40
0.2203887985195444
 50
174.87803187719081
 51
235.20728530411259
  0
ARC
  5
1BCDD
  8
0
 10
4434.8530537819152
 20
433.09654323659572
 30
0.0
 40
0.3502134889831687
 50
233.6873561388993
 51
268.58888358552588
  0
LINE
  5
1BCDE
  8
0
 10
4430.5858103828568
 20
431.79926505531841
 30
0.0
 11
4431.3229489659579
 21
431.54450378331842
 31
0.0
  0
ARC
  5
1BCDF
  8
0
 10
4432.6739867226861
 20
432.77307059960083
 30
0.0
 40
0.4569261671679605
 50
281.73070972348472
 51
345.10655130626981
  0
ARC
  5
1BCE0
  8
0
 10
4432.4607808995934
 20
434.05614782443558
 30
0.0
 40
1.7573251898264139
 50
269.01016275790158
 51
280.03139126962549
  0
ARC
  5
1BCE1
  8
0
 10
4431.844659712111
 20
433.02777374006848
 30
0.0
 40
1.324267725103726
 50
343.6790156482021
 51
358.0651662806157
  0
ARC
  5
1BCE2
  8
0
 10
4420.7690523274223
 20
433.36022960302262
 30
0.0
 40
12.40485527313221
 50
358.2576661152965
 51
0.0004582219157314
  0
ARC
  5
1BCE3
  8
0
 10
4431.2108458779339
 20
434.79957176844709
 30
0.0
 40
0.0196860374880465
 50
90.002362364634635
 51
179.99798050278679
  0
ARC
  5
1BCE4
  8
0
 10
-37289.806970058256
 20
-3458247.776643252
 30
0.0
 40
3458934.2206113739
 50
89.308837910129341
 51
89.308892262112224
  0
ARC
  5
1BCE5
  8
0
 10
4434.4915859329594
 20
434.75999411565539
 30
0.0
 40
0.0196861398120532
 50
0.0021347170061568
 51
89.308866565116148
  0
LINE
  5
1BCE6
  8
0
 10
4434.5112720727566
 20
434.75999484911841
 30
0.0
 11
4434.511043045557
 21
434.01204777111838
 31
0.0
  0
ARC
  5
1BCE7
  8
0
 10
4434.3719144846382
 20
433.47965108295932
 30
0.0
 40
0.1799934551905981
 50
359.88868882304672
 51
12.35488263776633
  0
ARC
  5
1BCE8
  8
0
 10
4437.4741451612754
 20
433.98390592935601
 30
0.0
 40
2.963235750227831
 50
179.45585395979589
 51
189.04287785382451
  0
ARC
  5
1BCE9
  8
0
 10
4430.454836009465
 20
433.96619674381338
 30
0.0
 40
2.7601213604349462
 50
350.65704576482233
 51
0.9518289358147068
  0
LINE
  5
1BCEA
  8
0
 10
4431.1911598404577
 20
434.79957246231839
 30
0.0
 11
4431.1911598541574
 21
434.75613342301841
 31
0.0
  0
ARC
  5
1BCEB
  8
0
 10
4431.2297027129334
 20
434.75648563648809
 30
0.0
 40
0.0385444680454509
 50
180.52356738018489
 51
229.4055659062027
  0
ARC
  5
1BCEC
  8
0
 10
4431.2926725480393
 20
434.83684241466187
 30
0.0
 40
0.1406078102372503
 50
231.22856962197139
 51
255.01482707019031
  0
ARC
  5
1BCED
  8
0
 10
4431.5185741063779
 20
435.73065844994488
 30
0.0
 40
1.0625170341603849
 50
255.71014282188281
 51
269.70178168506692
  0
ARC
  5
1BCEE
  8
0
 10
4430.9975339304074
 20
384.01239136942007
 30
0.0
 40
50.658387472673823
 50
88.291870705665815
 51
89.416936588321533
  0
ARC
  5
1BCEF
  8
0
 10
4432.7655414871861
 20
434.191192818373
 30
0.0
 40
0.4319545170341962
 50
16.625545346012881
 51
80.030919640106006
  0
ARC
  5
1BCF0
  8
0
 10
4432.0958616034741
 20
434.03560476948269
 30
0.0
 40
1.118962915373058
 50
358.79366500513191
 51
14.44770099001286
  0
ARC
  5
1BCF1
  8
0
 10
4432.4767509374497
 20
432.55879071235182
 30
0.0
 40
2.0897047762701288
 50
79.980631361256926
 51
89.155176935409116
  0
LINE
  5
1BCF2
  8
0
 10
4434.4042703591567
 20
433.3996988894184
 30
0.0
 11
4434.4042703591567
 21
433.3603288106184
 31
0.0
  0
LINE
  5
1BCF3
  8
0
 10
4433.3215931937566
 20
433.3996988894184
 30
0.0
 11
4433.3215931937566
 21
433.3603288106184
 31
0.0
  0
ARC
  5
1BCF5
  8
0
 10
4433.3457153636427
 20
433.47932470723759
 30
0.0
 40
0.1718077650667146
 50
166.9535779716966
 51
180.0077721715119
  0
ENDSEC
  0
EOF
