  0
SECTION
  2
HEADER
  9
$ACADVER
  1
AC1009
  9
$INSBASE
 10
3630.7795664383370422
 20
155.9909414862491133
 30
0.0
  9
$EXTMIN
 10
3619.7559443911359267
 20
155.9863365336478012
 30
0.0
  9
$EXTMAX
 10
3641.8031884855367935
 20
197.2232249507491133
 30
0.0
  9
$LIMMIN
 10
0.0
 20
0.0
  9
$LIMMAX
 10
11.6929133858000007
 20
8.2677165353999982
  9
$ORTHOMODE
 70
     0
  9
$REGENMODE
 70
     1
  9
$FILLMODE
 70
     1
  9
$QTEXTMODE
 70
     0
  9
$MIRRTEXT
 70
     0
  9
$DRAGMODE
 70
     2
  9
$LTSCALE
 40
0.6431102362
  9
$OSMODE
 70
  3839
  9
$ATTMODE
 70
     1
  9
$TEXTSIZE
 40
0.2
  9
$TRACEWID
 40
0.05
  9
$TEXTSTYLE
  7
STANDARD
  9
$CLAYER
  8
0
  9
$CELTYPE
  6
BYLAYER
  9
$CECOLOR
 62
   256
  9
$DIMSCALE
 40
1.0
  9
$DIMASZ
 40
0.1875
  9
$DIMEXO
 40
0.0625
  9
$DIMDLI
 40
0.4443307087
  9
$DIMRND
 40
0.0
  9
$DIMDLE
 40
0.0
  9
$DIMEXE
 40
0.125
  9
$DIMTP
 40
0.01
  9
$DIMTM
 40
0.01
  9
$DIMTXT
 40
2.0
  9
$DIMCEN
 40
0.1052362205
  9
$DIMTSZ
 40
0.0
  9
$DIMTOL
 70
     1
  9
$DIMLIM
 70
     0
  9
$DIMTIH
 70
     1
  9
$DIMTOH
 70
     1
  9
$DIMSE1
 70
     0
  9
$DIMSE2
 70
     0
  9
$DIMTAD
 70
     0
  9
$DIMZIN
 70
     0
  9
$DIMBLK
  1

  9
$DIMASO
 70
     1
  9
$DIMSHO
 70
     1
  9
$DIMPOST
  1
\X
  9
$DIMAPOST
  1

  9
$DIMALT
 70
     1
  9
$DIMALTD
 70
     2
  9
$DIMALTF
 40
25.3999999999999986
  9
$DIMLFAC
 40
1.0
  9
$DIMTOFL
 70
     0
  9
$DIMTVP
 40
0.0
  9
$DIMTIX
 70
     0
  9
$DIMSOXD
 70
     0
  9
$DIMSAH
 70
     0
  9
$DIMBLK1
  1

  9
$DIMBLK2
  1

  9
$DIMSTYLE
  2
STANDARD
  9
$DIMCLRD
 70
     0
  9
$DIMCLRE
 70
     0
  9
$DIMCLRT
 70
     0
  9
$DIMTFAC
 40
1.0
  9
$DIMGAP
 40
0.09
  9
$LUNITS
 70
     2
  9
$LUPREC
 70
     4
  9
$SKETCHINC
 40
0.1
  9
$FILLETRAD
 40
0.0
  9
$AUNITS
 70
     0
  9
$AUPREC
 70
     0
  9
$MENU
  1
.
  9
$ELEVATION
 40
0.0
  9
$PELEVATION
 40
0.0
  9
$THICKNESS
 40
0.0
  9
$LIMCHECK
 70
     0
  9
$BLIPMODE
 70
     0
  9
$CHAMFERA
 40
0.0
  9
$CHAMFERB
 40
0.0
  9
$SKPOLY
 70
     0
  9
$TDCREATE
 40
2458060.468368056230247
  9
$TDUPDATE
 40
2459093.5084837968461215
  9
$TDINDWG
 40
0.768884375
  9
$TDUSRTIMER
 40
0.768884375
  9
$USRTIMER
 70
     1
  9
$ANGBASE
 50
0.0
  9
$ANGDIR
 70
     0
  9
$PDMODE
 70
     0
  9
$PDSIZE
 40
0.3125
  9
$PLINEWID
 40
0.0
  9
$COORDS
 70
     1
  9
$SPLFRAME
 70
     0
  9
$SPLINETYPE
 70
     6
  9
$SPLINESEGS
 70
     8
  9
$ATTDIA
 70
     1
  9
$ATTREQ
 70
     1
  9
$HANDLING
 70
     1
  9
$HANDSEED
  5
104BB
  9
$SURFTAB1
 70
     6
  9
$SURFTAB2
 70
     6
  9
$SURFTYPE
 70
     6
  9
$SURFU
 70
     6
  9
$SURFV
 70
     6
  9
$UCSNAME
  2

  9
$UCSORG
 10
0.0
 20
0.0
 30
0.0
  9
$UCSXDIR
 10
1.0
 20
0.0
 30
0.0
  9
$UCSYDIR
 10
0.0
 20
1.0
 30
0.0
  9
$PUCSNAME
  2

  9
$PUCSORG
 10
0.0
 20
0.0
 30
0.0
  9
$PUCSXDIR
 10
1.0
 20
0.0
 30
0.0
  9
$PUCSYDIR
 10
0.0
 20
1.0
 30
0.0
  9
$USERI1
 70
     0
  9
$USERI2
 70
     0
  9
$USERI3
 70
     0
  9
$USERI4
 70
     0
  9
$USERI5
 70
     0
  9
$USERR1
 40
0.0
  9
$USERR2
 40
0.0
  9
$USERR3
 40
0.0
  9
$USERR4
 40
0.0
  9
$USERR5
 40
0.0
  9
$WORLDVIEW
 70
     1
  9
$SHADEDGE
 70
     3
  9
$SHADEDIF
 70
    70
  9
$TILEMODE
 70
     1
  9
$MAXACTVP
 70
    64
  9
$PLIMCHECK
 70
     0
  9
$PEXTMIN
 10
1.0000000000000000E+20
 20
1.0000000000000000E+20
 30
1.0000000000000000E+20
  9
$PEXTMAX
 10
-1.0000000000000000E+20
 20
-1.0000000000000000E+20
 30
-1.0000000000000000E+20
  9
$PLIMMIN
 10
0.0
 20
0.0
  9
$PLIMMAX
 10
12.0
 20
9.0
  9
$UNITMODE
 70
     0
  9
$VISRETAIN
 70
     1
  9
$PLINEGEN
 70
     0
  9
$PSLTSCALE
 70
     1
  0
ENDSEC
  0
SECTION
  2
TABLES
  0
TABLE
  2
VPORT
 70
     1
  0
VPORT
  2
*ACTIVE
 70
     0
 10
0.0
 20
0.0
 11
1.0
 21
1.0
 12
0.0
 22
0.0
 13
0.0
 23
0.0
 14
1.0
 24
1.0
 15
0.0
 25
0.0
 16
0.0
 26
0.0
 36
194.1294456461681932
 17
3630.7795410156259095
 27
176.6047786794215142
 37
0.0
 40
46.7607405173387818
 41
3.314341846758349
 42
50.0
 43
0.0
 44
0.0
 50
0.0
 51
0.0
 71
     0
 72
   100
 73
     1
 74
     1
 75
     0
 76
     0
 77
     0
 78
     0
  0
ENDTAB
  0
TABLE
  2
LTYPE
 70
     2
  0
LTYPE
  2
CONTINUOUS
 70
     0
  3
Solid line
 72
    65
 73
     0
 40
0.0
  0
LTYPE
  2
PHANTOM2
 70
     0
  3
___ _ _ ___ _ _ ___ _ _ ___ _ _
 72
    65
 73
     6
 40
1.25
 49
0.625
 49
-0.125
 49
0.125
 49
-0.125
 49
0.125
 49
-0.125
  0
ENDTAB
  0
TABLE
  2
LAYER
 70
     2
  0
LAYER
  2
0
 70
     0
 62
   255
  6
CONTINUOUS
  0
LAYER
  2
DEFPOINTS
 70
     0
 62
     7
  6
CONTINUOUS
  0
ENDTAB
  0
TABLE
  2
STYLE
 70
     1
  0
STYLE
  2
STANDARD
 70
     0
 40
0.0
 41
0.8
 50
0.0
 71
     0
 42
0.2
  3
txt
  4

  0
ENDTAB
  0
TABLE
  2
VIEW
 70
     0
  0
ENDTAB
  0
TABLE
  2
UCS
 70
     0
  0
ENDTAB
  0
TABLE
  2
APPID
 70
    10
  0
APPID
  2
ACAD
 70
     0
  0
APPID
  2
ACAD_MLEADERVER
 70
     0
  0
APPID
  2
ACAD_EXEMPT_FROM_CAD_STANDARDS
 70
     0
  0
APPID
  2
ACAD_NAV_VCDISPLAY
 70
     0
  0
APPID
  2
ACAECLAYERSTANDARD
 70
     0
  0
APPID
  2
ACCMTRANSPARENCY
 70
     0
  0
APPID
  2
ACAD_DSTYLE_DIMJAG
 70
     0
  0
APPID
  2
ACAD_DSTYLE_DIMTALN
 70
     0
  0
APPID
  2
ACDBATTR
 70
     0
  0
APPID
  2
ACAD_PSEXT
 70
     0
  0
ENDTAB
  0
TABLE
  2
DIMSTYLE
 70
     1
  0
DIMSTYLE
  2
STANDARD
 70
     0
  3

  4

  5

  6

  7

 40
1.0
 41
0.1875
 42
0.0625
 43
0.38
 44
0.125
 45
0.0
 46
0.0
 47
0.01
 48
0.01
140
0.15625
141
0.09
142
0.0
143
25.3999999999999986
144
1.0
145
0.0
146
1.0
147
0.09
 71
     1
 72
     0
 73
     1
 74
     1
 75
     0
 76
     0
 77
     0
 78
     4
170
     0
171
     2
172
     0
173
     0
174
     0
175
     0
176
     0
177
     0
178
     0
  0
ENDTAB
  0
ENDSEC
  0
SECTION
  2
BLOCKS
  0
BLOCK
  8
0
  2
$MODEL_SPACE
 70
     0
 10
0.0
 20
0.0
 30
0.0
  3
$MODEL_SPACE
  1

  0
ENDBLK
  5
21
  8
0
  0
BLOCK
 67
     1
  8
0
  2
$PAPER_SPACE
 70
     0
 10
0.0
 20
0.0
 30
0.0
  3
$PAPER_SPACE
  1

  0
ENDBLK
  5
1D
 67
     1
  8
0
  0
BLOCK
  8
0
  2
_FILLED
 70
     0
 10
0.0
 20
0.0
 30
0.0
  3
_FILLED
  1

  0
SOLID
  5
B630
  8
0
  6
BYBLOCK
 62
     0
 10
0.0
 20
0.0
 30
0.0
 11
-1.0
 21
0.1666666667
 31
0.0
 12
-1.0
 22
-0.1666666667
 32
0.0
 13
-1.0
 23
-0.1666666667
 33
0.0
  0
ENDBLK
  5
B631
  8
0
  6
BYBLOCK
 62
     0
  0
BLOCK
  8
0
  2
_CLOSED
 70
     0
 10
0.0
 20
0.0
 30
0.0
  3
_CLOSED
  1

  0
LINE
  5
ECF3
  8
0
  6
BYBLOCK
 62
     0
 10
0.0
 20
0.0
 30
0.0
 11
-1.0
 21
0.1666666667
 31
0.0
  0
LINE
  5
ECF4
  8
0
  6
BYBLOCK
 62
     0
 10
-1.0
 20
0.1666666667
 30
0.0
 11
-1.0
 21
-0.1666666667
 31
0.0
  0
LINE
  5
ECF5
  8
0
  6
BYBLOCK
 62
     0
 10
-1.0
 20
-0.1666666667
 30
0.0
 11
0.0
 21
0.0
 31
0.0
  0
LINE
  5
ECF6
  8
0
  6
BYBLOCK
 62
     0
 10
-1.0
 20
0.0
 30
0.0
 11
0.0
 21
0.0
 31
0.0
  0
ENDBLK
  5
ECF7
  8
0
  6
BYBLOCK
 62
     0
  0
ENDSEC
  0
SECTION
  2
ENTITIES
  0
ATTDEF
  5
AA11
  8
DEFPOINTS
 10
3630.7796952970288658
 20
155.989669866981103
 30
0.0
 40
0.001
  1
K-20081IN-M
  3

  2
MODELNUMBER
 70
     0
1001
ACDBATTR
1070
     0
1070
     1
  0
ATTDEF
  5
AA12
  8
DEFPOINTS
 10
3630.7796952970288658
 20
155.9880032003144095
 30
0.0
 40
0.001
  1
INSTAFIT
  3

  2
TRADENAME
 70
     0
1001
ACDBATTR
1070
     0
1070
     1
  0
ATTDEF
  5
AA13
  8
DEFPOINTS
 10
3630.7796952970288658
 20
155.9863365336478012
 30
0.0
 40
0.001
  1
IN-WALL TANK AND CARRIER SYSTEM
  3

  2
PRODUCT
 70
     0
1001
ACDBATTR
1070
     0
1070
     1
  0
LINE
  5
FEF9
  8
0
 10
3641.8031884855367935
 20
197.2232249507491133
 30
0.0
 11
3619.7559443911359267
 21
197.2232249507491133
 31
0.0
  0
LINE
  5
FEFA
  8
0
 10
3641.8031884855367935
 20
175.2940910925491096
 30
0.0
 11
3641.8031884855367935
 21
197.2232249507491133
 31
0.0
  0
LINE
  5
FEFB
  8
0
 10
3634.8681491155361982
 20
189.5204651082491125
 30
0.0
 11
3634.8681491155361982
 21
194.9810950295490954
 31
0.0
  0
LINE
  5
FEFC
  8
0
 10
3634.4567317926362193
 20
155.9909414862491133
 30
0.0
 11
3637.6063380918358234
 21
155.9909414862491133
 31
0.0
  0
LINE
  5
FEFD
  8
0
 10
3640.8993252851360012
 20
197.0066895177490949
 30
0.0
 11
3620.6598075915399022
 21
197.0066895177490949
 31
0.0
  0
LINE
  5
FEFE
  8
0
 10
3641.0157869107360966
 20
197.1051147145491029
 30
0.0
 11
3641.0157869107360966
 21
175.2940910925491096
 31
0.0
  0
LINE
  5
FEFF
  8
0
 10
3641.0157869107360966
 20
197.1051147145491029
 30
0.0
 11
3620.5433459659361688
 21
197.1051147145491029
 31
0.0
  0
LINE
  5
FF00
  8
0
 10
3639.8346845485361882
 20
195.9909414862491133
 30
0.0
 11
3639.8346845485361882
 21
195.4791304626490955
 31
0.0
  0
ARC
  5
FF01
  8
0
 10
3639.6968892729860272
 20
195.4791304626490955
 30
0.0
 40
0.1377952755499976
 50
180.0
 51
0.0
  0
LINE
  5
FF02
  8
0
 10
3639.5590939974358662
 20
195.4791304626490955
 30
0.0
 11
3639.5590939974358662
 21
195.9909414862491133
 31
0.0
  0
ARC
  5
FF03
  8
0
 10
3639.6968892729860272
 20
195.9909414862491133
 30
0.0
 40
0.1377952755500011
 50
0.0
 51
180.0
  0
ARC
  5
FF04
  8
0
 10
3635.615206965372181
 20
196.2643818798337065
 30
0.0
 40
0.2135728172145131
 50
111.2877140400364055
 51
182.2516424173894052
  0
ARC
  5
FF05
  8
0
 10
3644.9990106885070418
 20
195.8821696976573037
 30
0.0
 40
9.6044892439166851
 50
177.7693982527509036
 51
180.4709364667318994
  0
LINE
  5
FF06
  8
0
 10
3635.3948458747418044
 20
195.8032275253200112
 30
0.0
 11
3635.394845875036026
 21
188.4712525098400135
 31
0.0
  0
ARC
  5
FF07
  8
0
 10
3635.6220861233359756
 20
188.4712525098491085
 30
0.0
 40
0.2272402482999993
 50
179.9999999999984084
 51
269.999999999687418
  0
LINE
  5
FF08
  8
0
 10
3635.6220861233359756
 20
188.244012261549102
 30
0.0
 11
3640.1687849040658875
 21
188.2440122615253131
 31
0.0
  0
ARC
  5
FF09
  8
0
 10
3640.168784904063159
 20
187.6069862048499886
 30
0.0
 40
0.6370260566752677
 50
55.5641538931651269
 51
89.999999999687347
  0
LINE
  5
FF0A
  8
0
 10
3640.5290123801992195
 20
188.1323797357580077
 30
0.0
 11
3640.5292334662422036
 21
187.2414883375303987
 31
0.0
  0
ARC
  5
FF0B
  8
0
 10
3640.1547490486191236
 20
186.0917823273096019
 30
0.0
 40
1.209157760170142
 50
71.9584363633128419
 51
89.335561761470899
  0
ARC
  5
FF0C
  8
0
 10
3640.1456814721041155
 20
186.3140070350152939
 30
0.0
 40
1.0984499615397461
 50
69.564503464960552
 51
88.7955505104096829
  0
ARC
  5
FF0D
  8
0
 10
3634.4212987219070783
 20
195.8925123525197876
 30
0.0
 40
0.492125984129288
 50
359.9999999801248123
 51
90.000000008233414
  0
LINE
  5
FF0E
  8
0
 10
3634.9134247060369489
 20
195.8925123523490868
 30
0.0
 11
3634.9134247035099179
 21
188.6090477856490963
 31
0.0
  0
ARC
  5
FF0F
  8
0
 10
3634.423547162145951
 20
188.6068031256031929
 30
0.0
 40
0.4898826839469432
 50
270.1349833321290248
 51
0.2625322374442109
  0
CIRCLE
  5
FF10
  8
0
 10
3634.3745943320359402
 20
195.8458079625490882
 30
0.0
 40
0.1771653542999996
  0
LINE
  5
FF11
  8
0
 10
3634.8681491155361982
 20
194.9810950295490954
 30
0.0
 11
3634.7894089580368018
 21
195.0598351870490887
 31
0.0
  0
LINE
  5
FF12
  8
0
 10
3634.5714447257360007
 20
195.0598351870490887
 30
0.0
 11
3634.5714447257360007
 21
195.8458079617491023
 31
0.0
  0
ARC
  5
FF13
  8
0
 10
3634.3745943320359402
 20
195.8458079617491023
 30
0.0
 40
0.1968503937000001
 50
0.0
 51
179.9999995343025034
  0
LINE
  5
FF14
  8
0
 10
3634.1777439383358796
 20
195.8458079633491025
 30
0.0
 11
3634.1777439319480436
 21
195.0598351870490887
 31
0.0
  0
LINE
  5
FF15
  8
0
 10
3640.818931396779135
 20
194.6844936887933102
 30
0.0
 11
3639.2640354903342086
 21
194.6844936891579039
 31
0.0
  0
ARC
  5
FF16
  8
0
 10
3639.2640354903887783
 20
194.9180019147391931
 30
0.0
 40
0.2335082255812928
 50
211.4176295271086019
 51
269.9999999865556219
  0
LINE
  5
FF17
  8
0
 10
3639.0647618016841989
 20
194.7962805591587028
 30
0.0
 11
3638.0312996995357935
 21
196.0476554477490936
 31
0.0
  0
ARC
  5
FF18
  8
0
 10
3637.0772876525297761
 20
195.1705400944998132
 30
0.0
 40
1.2959437984491919
 50
42.5953236122605574
 51
86.035262709150075
  0
LINE
  5
FF19
  8
0
 10
3640.818931396779135
 20
195.061614452557194
 30
0.0
 11
3639.050462626737044
 21
195.0616144518490955
 31
0.0
  0
ARC
  5
FF1A
  8
0
 10
3639.0504626266038031
 20
195.3924112175099879
 30
0.0
 40
0.3307967656608746
 50
231.6530974554196121
 51
270.0000000229284751
  0
LINE
  5
FF1B
  8
0
 10
3638.8452292854080952
 20
195.132977650226195
 30
0.0
 11
3638.0312996995357935
 21
196.0476554477490936
 31
0.0
  0
CIRCLE
  5
FF1C
  8
0
 10
3640.4252357296368245
 20
194.0224375492491049
 30
0.0
 40
0.2755905512000005
  0
LINE
  5
FF1D
  8
0
 10
3640.5236609265371044
 20
194.0792633631490958
 30
0.0
 11
3640.5236609265371044
 21
193.965611735349114
 31
0.0
  0
LINE
  5
FF1E
  8
0
 10
3640.5236609265371044
 20
193.965611735349114
 30
0.0
 11
3640.4252357296368245
 21
193.9087859214490948
 31
0.0
  0
LINE
  5
FF1F
  8
0
 10
3640.4252357296368245
 20
193.9087859214490948
 30
0.0
 11
3640.3268105328370439
 21
193.965611735349114
 31
0.0
  0
LINE
  5
FF20
  8
0
 10
3640.3268105328370439
 20
193.965611735349114
 30
0.0
 11
3640.3268105328370439
 21
194.0792633631490958
 31
0.0
  0
LINE
  5
FF21
  8
0
 10
3640.3268105328370439
 20
194.0792633631490958
 30
0.0
 11
3640.4252357296368245
 21
194.1360891770490866
 31
0.0
  0
LINE
  5
FF22
  8
0
 10
3640.4252357296368245
 20
194.1360891770490866
 30
0.0
 11
3640.5236609265371044
 21
194.0792633631490958
 31
0.0
  0
ARC
  5
FF23
  8
0
 10
3640.2079603114830206
 20
195.8524008283810076
 30
0.0
 40
0.6113606107887966
 50
2.0454078003699232
 51
87.9823978014195944
  0
ARC
  5
FF24
  8
0
 10
3634.443863995519223
 20
195.8492650371954937
 30
0.0
 40
0.0163063116984621
 50
73.9807719347345909
 51
95.6188163105165359
  0
LINE
  5
FF25
  8
0
 10
3634.4422674488819212
 20
195.8654930019490905
 30
0.0
 11
3634.4139808333329711
 21
195.8654933581383943
 31
0.0
  0
ARC
  5
FF26
  8
0
 10
3634.4139638148208178
 20
195.8851777942676904
 30
0.0
 40
0.019684443486141
 50
179.9993221488506947
 51
270.0495360218599785
  0
LINE
  5
FF27
  8
0
 10
3634.3942793713367791
 20
195.8851780271490952
 30
0.0
 11
3634.3942793713367791
 21
195.9134810762490986
 31
0.0
  0
ARC
  5
FF28
  8
0
 10
3634.3780509584062202
 20
195.9150775976810905
 30
0.0
 40
0.0163067552541497
 50
354.3814260029121215
 51
16.0188830401423985
  0
LINE
  5
FF29
  8
0
 10
3634.400044985815839
 20
195.871258616328987
 30
0.0
 11
3634.3942793713367791
 21
195.8654930019490905
 31
0.0
  0
LINE
  5
FF2A
  8
0
 10
3634.3942793713367791
 20
195.8654930019490905
 30
0.0
 11
3634.3942793713367791
 21
195.8261229231490859
 31
0.0
  0
ARC
  5
FF2B
  8
0
 10
3634.443863995519223
 20
195.8423508879027963
 30
0.0
 40
0.0163063116984621
 50
264.381183689483521
 51
286.0192280652653949
  0
LINE
  5
FF2C
  8
0
 10
3634.4422674488819212
 20
195.8261229231490859
 30
0.0
 11
3634.4139808333329711
 21
195.8261225669598957
 31
0.0
  0
ARC
  5
FF2D
  8
0
 10
3634.4139638148208178
 20
195.8064381308305997
 30
0.0
 40
0.019684443486141
 50
89.9504639781399646
 51
180.0006778511493053
  0
LINE
  5
FF2E
  8
0
 10
3634.3942793713367791
 20
195.8064378979491096
 30
0.0
 11
3634.3942793713367791
 21
195.7781348488491062
 31
0.0
  0
ARC
  5
FF2F
  8
0
 10
3634.3780509584062202
 20
195.7765383274171995
 30
0.0
 40
0.0163067552541497
 50
343.9811169598576157
 51
5.6185739970879061
  0
LINE
  5
FF30
  8
0
 10
3634.400044985815839
 20
195.820357308769303
 30
0.0
 11
3634.3942793713367791
 21
195.8261229231490859
 31
0.0
  0
ARC
  5
FF31
  8
0
 10
3634.1896436201341203
 20
195.8455249262891016
 30
0.0
 40
0.2594475837496218
 50
355.708817420461628
 51
4.2911825795351692
  0
ARC
  5
FF32
  8
0
 10
3634.3053246684539772
 20
195.8492650371954937
 30
0.0
 40
0.0163063116984621
 50
84.3811836894834641
 51
106.0192280652653949
  0
LINE
  5
FF33
  8
0
 10
3634.3069212150899148
 20
195.8654930019490905
 30
0.0
 11
3634.3352078306397743
 21
195.8654933581383943
 31
0.0
  0
ARC
  5
FF34
  8
0
 10
3634.3352248491510181
 20
195.8851777942676904
 30
0.0
 40
0.019684443486141
 50
269.9504639781399078
 51
0.000677851149328
  0
LINE
  5
FF35
  8
0
 10
3634.3549092926359663
 20
195.8851780271490952
 30
0.0
 11
3634.3549092926359663
 21
195.9134810762490986
 31
0.0
  0
ARC
  5
FF36
  8
0
 10
3634.37113770556698
 20
195.9150775976810905
 30
0.0
 40
0.0163067552541497
 50
163.9811169598575873
 51
185.6185739970879069
  0
LINE
  5
FF37
  8
0
 10
3634.3491436781559969
 20
195.871258616328987
 30
0.0
 11
3634.3549092926359663
 21
195.8654930019490905
 31
0.0
  0
LINE
  5
FF38
  8
0
 10
3634.3549092926359663
 20
195.8654930019490905
 30
0.0
 11
3634.3549092926359663
 21
195.8261229231490859
 31
0.0
  0
ARC
  5
FF39
  8
0
 10
3634.3053246684539772
 20
195.8423508879027963
 30
0.0
 40
0.0163063116984621
 50
253.9807719347346051
 51
275.618816310516479
  0
LINE
  5
FF3A
  8
0
 10
3634.3069212150899148
 20
195.8261229231490859
 30
0.0
 11
3634.3352078306397743
 21
195.8261225669598957
 31
0.0
  0
ARC
  5
FF3B
  8
0
 10
3634.3352248491510181
 20
195.8064381308305997
 30
0.0
 40
0.019684443486141
 50
359.9993221488506947
 51
90.0495360218600354
  0
LINE
  5
FF3C
  8
0
 10
3634.3549092926359663
 20
195.8064378979491096
 30
0.0
 11
3634.3549092926359663
 21
195.7781348488491062
 31
0.0
  0
ARC
  5
FF3D
  8
0
 10
3634.37113770556698
 20
195.7765383274171995
 30
0.0
 40
0.0163067552541497
 50
174.3814260029120931
 51
196.0188830401424127
  0
LINE
  5
FF3E
  8
0
 10
3634.3491436781559969
 20
195.820357308769303
 30
0.0
 11
3634.3549092926359663
 21
195.8261229231490859
 31
0.0
  0
ARC
  5
FF3F
  8
0
 10
3634.5595450438390799
 20
195.8455249262891016
 30
0.0
 40
0.2594475837496218
 50
175.7088174204648112
 51
184.2911825795384004
  0
ARC
  5
FF40
  8
0
 10
3634.374594331985918
 20
195.6684118613246142
 30
0.0
 40
0.2518931320245664
 50
85.6444373598362745
 51
94.3555626401637113
  0
ARC
  5
FF41
  8
0
 10
3634.374594331985918
 20
196.0232040637737043
 30
0.0
 40
0.2518931320245664
 50
265.6444373598362745
 51
274.3555626401637255
  0
LINE
  5
FF42
  8
0
 10
3634.3549092926359663
 20
195.8654930019490905
 30
0.0
 11
3634.3942793713367791
 21
195.8654930019490905
 31
0.0
  0
LINE
  5
FF43
  8
0
 10
3634.3549092926359663
 20
195.8261229231490859
 30
0.0
 11
3634.3942793713367791
 21
195.8261229231490859
 31
0.0
  0
CIRCLE
  5
FF44
  8
0
 10
3634.5000388792359445
 20
191.8373942421490881
 30
0.0
 40
0.1771653542999996
  0
ARC
  5
FF45
  8
0
 10
3634.5693085427192273
 20
191.8408513167954936
 30
0.0
 40
0.0163063116984621
 50
73.9807719347345909
 51
95.6188163105165359
  0
LINE
  5
FF46
  8
0
 10
3634.567711996082835
 20
191.8570792815490904
 30
0.0
 11
3634.5394253805329754
 21
191.8570796377383942
 31
0.0
  0
ARC
  5
FF47
  8
0
 10
3634.5394083620208221
 20
191.8767640738676903
 30
0.0
 40
0.019684443486141
 50
179.9993221488506947
 51
270.0495360218599785
  0
LINE
  5
FF48
  8
0
 10
3634.5197239185367835
 20
191.8767643067490951
 30
0.0
 11
3634.5197239185367835
 21
191.9050673558490985
 31
0.0
  0
ARC
  5
FF49
  8
0
 10
3634.5034955056062245
 20
191.9066638772810904
 30
0.0
 40
0.0163067552541497
 50
354.3814260029121215
 51
16.0188830401423985
  0
LINE
  5
FF4A
  8
0
 10
3634.5254895330158433
 20
191.8628448959289869
 30
0.0
 11
3634.5197239185367835
 21
191.8570792815490904
 31
0.0
  0
LINE
  5
FF4B
  8
0
 10
3634.5197239185367835
 20
191.8570792815490904
 30
0.0
 11
3634.5197239185367835
 21
191.8177092027491142
 31
0.0
  0
ARC
  5
FF4C
  8
0
 10
3634.5693085427192273
 20
191.8339371675027962
 30
0.0
 40
0.0163063116984621
 50
264.381183689483521
 51
286.0192280652653949
  0
LINE
  5
FF4D
  8
0
 10
3634.567711996082835
 20
191.8177092027491142
 30
0.0
 11
3634.5394253805329754
 21
191.8177088465598956
 31
0.0
  0
ARC
  5
FF4E
  8
0
 10
3634.5394083620208221
 20
191.7980244104304859
 30
0.0
 40
0.019684443486141
 50
89.9504639781399646
 51
180.0006778511493053
  0
LINE
  5
FF4F
  8
0
 10
3634.5197239185367835
 20
191.7980241775491095
 30
0.0
 11
3634.5197239185367835
 21
191.7697211284491061
 31
0.0
  0
ARC
  5
FF50
  8
0
 10
3634.5034955056062245
 20
191.7681246070171994
 30
0.0
 40
0.0163067552541497
 50
343.9811169598576157
 51
5.6185739970879061
  0
LINE
  5
FF51
  8
0
 10
3634.5254895330158433
 20
191.8119435883693029
 30
0.0
 11
3634.5197239185367835
 21
191.8177092027491142
 31
0.0
  0
ARC
  5
FF52
  8
0
 10
3634.3150881673341246
 20
191.8371112058891867
 30
0.0
 40
0.2594475837496218
 50
355.708817420461628
 51
4.2911825795351692
  0
ARC
  5
FF53
  8
0
 10
3634.4307692156539815
 20
191.8408513167954936
 30
0.0
 40
0.0163063116984621
 50
84.3811836894834641
 51
106.0192280652653949
  0
LINE
  5
FF54
  8
0
 10
3634.4323657622899191
 20
191.8570792815490904
 30
0.0
 11
3634.4606523778388691
 21
191.8570796377383942
 31
0.0
  0
ARC
  5
FF55
  8
0
 10
3634.4606693963510224
 20
191.8767640738676903
 30
0.0
 40
0.019684443486141
 50
269.9504639781399078
 51
0.000677851149328
  0
LINE
  5
FF56
  8
0
 10
3634.4803538398359706
 20
191.8767643067490951
 30
0.0
 11
3634.4803538398359706
 21
191.9050673558490985
 31
0.0
  0
ARC
  5
FF57
  8
0
 10
3634.4965822527669843
 20
191.9066638772810904
 30
0.0
 40
0.0163067552541497
 50
163.9811169598575873
 51
185.6185739970879069
  0
LINE
  5
FF58
  8
0
 10
3634.4745882253560012
 20
191.8628448959289869
 30
0.0
 11
3634.4803538398359706
 21
191.8570792815490904
 31
0.0
  0
LINE
  5
FF59
  8
0
 10
3634.4803538398359706
 20
191.8570792815490904
 30
0.0
 11
3634.4803538398359706
 21
191.8177092027491142
 31
0.0
  0
ARC
  5
FF5A
  8
0
 10
3634.4307692156539815
 20
191.8339371675027962
 30
0.0
 40
0.0163063116984621
 50
253.9807719347346051
 51
275.618816310516479
  0
LINE
  5
FF5B
  8
0
 10
3634.4323657622899191
 20
191.8177092027491142
 30
0.0
 11
3634.4606523778388691
 21
191.8177088465598956
 31
0.0
  0
ARC
  5
FF5C
  8
0
 10
3634.4606693963510224
 20
191.7980244104304859
 30
0.0
 40
0.019684443486141
 50
359.9993221488506947
 51
90.0495360218600354
  0
LINE
  5
FF5D
  8
0
 10
3634.4803538398359706
 20
191.7980241775491095
 30
0.0
 11
3634.4803538398359706
 21
191.7697211284491061
 31
0.0
  0
ARC
  5
FF5E
  8
0
 10
3634.4965822527669843
 20
191.7681246070171994
 30
0.0
 40
0.0163067552541497
 50
174.3814260029120931
 51
196.0188830401424127
  0
LINE
  5
FF5F
  8
0
 10
3634.4745882253560012
 20
191.8119435883693029
 30
0.0
 11
3634.4803538398359706
 21
191.8177092027491142
 31
0.0
  0
ARC
  5
FF60
  8
0
 10
3634.6849895910390842
 20
191.8371112058891867
 30
0.0
 40
0.2594475837496218
 50
175.7088174204648112
 51
184.2911825795384004
  0
ARC
  5
FF61
  8
0
 10
3634.5000388791859223
 20
191.6599981409246141
 30
0.0
 40
0.2518931320245664
 50
85.6444373598362745
 51
94.3555626401637113
  0
ARC
  5
FF62
  8
0
 10
3634.5000388791859223
 20
192.0147903433737042
 30
0.0
 40
0.2518931320245664
 50
265.6444373598362745
 51
274.3555626401637255
  0
LINE
  5
FF63
  8
0
 10
3634.4803538398359706
 20
191.8570792815490904
 30
0.0
 11
3634.5197239185367835
 21
191.8570792815490904
 31
0.0
  0
LINE
  5
FF64
  8
0
 10
3634.4803538398359706
 20
191.8177092027491142
 30
0.0
 11
3634.5197239185367835
 21
191.8177092027491142
 31
0.0
  0
CIRCLE
  5
FF65
  8
0
 10
3634.3745943320359402
 20
188.6557521752490914
 30
0.0
 40
0.1771653542999996
  0
ARC
  5
FF66
  8
0
 10
3634.443863995519223
 20
188.6592092498954969
 30
0.0
 40
0.0163063116984621
 50
73.9807719347345909
 51
95.6188163105165359
  0
LINE
  5
FF67
  8
0
 10
3634.4422674488819212
 20
188.6754372146490937
 30
0.0
 11
3634.4139808333329711
 21
188.6754375708383975
 31
0.0
  0
ARC
  5
FF68
  8
0
 10
3634.4139638148208178
 20
188.6951220069676936
 30
0.0
 40
0.019684443486141
 50
179.9993221488506947
 51
270.0495360218599785
  0
LINE
  5
FF69
  8
0
 10
3634.3942793713367791
 20
188.6951222398490984
 30
0.0
 11
3634.3942793713367791
 21
188.7234252889491017
 31
0.0
  0
ARC
  5
FF6A
  8
0
 10
3634.3780509584062202
 20
188.7250218103810937
 30
0.0
 40
0.0163067552541497
 50
354.3814260029121215
 51
16.0188830401423985
  0
LINE
  5
FF6B
  8
0
 10
3634.400044985815839
 20
188.6812028290289902
 30
0.0
 11
3634.3942793713367791
 21
188.6754372146490937
 31
0.0
  0
LINE
  5
FF6C
  8
0
 10
3634.3942793713367791
 20
188.6754372146490937
 30
0.0
 11
3634.3942793713367791
 21
188.636067135849089
 31
0.0
  0
ARC
  5
FF6D
  8
0
 10
3634.443863995519223
 20
188.6522951006027995
 30
0.0
 40
0.0163063116984621
 50
264.381183689483521
 51
286.0192280652653949
  0
LINE
  5
FF6E
  8
0
 10
3634.4422674488819212
 20
188.636067135849089
 30
0.0
 11
3634.4139808333329711
 21
188.6360667796598989
 31
0.0
  0
ARC
  5
FF6F
  8
0
 10
3634.4139638148208178
 20
188.6163823435304892
 30
0.0
 40
0.019684443486141
 50
89.9504639781399646
 51
180.0006778511493053
  0
LINE
  5
FF70
  8
0
 10
3634.3942793713367791
 20
188.6163821106491127
 30
0.0
 11
3634.3942793713367791
 21
188.5880790615491094
 31
0.0
  0
ARC
  5
FF71
  8
0
 10
3634.3780509584062202
 20
188.5864825401172027
 30
0.0
 40
0.0163067552541497
 50
343.9811169598576157
 51
5.6185739970879061
  0
LINE
  5
FF72
  8
0
 10
3634.400044985815839
 20
188.6303015214693062
 30
0.0
 11
3634.3942793713367791
 21
188.636067135849089
 31
0.0
  0
ARC
  5
FF73
  8
0
 10
3634.1896436201341203
 20
188.65546913898919
 30
0.0
 40
0.2594475837496218
 50
355.708817420461628
 51
4.2911825795351692
  0
ARC
  5
FF74
  8
0
 10
3634.3053246684539772
 20
188.6592092498954969
 30
0.0
 40
0.0163063116984621
 50
84.3811836894834641
 51
106.0192280652653949
  0
LINE
  5
FF75
  8
0
 10
3634.3069212150899148
 20
188.6754372146490937
 30
0.0
 11
3634.3352078306397743
 21
188.6754375708383975
 31
0.0
  0
ARC
  5
FF76
  8
0
 10
3634.3352248491510181
 20
188.6951220069676936
 30
0.0
 40
0.019684443486141
 50
269.9504639781399078
 51
0.000677851149328
  0
LINE
  5
FF77
  8
0
 10
3634.3549092926359663
 20
188.6951222398490984
 30
0.0
 11
3634.3549092926359663
 21
188.7234252889491017
 31
0.0
  0
ARC
  5
FF78
  8
0
 10
3634.37113770556698
 20
188.7250218103810937
 30
0.0
 40
0.0163067552541497
 50
163.9811169598575873
 51
185.6185739970879069
  0
LINE
  5
FF79
  8
0
 10
3634.3491436781559969
 20
188.6812028290289902
 30
0.0
 11
3634.3549092926359663
 21
188.6754372146490937
 31
0.0
  0
LINE
  5
FF7A
  8
0
 10
3634.3549092926359663
 20
188.6754372146490937
 30
0.0
 11
3634.3549092926359663
 21
188.636067135849089
 31
0.0
  0
ARC
  5
FF7B
  8
0
 10
3634.3053246684539772
 20
188.6522951006027995
 30
0.0
 40
0.0163063116984621
 50
253.9807719347346051
 51
275.618816310516479
  0
LINE
  5
FF7C
  8
0
 10
3634.3069212150899148
 20
188.636067135849089
 30
0.0
 11
3634.3352078306397743
 21
188.6360667796598989
 31
0.0
  0
ARC
  5
FF7D
  8
0
 10
3634.3352248491510181
 20
188.6163823435304892
 30
0.0
 40
0.019684443486141
 50
359.9993221488506947
 51
90.0495360218600354
  0
LINE
  5
FF7E
  8
0
 10
3634.3549092926359663
 20
188.6163821106491127
 30
0.0
 11
3634.3549092926359663
 21
188.5880790615491094
 31
0.0
  0
ARC
  5
FF7F
  8
0
 10
3634.37113770556698
 20
188.5864825401172027
 30
0.0
 40
0.0163067552541497
 50
174.3814260029120931
 51
196.0188830401424127
  0
LINE
  5
FF80
  8
0
 10
3634.3491436781559969
 20
188.6303015214693062
 30
0.0
 11
3634.3549092926359663
 21
188.636067135849089
 31
0.0
  0
ARC
  5
FF81
  8
0
 10
3634.5595450438390799
 20
188.65546913898919
 30
0.0
 40
0.2594475837496218
 50
175.7088174204648112
 51
184.2911825795384004
  0
ARC
  5
FF82
  8
0
 10
3634.374594331985918
 20
188.4783560740245889
 30
0.0
 40
0.2518931320245664
 50
85.6444373598362745
 51
94.3555626401637113
  0
ARC
  5
FF83
  8
0
 10
3634.374594331985918
 20
188.8331482764737075
 30
0.0
 40
0.2518931320245664
 50
265.6444373598362745
 51
274.3555626401637255
  0
LINE
  5
FF84
  8
0
 10
3634.3549092926359663
 20
188.6754372146490937
 30
0.0
 11
3634.3942793713367791
 21
188.6754372146490937
 31
0.0
  0
LINE
  5
FF85
  8
0
 10
3634.3549092926359663
 20
188.636067135849089
 30
0.0
 11
3634.3942793713367791
 21
188.636067135849089
 31
0.0
  0
LINE
  5
FF86
  8
0
 10
3634.8681491155361982
 20
189.5204651082491125
 30
0.0
 11
3634.7894089580368018
 21
189.4417249507490908
 31
0.0
  0
LINE
  5
FF87
  8
0
 10
3634.5714447257360007
 20
189.4417249507490908
 30
0.0
 11
3634.5714447257360007
 21
188.6557521752490914
 31
0.0
  0
ARC
  5
FF88
  8
0
 10
3634.3745943320359402
 20
188.6557521752490914
 30
0.0
 40
0.1968503937000001
 50
179.9999997671503991
 51
0.0
  0
LINE
  5
FF89
  8
0
 10
3634.1777439383358796
 20
188.6557521760491909
 30
0.0
 11
3634.177743941530025
 21
189.4417249507490908
 31
0.0
  0
LINE
  5
FF8A
  8
0
 10
3641.0157869107360966
 20
193.6287367618490975
 30
0.0
 11
3640.818931396779135
 21
193.6287367618490975
 31
0.0
  0
LINE
  5
FF8B
  8
0
 10
3640.818931396779135
 20
195.8742212169331083
 30
0.0
 11
3640.818931396779135
 21
177.6827560042316065
 31
0.0
  0
ARC
  5
FF8C
  8
0
 10
3640.2294835284537839
 20
177.682757633675493
 30
0.0
 40
0.5894478683267294
 50
270.0000655807488101
 51
359.9998416140568906
  0
LINE
  5
FF8D
  8
0
 10
3640.2294842031360531
 20
177.0933097653490904
 30
0.0
 11
3636.9585409401561265
 21
177.0933097653490904
 31
0.0
  0
ARC
  5
FF8E
  8
0
 10
3636.9585409401561265
 20
177.6838243160977981
 30
0.0
 40
0.5905145507486873
 50
179.9612531647157141
 51
270.0
  0
LINE
  5
FF8F
  8
0
 10
3636.3680265244361181
 20
177.6842236573490936
 30
0.0
 11
3636.3681288090679118
 21
177.8354741217119965
 31
0.0
  0
ARC
  5
FF90
  8
0
 10
3636.2562413948398898
 20
177.823166444012088
 30
0.0
 40
0.1125623044947161
 50
6.277329927438962
 51
104.443337306597499
  0
ARC
  5
FF91
  8
0
 10
16141.3381771603399102
 20
-78788.4954452538659098
 30
0.0
 40
79950.4500731475272914
 50
98.9986244043202248
 51
99.0004417980304794
  0
ARC
  5
FF92
  8
0
 10
3633.0782310329409484
 20
181.6714100023891092
 30
0.0
 40
4.1859517013720247
 50
268.4425862441963773
 51
278.8661268586506026
  0
CIRCLE
  5
FF93
  8
0
 10
3640.2677554147371666
 20
177.8807052657490999
 30
0.0
 40
0.1377952755999985
  0
LINE
  5
FF94
  8
0
 10
3637.8652767522357863
 20
177.0933097653490904
 30
0.0
 11
3637.8652767522357863
 21
178.0287109039491042
 31
0.0
  0
ARC
  5
FF95
  8
0
 10
3638.3160781579322247
 20
177.7915419438812989
 30
0.0
 40
0.5093829826341147
 50
94.3752980579975826
 51
152.2509091397350005
  0
ARC
  5
FF96
  8
0
 10
3645.0532516934599698
 20
138.3298427728315971
 30
0.0
 40
40.5398985489375008
 50
97.134237696641776
 51
99.6218539950998263
  0
ARC
  5
FF97
  8
0
 10
3639.8658346203660585
 20
179.5255463884745097
 30
0.0
 40
0.9816011380481025
 50
278.942745639532518
 51
346.1585258225072721
  0
ARC
  5
FF98
  8
0
 10
3639.699641427224833
 20
179.8338157144447109
 30
0.0
 40
1.552231322993783
 50
270.3801007106691827
 51
316.1440926790575077
  0
LINE
  5
FF99
  8
0
 10
3639.7099388680890115
 20
178.2816185482332969
 30
0.0
 11
3639.7128536165291735
 21
177.0933097653490904
 31
0.0
  0
LINE
  5
FF9A
  8
0
 10
3637.6693302178359772
 20
175.2940910925491096
 30
0.0
 11
3641.8031884855367935
 21
175.2940910925491096
 31
0.0
  0
LINE
  5
FF9B
  8
0
 10
3636.0945270682359478
 20
176.8688942421491106
 30
0.0
 11
3641.0157869107360966
 21
176.8688942421491106
 31
0.0
  0
LINE
  5
FF9C
  8
0
 10
3636.0945270682359478
 20
176.8688942421491106
 30
0.0
 11
3636.0945270682359478
 21
156.1877918799492022
 31
0.0
  0
LINE
  5
FF9D
  8
0
 10
3637.6693302178359772
 20
175.2940910925491096
 30
0.0
 11
3637.6693302178359772
 21
156.1877918799492022
 31
0.0
  0
CIRCLE
  5
FF9E
  8
0
 10
3636.8819286430370994
 20
173.7980281003490859
 30
0.0
 40
0.2460629921000006
  0
LINE
  5
FF9F
  8
0
 10
3634.4567317926362193
 20
156.1877918799490885
 30
0.0
 11
3637.6693302178359772
 21
156.1877918799492022
 31
0.0
  0
LINE
  5
FFA0
  8
0
 10
3634.4567317926362193
 20
156.1877918799490885
 30
0.0
 11
3634.4567317926362193
 21
155.9909414862491133
 31
0.0
  0
LINE
  5
FFA1
  8
0
 10
3637.6063380918358234
 20
156.1877918799490885
 30
0.0
 11
3637.6063380918358234
 21
155.9909414862491133
 31
0.0
  0
LINE
  5
FFA2
  8
0
 10
3633.5515095182367986
 20
184.9545674098490906
 30
0.0
 11
3634.218629284337112
 21
184.954567419649095
 31
0.0
  0
ARC
  5
FFA3
  8
0
 10
3634.2661199533258696
 20
184.5145635454057071
 30
0.0
 40
0.4425593440322747
 50
263.8397830779675246
 51
96.1602232114965005
  0
LINE
  5
FFA4
  8
0
 10
3634.2186293326358282
 20
184.0745596659490957
 30
0.0
 11
3633.5486569443801272
 21
184.0745596022470068
 31
0.0
  0
ARC
  5
FFA5
  8
0
 10
3633.5471330852278697
 20
184.5145730690423136
 30
0.0
 40
0.4400161055097114
 50
89.430122506971145
 51
270.1984265381053092
  0
LINE
  5
FFA6
  8
0
 10
3633.6106350914360519
 20
184.6066313170491071
 30
0.0
 11
3633.8343131043361609
 21
184.606631328149092
 31
0.0
  0
ARC
  5
FFA7
  8
0
 10
3633.827053560530203
 20
184.5145635333545044
 30
0.0
 40
0.09235355875455
 50
274.5084445441602838
 51
85.4915569494321659
  0
LINE
  5
FFA8
  8
0
 10
3633.8343131067358627
 20
184.4224957387490917
 30
0.0
 11
3633.6106350914360519
 21
184.4224957440183061
 31
0.0
  0
ARC
  5
FFA9
  8
0
 10
3633.6106350936061062
 20
184.5145635305337066
 30
0.0
 40
0.0920677865153916
 50
90.0000013497325284
 51
269.9999986502675142
  0
LINE
  5
FFAA
  8
0
 10
3633.5515095182367986
 20
181.8002598495392022
 30
0.0
 11
3634.218629284337112
 21
181.8002598593392065
 31
0.0
  0
ARC
  5
FFAB
  8
0
 10
3634.2661199533258696
 20
181.360255985095705
 30
0.0
 40
0.4425593440322747
 50
263.8397830779675246
 51
96.1602232114965005
  0
LINE
  5
FFAC
  8
0
 10
3634.2186293326358282
 20
180.9202521056392072
 30
0.0
 11
3633.5486569443801272
 21
180.9202520419370046
 31
0.0
  0
ARC
  5
FFAD
  8
0
 10
3633.5471330852278697
 20
181.3602655087323114
 30
0.0
 40
0.4400161055097114
 50
89.430122506971145
 51
270.1984265381053092
  0
LINE
  5
FFAE
  8
0
 10
3633.6106350914360519
 20
181.4523237567391902
 30
0.0
 11
3633.8343131043361609
 21
181.4523237678392036
 31
0.0
  0
ARC
  5
FFAF
  8
0
 10
3633.827053560530203
 20
181.3602559730445876
 30
0.0
 40
0.09235355875455
 50
274.5084445441602838
 51
85.4915569494321659
  0
LINE
  5
FFB0
  8
0
 10
3633.8343131067358627
 20
181.2681881784392033
 30
0.0
 11
3633.6106350914360519
 21
181.2681881837083893
 31
0.0
  0
ARC
  5
FFB1
  8
0
 10
3633.6106350936061062
 20
181.3602559702237897
 30
0.0
 40
0.0920677865153916
 50
90.0000013497325284
 51
269.9999986502675142
  0
LINE
  5
FFB2
  8
0
 10
3636.0945270682359478
 20
159.4161383366491123
 30
0.0
 11
3625.4646058084358629
 21
159.4161383366491123
 31
0.0
  0
LINE
  5
FFB3
  8
0
 10
3636.0945270682359478
 20
157.8413351870491113
 30
0.0
 11
3625.4646058084358629
 21
157.8413351870491113
 31
0.0
  0
LINE
  5
FFB4
  8
0
 10
3635.6220861233359756
 20
157.5066897661222924
 30
0.0
 11
3635.3858656509360117
 21
157.5066877294491121
 31
0.0
  0
LINE
  5
FFB5
  8
0
 10
3635.3858656509360117
 20
157.5066877294491121
 30
0.0
 11
3635.3858656509360117
 21
156.8373999676491053
 31
0.0
  0
LINE
  5
FFB6
  8
0
 10
3635.8313380910749402
 20
157.5584593816309962
 30
0.0
 11
3636.0427554145680915
 21
157.5584593831742097
 31
0.0
  0
LINE
  5
FFB7
  8
0
 10
3635.6220861233359756
 20
157.5066897661222924
 30
0.0
 11
3635.6220861233359756
 21
156.8373979309760102
 31
0.0
  0
LINE
  5
FFB8
  8
0
 10
3635.6220861233359756
 20
157.5017769203491014
 30
0.0
 11
3635.6378341548370372
 21
157.501759595549089
 31
0.0
  0
LINE
  5
FFB9
  8
0
 10
3635.6378341548370372
 20
157.501759595549089
 30
0.0
 11
3635.6378341548370372
 21
156.8423281015491
 31
0.0
  0
LINE
  5
FFBA
  8
0
 10
3635.6378341548370372
 20
157.3334611713490858
 30
0.0
 11
3635.7804984560498269
 21
157.3334611713490858
 31
0.0
  0
LINE
  5
FFBB
  8
0
 10
3635.4376373044360662
 20
157.1720438485490945
 30
0.0
 11
3635.6220861233359756
 21
157.1720438485490945
 31
0.0
  0
ARC
  5
FFBC
  8
0
 10
3635.8963711986170892
 20
157.4618554993438124
 30
0.0
 40
0.1164543485884323
 50
123.9481837239172961
 51
236.0518162666872968
  0
LINE
  5
FFBD
  8
0
 10
3635.8313380918211806
 20
157.3652516157490879
 30
0.0
 11
3636.0427554147518094
 21
157.3652516157490879
 31
0.0
  0
ARC
  5
FFBE
  8
0
 10
3635.6816778099441763
 20
157.3392236767163013
 30
0.0
 40
0.2958122094743907
 50
145.5200812166442006
 51
214.4130740067577108
  0
LINE
  5
FFBF
  8
0
 10
3635.6220861233359756
 20
156.8373979309760102
 30
0.0
 11
3635.3858656509360117
 21
156.8373999676491053
 31
0.0
  0
LINE
  5
FFC0
  8
0
 10
3635.8313328864041978
 20
156.7856335199379885
 30
0.0
 11
3636.0427554146640432
 21
156.7856283138767992
 31
0.0
  0
LINE
  5
FFC1
  8
0
 10
3635.6220861233359756
 20
156.8423107767490876
 30
0.0
 11
3635.6378341548370372
 21
156.8423281015491
 31
0.0
  0
LINE
  5
FFC2
  8
0
 10
3635.6378341548370372
 20
157.0106265257491032
 30
0.0
 11
3635.7804984560498269
 21
157.0106265257491032
 31
0.0
  0
ARC
  5
FFC3
  8
0
 10
3635.8963696741179774
 20
156.882233047999307
 30
0.0
 40
0.1164527918662995
 50
123.9477950858878046
 51
236.0491178805758921
  0
LINE
  5
FFC4
  8
0
 10
3635.8313380919357769
 20
156.9788360813491011
 30
0.0
 11
3636.0427554148018316
 21
156.9788360813491011
 31
0.0
  0
ARC
  5
FFC5
  8
0
 10
3635.6816778099441763
 20
157.0048640203820014
 30
0.0
 40
0.2958122094743907
 50
145.5869259932422892
 51
214.4799187833557994
  0
LINE
  5
FFC6
  8
0
 10
3635.7795664383361327
 20
157.5066895178491109
 30
0.0
 11
3635.7795664383361327
 21
156.8373981792491065
 31
0.0
  0
ARC
  5
FFC7
  8
0
 10
3636.1668538203011849
 20
157.1720438486497073
 30
0.0
 40
0.3871692721857992
 50
150.0643784880248006
 51
209.9356215463299122
  0
LINE
  5
FFC8
  8
0
 10
3635.7795664383361327
 20
157.5066895178491109
 30
0.0
 11
3635.808504823669864
 21
157.5382826899171107
 31
0.0
  0
LINE
  5
FFC9
  8
0
 10
3635.7795664383361327
 20
156.8373981792491065
 30
0.0
 11
3635.8112696490748021
 21
156.8027394100706999
 31
0.0
  0
CIRCLE
  5
FFCA
  8
0
 10
3634.3228976846357909
 20
166.0184655625490961
 30
0.0
 40
0.2657480314999994
  0
CIRCLE
  5
FFCB
  8
0
 10
3635.307149653137003
 20
166.0184655625490961
 30
0.0
 40
0.2657480314999994
  0
CIRCLE
  5
FFCC
  8
0
 10
3630.7795664383370422
 20
167.4285241633490955
 30
0.0
 40
0.8858267716999996
  0
CIRCLE
  5
FFCD
  8
0
 10
3630.7795664383370422
 20
167.4285241633490955
 30
0.0
 40
0.9842519685000006
  0
CIRCLE
  5
FFCE
  8
0
 10
3630.7795664383370422
 20
167.4285241633490955
 30
0.0
 40
1.1515748030999999
  0
ARC
  5
FFCF
  8
0
 10
3630.7795664383370422
 20
167.4285241633490955
 30
0.0
 40
1.1909448818999999
 50
295.1375862754006789
 51
244.8624137245992927
  0
LINE
  5
FFD0
  8
0
 10
3631.3024598350998531
 20
168.1435567256023091
 30
0.0
 11
3631.2551373966871324
 21
168.0871610158768874
 31
0.0
  0
ARC
  5
FFD1
  8
0
 10
3631.2726294758808763
 20
168.072483164594189
 30
0.0
 40
0.0228344510070734
 50
139.9995116161996975
 51
230.0004884957400861
  0
LINE
  5
FFD2
  8
0
 10
3631.2579519228370373
 20
168.0549908351491126
 30
0.0
 11
3631.3134453031229896
 21
168.0084271664644859
 31
0.0
  0
ARC
  5
FFD3
  8
0
 10
3631.3281479563561334
 20
168.025635714485901
 30
0.0
 40
0.0226340923626518
 50
229.4900584584088961
 51
320.5083916791011234
  0
LINE
  5
FFD4
  8
0
 10
3631.3456150868860277
 20
168.0112412194222884
 30
0.0
 11
3631.3929362601661524
 21
168.0676380273278028
 31
0.0
  0
LINE
  5
FFD5
  8
0
 10
3630.83862155643601
 20
166.5446680876860057
 30
0.0
 11
3630.83862155643601
 21
166.6824204297491008
 31
0.0
  0
ARC
  5
FFD6
  8
0
 10
3630.7992514777361066
 20
166.6824204297491008
 30
0.0
 40
0.0393700786999993
 50
0.0000000000016284
 51
90.0
  0
LINE
  5
FFD7
  8
0
 10
3630.7992514777361066
 20
166.7217905084490894
 30
0.0
 11
3630.7598813989370683
 21
166.7217905084490894
 31
0.0
  0
ARC
  5
FFD8
  8
0
 10
3630.7598813989370683
 20
166.6824204297491008
 30
0.0
 40
0.0393700786999993
 50
90.0
 51
180.0000000000015916
  0
LINE
  5
FFD9
  8
0
 10
3630.7205113202358007
 20
166.6824204297491008
 30
0.0
 11
3630.7205113202358007
 21
166.5446680876860057
 31
0.0
  0
LINE
  5
FFDA
  8
0
 10
3631.5165364972631323
 20
166.9370323508985052
 30
0.0
 11
3631.4527007094770852
 21
166.9737049762543961
 31
0.0
  0
ARC
  5
FFDB
  8
0
 10
3631.464075341876196
 20
166.9935047209648076
 30
0.0
 40
0.0228344510070734
 50
150.1223538461649127
 51
240.1233307256989917
  0
LINE
  5
FFDC
  8
0
 10
3631.4442757911028821
 20
167.0048796909424027
 30
0.0
 11
3631.4803622103941052
 21
167.067692594392895
 31
0.0
  0
ARC
  5
FFDD
  8
0
 10
3631.5000876986919138
 20
167.0565927183369865
 30
0.0
 40
0.0226340923626518
 50
59.6144506627954698
 51
150.632783883478595
  0
LINE
  5
FFDE
  8
0
 10
3631.5115363895552036
 20
167.0761178205040096
 30
0.0
 11
3631.5753713672461345
 21
167.0394437287556002
 31
0.0
  0
LINE
  5
FFDF
  8
0
 10
3630.2566730415737766
 20
168.1435567256023091
 30
0.0
 11
3630.303995479985133
 21
168.0871610158768874
 31
0.0
  0
ARC
  5
FFE0
  8
0
 10
3630.2865034007918439
 20
168.072483164594189
 30
0.0
 40
0.0228344510070734
 50
309.9995115042598854
 51
40.0004883838002669
  0
LINE
  5
FFE1
  8
0
 10
3630.3011809538361376
 20
168.0549908351491126
 30
0.0
 11
3630.2456875735488211
 21
168.0084271664644859
 31
0.0
  0
ARC
  5
FFE2
  8
0
 10
3630.230984920316132
 20
168.025635714485901
 30
0.0
 40
0.0226340923626518
 50
219.491608320898905
 51
310.5099415415911039
  0
LINE
  5
FFE3
  8
0
 10
3630.213517789785783
 20
168.0112412194222884
 30
0.0
 11
3630.1661966165070226
 21
168.0676380273278028
 31
0.0
  0
LINE
  5
FFE4
  8
0
 10
3630.0425963794100426
 20
166.9370323508985052
 30
0.0
 11
3630.1064321671951802
 21
166.9737049762543961
 31
0.0
  0
ARC
  5
FFE5
  8
0
 10
3630.0950575347969789
 20
166.9935047209648076
 30
0.0
 40
0.0228344510070734
 50
299.8766692743009799
 51
29.8776461538351299
  0
LINE
  5
FFE6
  8
0
 10
3630.1148570855689286
 20
167.0048796909424027
 30
0.0
 11
3630.0787706662790697
 21
167.067692594392895
 31
0.0
  0
ARC
  5
FFE7
  8
0
 10
3630.0590451779798968
 20
167.0565927183369865
 30
0.0
 40
0.0226340923626518
 50
29.3672161165213907
 51
120.3855493372044947
  0
LINE
  5
FFE8
  8
0
 10
3630.0475964871188808
 20
167.0761178205040096
 30
0.0
 11
3629.9837615094270404
 21
167.0394437287556002
 31
0.0
  0
LINE
  5
FFE9
  8
0
 10
3632.2207132006360553
 20
167.1515343294491061
 30
0.0
 11
3636.0945270682359478
 21
167.1515343294491061
 31
0.0
  0
LINE
  5
FFEA
  8
0
 10
3631.2854719501360705
 20
166.3940271163426132
 30
0.0
 11
3631.2854719501360705
 21
166.2160550778849881
 31
0.0
  0
LINE
  5
FFEB
  8
0
 10
3632.4921648635368001
 20
176.8177131397490882
 30
0.0
 11
3629.06696801313592
 21
176.8177131397490882
 31
0.0
  0
LINE
  5
FFEC
  8
0
 10
3632.3149995092371682
 20
176.6996029035491063
 30
0.0
 11
3629.2441333674360067
 21
176.6996029035491063
 31
0.0
  0
LINE
  5
FFED
  8
0
 10
3632.3149995092371682
 20
175.7940910925491096
 30
0.0
 11
3629.2441333674360067
 21
175.7940910925491096
 31
0.0
  0
LINE
  5
FFEE
  8
0
 10
3632.2362593517359528
 20
175.5972406988491059
 30
0.0
 11
3629.3228735249358579
 21
175.5972406988491059
 31
0.0
  0
LINE
  5
FFEF
  8
0
 10
3632.0787790367357957
 20
175.2625950295490895
 30
0.0
 11
3629.480353839936015
 21
175.2625950295490895
 31
0.0
  0
LINE
  5
FFF0
  8
0
 10
3632.4921648635368001
 20
177.013915150449094
 30
0.0
 11
3632.4921648635368001
 21
176.8177131397490882
 31
0.0
  0
LINE
  5
FFF1
  8
0
 10
3632.4921648635368001
 20
176.8177131397490882
 30
0.0
 11
3632.3149995092371682
 21
176.6996029035491063
 31
0.0
  0
LINE
  5
FFF2
  8
0
 10
3632.3149995092371682
 20
176.6996029035491063
 30
0.0
 11
3632.3149995092371682
 21
175.7940910925840967
 31
0.0
  0
ARC
  5
FFF3
  8
0
 10
3632.5216924226360788
 20
175.5972406988491059
 30
0.0
 40
0.2854330708999821
 50
136.3971810242767901
 51
180.0
  0
LINE
  5
FFF4
  8
0
 10
3631.893739666636975
 20
175.2625950295490895
 30
0.0
 11
3631.893739666636975
 21
175.1677899220491099
 31
0.0
  0
ARC
  5
FFF5
  8
0
 10
3631.853288344664179
 20
175.1681197319809087
 30
0.0
 40
0.0404526664622798
 50
293.5463735586600933
 51
359.5328632661119741
  0
ARC
  5
FFF6
  8
0
 10
3631.8727170448210018
 20
175.125374557099093
 30
0.0
 40
0.0065364332842835
 50
120.0000004265844069
 51
239.999999653560991
  0
ARC
  5
FFF7
  8
0
 10
3631.8532883446669075
 20
175.0826293822184141
 30
0.0
 40
0.0404526664588907
 50
0.4671367323670772
 51
66.4536264322444055
  0
LINE
  5
FFF8
  8
0
 10
3631.893739666636975
 20
175.0829591921491044
 30
0.0
 11
3631.8937396664591688
 21
174.9709395283491062
 31
0.0
  0
ARC
  5
FFF9
  8
0
 10
3632.0787790367357957
 20
175.3413351870491113
 30
0.0
 40
0.0787401574999951
 50
270.0
 51
0.0000000000016284
  0
LINE
  5
FFFA
  8
0
 10
3632.1575191942370111
 20
175.3413351870491113
 30
0.0
 11
3632.1575191942370111
 21
175.5972406988491059
 31
0.0
  0
LINE
  5
FFFB
  8
0
 10
3631.8694488281371378
 20
175.1310352743493013
 30
0.0
 11
3629.6896840485360372
 21
175.1310352743493013
 31
0.0
  0
LINE
  5
FFFC
  8
0
 10
3631.869448828143959
 20
175.1197138398445929
 30
0.0
 11
3629.6896840485278517
 21
175.1197138398445929
 31
0.0
  0
ARC
  5
FFFD
  8
0
 10
3631.8532883444868276
 20
174.971269338280905
 30
0.0
 40
0.0404526664622798
 50
293.5463735586600933
 51
359.5328632661119741
  0
ARC
  5
FFFE
  8
0
 10
3631.8727170446431955
 20
174.9285241633990893
 30
0.0
 40
0.0065364332842835
 50
120.0000004265844069
 51
239.999999653560991
  0
ARC
  5
FFFF
  8
0
 10
3631.8532883444900108
 20
174.8857789885184104
 30
0.0
 40
0.0404526664588907
 50
0.4671367323670772
 51
66.4536264322444055
  0
LINE
  5
10000
  8
0
 10
3631.8937396664591688
 20
174.8861087984491007
 30
0.0
 11
3631.8937396662809078
 21
174.7740891346491026
 31
0.0
  0
LINE
  5
10001
  8
0
 10
3631.8694488279588768
 20
174.9341848806492123
 30
0.0
 11
3629.6896840487138434
 21
174.9341848806492123
 31
0.0
  0
LINE
  5
10002
  8
0
 10
3631.8694488279670622
 20
174.922863446144504
 30
0.0
 11
3629.6896840487061127
 21
174.922863446144504
 31
0.0
  0
ARC
  5
10003
  8
0
 10
3631.8532883443090213
 20
174.7744189445809013
 30
0.0
 40
0.0404526664622798
 50
293.5463735586600933
 51
359.5328632661119741
  0
ARC
  5
10004
  8
0
 10
3631.8727170444658441
 20
174.731673769699114
 30
0.0
 40
0.0065364332842835
 50
120.0000004265844069
 51
239.999999653560991
  0
ARC
  5
10005
  8
0
 10
3631.8532883443131141
 20
174.6889285948184067
 30
0.0
 40
0.0404526664588907
 50
0.4671367323670772
 51
66.4536264322444055
  0
LINE
  5
10006
  8
0
 10
3631.8937396662809078
 20
174.6892584047490971
 30
0.0
 11
3631.8937396661040111
 21
174.5772387409490989
 31
0.0
  0
LINE
  5
10007
  8
0
 10
3631.8694488277819801
 20
174.7373344869492087
 30
0.0
 11
3629.6896840488911948
 21
174.7373344869492087
 31
0.0
  0
LINE
  5
10008
  8
0
 10
3631.8694488277888013
 20
174.7260130524445003
 30
0.0
 11
3629.6896840488839189
 21
174.7260130524445003
 31
0.0
  0
ARC
  5
10009
  8
0
 10
3631.8532883441321246
 20
174.5775685508808976
 30
0.0
 40
0.0404526664622798
 50
293.5463735586600933
 51
359.5328632661119741
  0
ARC
  5
1000A
  8
0
 10
3631.8727170442880379
 20
174.5348233759989967
 30
0.0
 40
0.0065364332842835
 50
120.0000004265844069
 51
239.999999653560991
  0
ARC
  5
1000B
  8
0
 10
3631.8532883441348531
 20
174.4920782011184031
 30
0.0
 40
0.0404526664588907
 50
0.4671367323670772
 51
66.4536264322444055
  0
LINE
  5
1000C
  8
0
 10
3631.8937396661040111
 20
174.4924080110490934
 30
0.0
 11
3631.8937396659262049
 21
174.3803883472490952
 31
0.0
  0
LINE
  5
1000D
  8
0
 10
3631.8694488276041739
 20
174.540484093249205
 30
0.0
 11
3629.6896840490680916
 21
174.540484093249205
 31
0.0
  0
LINE
  5
1000E
  8
0
 10
3631.8694488276119046
 20
174.5291626587444966
 30
0.0
 11
3629.6896840490599061
 21
174.5291626587444966
 31
0.0
  0
ARC
  5
1000F
  8
0
 10
3631.8532883439538637
 20
174.3807181571808087
 30
0.0
 40
0.0404526664622798
 50
293.5463735586600933
 51
359.5328632661119741
  0
ARC
  5
10010
  8
0
 10
3631.8727170441111411
 20
174.337972982298993
 30
0.0
 40
0.0065364332842835
 50
120.0000004265844069
 51
239.999999653560991
  0
ARC
  5
10011
  8
0
 10
3631.8532883439579564
 20
174.2952278074183141
 30
0.0
 40
0.0404526664588907
 50
0.4671367323670772
 51
66.4536264322444055
  0
LINE
  5
10012
  8
0
 10
3631.8937396659262049
 20
174.2955576173490044
 30
0.0
 11
3631.8937396657488534
 21
174.1835379535490063
 31
0.0
  0
LINE
  5
10013
  8
0
 10
3631.8694488274268224
 20
174.3436336995492013
 30
0.0
 11
3629.6896840492458978
 21
174.3436336995492013
 31
0.0
  0
LINE
  5
10014
  8
0
 10
3631.8694488274350078
 20
174.332312265044493
 30
0.0
 11
3629.6896840492381671
 21
174.332312265044493
 31
0.0
  0
ARC
  5
10015
  8
0
 10
3631.8532883437769669
 20
174.183867763480805
 30
0.0
 40
0.0404526664622798
 50
293.5463735586600933
 51
359.5328632661119741
  0
ARC
  5
10016
  8
0
 10
3631.8727170439328802
 20
174.1411225885989893
 30
0.0
 40
0.0065364332842835
 50
120.0000004265844069
 51
239.999999653560991
  0
ARC
  5
10017
  8
0
 10
3631.8532883437801502
 20
174.0983774137183104
 30
0.0
 40
0.0404526664588907
 50
0.4671367323670772
 51
66.4536264322444055
  0
LINE
  5
10018
  8
0
 10
3631.8937396657488534
 20
174.0987072236490008
 30
0.0
 11
3631.8937396655710472
 21
173.9866875598490026
 31
0.0
  0
LINE
  5
10019
  8
0
 10
3631.8694488272499257
 20
174.1467833058491124
 30
0.0
 11
3629.6896840494227945
 21
174.1467833058491124
 31
0.0
  0
LINE
  5
1001A
  8
0
 10
3631.8694488272572016
 20
174.1354618713444893
 30
0.0
 11
3629.6896840494159733
 21
174.1354618713444893
 31
0.0
  0
ARC
  5
1001B
  8
0
 10
3631.8532883435991607
 20
173.9870173697808013
 30
0.0
 40
0.0404526664622798
 50
293.5463735586600933
 51
359.5328632661119741
  0
ARC
  5
1001C
  8
0
 10
3631.8727170437559835
 20
173.944272194899014
 30
0.0
 40
0.0065364332842835
 50
120.0000004265844069
 51
239.999999653560991
  0
ARC
  5
1001D
  8
0
 10
3631.8532883436027987
 20
173.9015270200183068
 30
0.0
 40
0.0404526664588907
 50
0.4671367323670772
 51
66.4536264322444055
  0
LINE
  5
1001E
  8
0
 10
3631.8937396655710472
 20
173.9018568299489971
 30
0.0
 11
3631.8937396653941505
 21
173.7898371661489989
 31
0.0
  0
LINE
  5
1001F
  8
0
 10
3631.8694488270721195
 20
173.9499329121491087
 30
0.0
 11
3629.689684049600146
 21
173.9499329121491087
 31
0.0
  0
LINE
  5
10020
  8
0
 10
3631.8694488270789407
 20
173.9386114776444003
 30
0.0
 11
3629.68968404959287
 21
173.9386114776444003
 31
0.0
  0
ARC
  5
10021
  8
0
 10
3631.8532883434218093
 20
173.7901669760807977
 30
0.0
 40
0.0404526664622798
 50
293.5463735586600933
 51
359.5328632661119741
  0
ARC
  5
10022
  8
0
 10
3631.8727170435790867
 20
173.7474218011990104
 30
0.0
 40
0.0065364332842835
 50
120.0000004265844069
 51
239.999999653560991
  0
ARC
  5
10023
  8
0
 10
3631.8532883434249925
 20
173.7046766263183031
 30
0.0
 40
0.0404526664588907
 50
0.4671367323670772
 51
66.4536264322444055
  0
LINE
  5
10024
  8
0
 10
3631.8937396653941505
 20
173.7050064362489934
 30
0.0
 11
3631.893739665216799
 21
173.5929867724489952
 31
0.0
  0
LINE
  5
10025
  8
0
 10
3631.8694488268952227
 20
173.753082518449105
 30
0.0
 11
3629.6896840497779522
 21
173.753082518449105
 31
0.0
  0
LINE
  5
10026
  8
0
 10
3631.8694488269029534
 20
173.7417610839443967
 30
0.0
 11
3629.6896840497702215
 21
173.7417610839443967
 31
0.0
  0
ARC
  5
10027
  8
0
 10
3631.8532883432449125
 20
173.593316582380794
 30
0.0
 40
0.0404526664622798
 50
293.5463735586600933
 51
359.5328632661119741
  0
ARC
  5
10028
  8
0
 10
3631.87271704340219
 20
173.5505714074990067
 30
0.0
 40
0.0065364332842835
 50
120.0000004265844069
 51
239.999999653560991
  0
ARC
  5
10029
  8
0
 10
3631.8532883432471863
 20
173.5078262326182141
 30
0.0
 40
0.0404526664588907
 50
0.4671367323670772
 51
66.4536264322444055
  0
LINE
  5
1002A
  8
0
 10
3631.893739665216799
 20
173.5081560425489897
 30
0.0
 11
3631.8937396650399023
 21
173.3961363787489063
 31
0.0
  0
LINE
  5
1002B
  8
0
 10
3631.8694488267169618
 20
173.5562321247491013
 30
0.0
 11
3629.6896840499562131
 21
173.5562321247491013
 31
0.0
  0
LINE
  5
1002C
  8
0
 10
3631.8694488267251472
 20
173.544910690244393
 30
0.0
 11
3629.6896840499480277
 21
173.544910690244393
 31
0.0
  0
ARC
  5
1002D
  8
0
 10
3631.8532883430671063
 20
173.396466188680705
 30
0.0
 40
0.0404526664622798
 50
293.5463735586600933
 51
359.5328632661119741
  0
ARC
  5
1002E
  8
0
 10
3631.8727170432230196
 20
173.3537210137988893
 30
0.0
 40
0.0065364332842835
 50
120.0000004265844069
 51
239.999999653560991
  0
ARC
  5
1002F
  8
0
 10
3631.8532883430711991
 20
173.3109758389182105
 30
0.0
 40
0.0404526664588907
 50
0.4671367323670772
 51
66.4536264322444055
  0
LINE
  5
10030
  8
0
 10
3631.8937396650399023
 20
173.3113056488489008
 30
0.0
 11
3631.8937396648620961
 21
173.1992859850489026
 31
0.0
  0
LINE
  5
10031
  8
0
 10
3631.8694488265400651
 20
173.3593817310490977
 30
0.0
 11
3629.6896840501331098
 21
173.3593817310490977
 31
0.0
  0
LINE
  5
10032
  8
0
 10
3631.8694488265468863
 20
173.3480602965443893
 30
0.0
 11
3629.6896840501249244
 21
173.3480602965443893
 31
0.0
  0
ARC
  5
10033
  8
0
 10
3631.8532883428902096
 20
173.1996157949807014
 30
0.0
 40
0.0404526664622798
 50
293.5463735586600933
 51
359.5328632661119741
  0
ARC
  5
10034
  8
0
 10
3631.8727170430470323
 20
173.1568706200989141
 30
0.0
 40
0.0065364332842835
 50
120.0000004265844069
 51
239.999999653560991
  0
ARC
  5
10035
  8
0
 10
3631.8532883428929381
 20
173.1141254452182068
 30
0.0
 40
0.0404526664588907
 50
0.4671367323670772
 51
66.4536264322444055
  0
LINE
  5
10036
  8
0
 10
3631.8937396648620961
 20
173.1144552551488971
 30
0.0
 11
3631.8937396646851994
 21
173.0024355913488989
 31
0.0
  0
LINE
  5
10037
  8
0
 10
3631.8694488263631683
 20
173.1625313373490087
 30
0.0
 11
3629.6896840503109161
 21
173.1625313373490087
 31
0.0
  0
LINE
  5
10038
  8
0
 10
3631.8694488263699895
 20
173.1512099028443004
 30
0.0
 11
3629.6896840503031854
 21
173.1512099028443004
 31
0.0
  0
ARC
  5
10039
  8
0
 10
3631.8532883427119486
 20
173.0027654012806977
 30
0.0
 40
0.0404526664622798
 50
293.5463735586600933
 51
359.5328632661119741
  0
ARC
  5
1003A
  8
0
 10
3631.8727170428692261
 20
172.9600202263989104
 30
0.0
 40
0.0065364332842835
 50
120.0000004265844069
 51
239.999999653560991
  0
ARC
  5
1003B
  8
0
 10
3631.8532883427160414
 20
172.9172750515182031
 30
0.0
 40
0.0404526664588907
 50
0.4671367323670772
 51
66.4536264322444055
  0
LINE
  5
1003C
  8
0
 10
3631.8937396646851994
 20
172.9176048614488934
 30
0.0
 11
3631.8937396645069384
 21
172.8055851976488952
 31
0.0
  0
LINE
  5
1003D
  8
0
 10
3631.8694488261849074
 20
172.965680943649005
 30
0.0
 11
3629.6896840504869033
 21
172.965680943649005
 31
0.0
  0
LINE
  5
1003E
  8
0
 10
3631.8694488261930928
 20
172.9543595091442967
 30
0.0
 11
3629.6896840504800821
 21
172.9543595091442967
 31
0.0
  0
ARC
  5
1003F
  8
0
 10
3631.8532883425350519
 20
172.805915007580694
 30
0.0
 40
0.0404526664622798
 50
293.5463735586600933
 51
359.5328632661119741
  0
ARC
  5
10040
  8
0
 10
3631.8727170426918747
 20
172.763169832698793
 30
0.0
 40
0.0065364332842835
 50
120.0000004265844069
 51
239.999999653560991
  0
LINE
  5
10041
  8
0
 10
3631.8694488260080107
 20
172.7688305499490014
 30
0.0
 11
3629.6896840506651642
 21
172.7688305499490014
 31
0.0
  0
LINE
  5
10042
  8
0
 10
3631.8694488260148319
 20
172.757509115444293
 30
0.0
 11
3629.6896840506578883
 21
172.757509115444293
 31
0.0
  0
LINE
  5
10043
  8
0
 10
3631.893739666636975
 20
171.145946420459012
 30
0.0
 11
3631.893739666636975
 21
171.0339316544115036
 31
0.0
  0
ARC
  5
10044
  8
0
 10
3631.853288344664179
 20
171.0342614643433024
 30
0.0
 40
0.0404526664622798
 50
293.5463735586600933
 51
359.5328632661119741
  0
ARC
  5
10045
  8
0
 10
3631.8727170448210018
 20
170.9915162894614866
 30
0.0
 40
0.0065364332842835
 50
120.0000004265844069
 51
239.999999653560991
  0
ARC
  5
10046
  8
0
 10
3631.8532883446669075
 20
170.9487711145808078
 30
0.0
 40
0.0404526664588907
 50
0.4671367323670772
 51
66.4536264322444055
  0
LINE
  5
10047
  8
0
 10
3631.8694488281371378
 20
170.9971770067116097
 30
0.0
 11
3629.6896840485360372
 21
170.9971770067116097
 31
0.0
  0
LINE
  5
10048
  8
0
 10
3631.869448828143959
 20
170.9858555722069013
 30
0.0
 11
3629.6896840485278517
 21
170.9858555722069013
 31
0.0
  0
LINE
  5
10049
  8
0
 10
3631.893739666636975
 20
169.4757682578490972
 30
0.0
 11
3629.6653932100361999
 21
169.4757682578490972
 31
0.0
  0
LINE
  5
1004A
  8
0
 10
3631.9212987218370472
 20
169.1017525098490921
 30
0.0
 11
3629.6378341548361277
 21
169.1017525098490921
 31
0.0
  0
LINE
  5
1004B
  8
0
 10
3631.9212987218370472
 20
169.0033273129490965
 30
0.0
 11
3629.6378341548361277
 21
169.0033273129490965
 31
0.0
  0
LINE
  5
1004C
  8
0
 10
3631.8031884855367935
 20
169.0033273129490965
 30
0.0
 11
3631.8031884855367935
 21
168.0372503876978953
 31
0.0
  0
LINE
  5
1004D
  8
0
 10
3631.893739666636975
 20
170.9491009245114981
 30
0.0
 11
3631.893739666636975
 21
169.4757682578490972
 31
0.0
  0
LINE
  5
1004E
  8
0
 10
3631.893739666636975
 20
169.4757682578490972
 30
0.0
 11
3631.8331920634182097
 21
169.1017525098490921
 31
0.0
  0
LINE
  5
1004F
  8
0
 10
3631.9212987218370472
 20
169.1017525098490921
 30
0.0
 11
3631.9212987218370472
 21
169.0033273129490965
 31
0.0
  0
ARC
  5
10050
  8
0
 10
3640.8990793750531338
 20
197.1250947053260916
 30
0.0
 40
0.118405442936117
 50
270.1189946993712852
 51
350.2853060774680785
  0
LINE
  5
10051
  8
0
 10
3619.7559443911359267
 20
175.2940910925491096
 30
0.0
 11
3619.7559443911359267
 21
197.2232249507491133
 31
0.0
  0
LINE
  5
10052
  8
0
 10
3626.6909837611360672
 20
189.5204651082491125
 30
0.0
 11
3626.6909837611360672
 21
194.9810950295490954
 31
0.0
  0
LINE
  5
10053
  8
0
 10
3620.5433459659361688
 20
197.1051147145491029
 30
0.0
 11
3620.5433459659361688
 21
175.2940910925491096
 31
0.0
  0
LINE
  5
10054
  8
0
 10
3621.7244483281360772
 20
195.9909414862491133
 30
0.0
 11
3621.7244483281360772
 21
195.4791304626490955
 31
0.0
  0
ARC
  5
10055
  8
0
 10
3621.8622436036857835
 20
195.4791304626490955
 30
0.0
 40
0.1377952755499976
 50
180.0
 51
0.0
  0
LINE
  5
10056
  8
0
 10
3622.0000388792359445
 20
195.4791304626490955
 30
0.0
 11
3622.0000388792359445
 21
195.9909414862491133
 31
0.0
  0
ARC
  5
10057
  8
0
 10
3621.8622436036857835
 20
195.9909414862491133
 30
0.0
 40
0.1377952755500011
 50
0.0
 51
180.0
  0
ARC
  5
10058
  8
0
 10
3625.9439259112991749
 20
196.2643818798337065
 30
0.0
 40
0.2135728172145131
 50
357.7483575826105948
 51
68.7122859599635518
  0
ARC
  5
10059
  8
0
 10
3616.5601221881661331
 20
195.8821696976573037
 30
0.0
 40
9.6044892439166851
 50
359.5290635332680154
 51
2.2306017472491431
  0
LINE
  5
1005A
  8
0
 10
3626.1642870019290967
 20
195.8032275253200112
 30
0.0
 11
3626.1642870016371489
 21
188.4712525098400135
 31
0.0
  0
ARC
  5
1005B
  8
0
 10
3625.9370467533371993
 20
188.4712525098491085
 30
0.0
 40
0.2272402482999993
 50
270.0000000003126956
 51
0.0000000000016284
  0
LINE
  5
1005C
  8
0
 10
3625.9370467533381088
 20
188.244012261549102
 30
0.0
 11
3621.3903479726068326
 21
188.2440122615253131
 31
0.0
  0
ARC
  5
1005D
  8
0
 10
3621.3903479726100159
 20
187.6069862048499886
 30
0.0
 40
0.6370260566752677
 50
90.0000000003126672
 51
124.4358461068349015
  0
LINE
  5
1005E
  8
0
 10
3621.0301204964739554
 20
188.1323797357580077
 30
0.0
 11
3621.0298994104300618
 21
187.2414883375303987
 31
0.0
  0
ARC
  5
1005F
  8
0
 10
3621.4043838280517775
 20
186.0917823273096019
 30
0.0
 40
1.209157760170142
 50
90.6644382385290868
 51
108.0415636366871013
  0
ARC
  5
10060
  8
0
 10
3621.4134514045667856
 20
186.3140070350152939
 30
0.0
 40
1.0984499615397461
 50
91.2044494895903171
 51
110.4354965350394053
  0
ARC
  5
10061
  8
0
 10
3627.1378341547660966
 20
195.8925123525197876
 30
0.0
 40
0.492125984129288
 50
89.999999991766586
 51
180.0000000198751025
  0
LINE
  5
10062
  8
0
 10
3626.6457081706371355
 20
195.8925123523490868
 30
0.0
 11
3626.6457081731628023
 21
188.6090477856490963
 31
0.0
  0
ARC
  5
10063
  8
0
 10
3627.1753561809459825
 20
188.6465698087170892
 30
0.0
 40
0.5309754366862816
 50
184.0522531494403893
 51
265.947746521482884
  0
CIRCLE
  5
10064
  8
0
 10
3627.1845385446358705
 20
195.8458079625490882
 30
0.0
 40
0.1771653542999996
  0
LINE
  5
10065
  8
0
 10
3626.6909837611360672
 20
194.9810950295490954
 30
0.0
 11
3626.7697239186359184
 21
195.0598351870490887
 31
0.0
  0
LINE
  5
10066
  8
0
 10
3626.98768815093581
 20
195.0598351870490887
 30
0.0
 11
3626.98768815093581
 21
195.8458079617491023
 31
0.0
  0
ARC
  5
10067
  8
0
 10
3627.1845385446358705
 20
195.8458079617491023
 30
0.0
 40
0.1968503937000001
 50
0.0000004656975289
 51
180.0
  0
LINE
  5
10068
  8
0
 10
3627.381388938335931
 20
195.8458079633491025
 30
0.0
 11
3627.3813889447251313
 21
195.0598351870490887
 31
0.0
  0
LINE
  5
10069
  8
0
 10
3620.7402014798940399
 20
194.6844936887933102
 30
0.0
 11
3622.2950973863380568
 21
194.6844936891579039
 31
0.0
  0
ARC
  5
1006A
  8
0
 10
3622.2950973862839419
 20
194.9180019147391931
 30
0.0
 40
0.2335082255812928
 50
270.0000000134443781
 51
328.5823704728913981
  0
LINE
  5
1006B
  8
0
 10
3622.494371074988976
 20
194.7962805591587028
 30
0.0
 11
3623.5278331771360172
 21
196.0476554477490936
 31
0.0
  0
ARC
  5
1006C
  8
0
 10
3624.4818452241420346
 20
195.1705400944998132
 30
0.0
 40
1.2959437984491919
 50
93.964737290849925
 51
137.4046763877394142
  0
LINE
  5
1006D
  8
0
 10
3620.7402014798940399
 20
195.061614452557194
 30
0.0
 11
3622.5086702499361309
 21
195.0616144518490955
 31
0.0
  0
ARC
  5
1006E
  8
0
 10
3622.5086702500689171
 20
195.3924112175099879
 30
0.0
 40
0.3307967656608746
 50
269.9999999770453769
 51
308.3469025445804164
  0
LINE
  5
1006F
  8
0
 10
3622.7139035912641702
 20
195.132977650226195
 30
0.0
 11
3623.5278331771360172
 21
196.0476554477490936
 31
0.0
  0
CIRCLE
  5
10070
  8
0
 10
3621.1338971470358956
 20
194.0224375492491049
 30
0.0
 40
0.2755905512000005
  0
LINE
  5
10071
  8
0
 10
3621.0354719501360705
 20
194.0792633631490958
 30
0.0
 11
3621.0354719501360705
 21
193.965611735349114
 31
0.0
  0
LINE
  5
10072
  8
0
 10
3621.0354719501360705
 20
193.965611735349114
 30
0.0
 11
3621.1338971470358956
 21
193.9087859214490948
 31
0.0
  0
LINE
  5
10073
  8
0
 10
3621.1338971470358956
 20
193.9087859214490948
 30
0.0
 11
3621.232322343836131
 21
193.965611735349114
 31
0.0
  0
LINE
  5
10074
  8
0
 10
3621.232322343836131
 20
193.965611735349114
 30
0.0
 11
3621.232322343836131
 21
194.0792633631490958
 31
0.0
  0
LINE
  5
10075
  8
0
 10
3621.232322343836131
 20
194.0792633631490958
 30
0.0
 11
3621.1338971470358956
 21
194.1360891770490866
 31
0.0
  0
LINE
  5
10076
  8
0
 10
3621.1338971470358956
 20
194.1360891770490866
 30
0.0
 11
3621.0354719501360705
 21
194.0792633631490958
 31
0.0
  0
ARC
  5
10077
  8
0
 10
3621.3993867258868704
 20
195.8041632637055045
 30
0.0
 40
0.6628976582743912
 50
96.0387946313828422
 51
173.9333997668339862
  0
ARC
  5
10078
  8
0
 10
3627.115268881153952
 20
195.8492650371954937
 30
0.0
 40
0.0163063116984621
 50
84.3811836894834641
 51
106.0192280652653949
  0
LINE
  5
10079
  8
0
 10
3627.1168654277898895
 20
195.8654930019490905
 30
0.0
 11
3627.1451520433402038
 21
195.8654933581383943
 31
0.0
  0
ARC
  5
1007A
  8
0
 10
3627.1451690618509929
 20
195.8851777942676904
 30
0.0
 40
0.019684443486141
 50
269.9504639781399078
 51
0.000677851149328
  0
LINE
  5
1007B
  8
0
 10
3627.164853505335941
 20
195.8851780271490952
 30
0.0
 11
3627.164853505335941
 21
195.9134810762490986
 31
0.0
  0
ARC
  5
1007C
  8
0
 10
3627.1810819182669547
 20
195.9150775976810905
 30
0.0
 40
0.0163067552541497
 50
163.9811169598575873
 51
185.6185739970879069
  0
LINE
  5
1007D
  8
0
 10
3627.1590878908559716
 20
195.871258616328987
 30
0.0
 11
3627.164853505335941
 21
195.8654930019490905
 31
0.0
  0
LINE
  5
1007E
  8
0
 10
3627.164853505335941
 20
195.8654930019490905
 30
0.0
 11
3627.164853505335941
 21
195.8261229231490859
 31
0.0
  0
ARC
  5
1007F
  8
0
 10
3627.115268881153952
 20
195.8423508879027963
 30
0.0
 40
0.0163063116984621
 50
253.9807719347346051
 51
275.618816310516479
  0
LINE
  5
10080
  8
0
 10
3627.1168654277898895
 20
195.8261229231490859
 30
0.0
 11
3627.1451520433402038
 21
195.8261225669598957
 31
0.0
  0
ARC
  5
10081
  8
0
 10
3627.1451690618509929
 20
195.8064381308305997
 30
0.0
 40
0.019684443486141
 50
359.9993221488506947
 51
90.0495360218600354
  0
LINE
  5
10082
  8
0
 10
3627.164853505335941
 20
195.8064378979491096
 30
0.0
 11
3627.164853505335941
 21
195.7781348488491062
 31
0.0
  0
ARC
  5
10083
  8
0
 10
3627.1810819182669547
 20
195.7765383274171995
 30
0.0
 40
0.0163067552541497
 50
174.3814260029120931
 51
196.0188830401424127
  0
LINE
  5
10084
  8
0
 10
3627.1590878908559716
 20
195.820357308769303
 30
0.0
 11
3627.164853505335941
 21
195.8261229231490859
 31
0.0
  0
ARC
  5
10085
  8
0
 10
3627.3694892565390546
 20
195.8455249262891016
 30
0.0
 40
0.2594475837496218
 50
175.7088174204648112
 51
184.2911825795384004
  0
ARC
  5
10086
  8
0
 10
3627.2538082082191977
 20
195.8492650371954937
 30
0.0
 40
0.0163063116984621
 50
73.9807719347345909
 51
95.6188163105165359
  0
LINE
  5
10087
  8
0
 10
3627.2522116615828054
 20
195.8654930019490905
 30
0.0
 11
3627.2239250460320363
 21
195.8654933581383943
 31
0.0
  0
ARC
  5
10088
  8
0
 10
3627.2239080275207925
 20
195.8851777942676904
 30
0.0
 40
0.019684443486141
 50
179.9993221488506947
 51
270.0495360218599785
  0
LINE
  5
10089
  8
0
 10
3627.2042235840372086
 20
195.8851780271490952
 30
0.0
 11
3627.2042235840372086
 21
195.9134810762490986
 31
0.0
  0
ARC
  5
1008A
  8
0
 10
3627.1879951711061949
 20
195.9150775976810905
 30
0.0
 40
0.0163067552541497
 50
354.3814260029121215
 51
16.0188830401423985
  0
LINE
  5
1008B
  8
0
 10
3627.2099891985158138
 20
195.871258616328987
 30
0.0
 11
3627.2042235840372086
 21
195.8654930019490905
 31
0.0
  0
LINE
  5
1008C
  8
0
 10
3627.2042235840372086
 20
195.8654930019490905
 30
0.0
 11
3627.2042235840372086
 21
195.8261229231490859
 31
0.0
  0
ARC
  5
1008D
  8
0
 10
3627.2538082082191977
 20
195.8423508879027963
 30
0.0
 40
0.0163063116984621
 50
264.381183689483521
 51
286.0192280652653949
  0
LINE
  5
1008E
  8
0
 10
3627.2522116615828054
 20
195.8261229231490859
 30
0.0
 11
3627.2239250460320363
 21
195.8261225669598957
 31
0.0
  0
ARC
  5
1008F
  8
0
 10
3627.2239080275207925
 20
195.8064381308305997
 30
0.0
 40
0.019684443486141
 50
89.9504639781399646
 51
180.0006778511493053
  0
LINE
  5
10090
  8
0
 10
3627.2042235840372086
 20
195.8064378979491096
 30
0.0
 11
3627.2042235840372086
 21
195.7781348488491062
 31
0.0
  0
ARC
  5
10091
  8
0
 10
3627.1879951711061949
 20
195.7765383274171995
 30
0.0
 40
0.0163067552541497
 50
343.9811169598576157
 51
5.6185739970879061
  0
LINE
  5
10092
  8
0
 10
3627.2099891985158138
 20
195.820357308769303
 30
0.0
 11
3627.2042235840372086
 21
195.8261229231490859
 31
0.0
  0
ARC
  5
10093
  8
0
 10
3626.999587832834095
 20
195.8455249262891016
 30
0.0
 40
0.2594475837496218
 50
355.708817420461628
 51
4.2911825795351692
  0
ARC
  5
10094
  8
0
 10
3627.1845385446868022
 20
195.6684118613246142
 30
0.0
 40
0.2518931320245664
 50
85.6444373598362745
 51
94.3555626401637113
  0
ARC
  5
10095
  8
0
 10
3627.1845385446868022
 20
196.0232040637737043
 30
0.0
 40
0.2518931320245664
 50
265.6444373598362745
 51
274.3555626401637255
  0
LINE
  5
10096
  8
0
 10
3627.2042235840372086
 20
195.8654930019490905
 30
0.0
 11
3627.164853505335941
 21
195.8654930019490905
 31
0.0
  0
LINE
  5
10097
  8
0
 10
3627.2042235840372086
 20
195.8261229231490859
 30
0.0
 11
3627.164853505335941
 21
195.8261229231490859
 31
0.0
  0
CIRCLE
  5
10098
  8
0
 10
3627.0590939974358662
 20
191.8373942421490881
 30
0.0
 40
0.1771653542999996
  0
ARC
  5
10099
  8
0
 10
3626.9898243339539476
 20
191.8408513167954936
 30
0.0
 40
0.0163063116984621
 50
84.3811836894834641
 51
106.0192280652653949
  0
LINE
  5
1009A
  8
0
 10
3626.9914208805898852
 20
191.8570792815490904
 30
0.0
 11
3627.0197074961401995
 21
191.8570796377383942
 31
0.0
  0
ARC
  5
1009B
  8
0
 10
3627.0197245146518981
 20
191.8767640738676903
 30
0.0
 40
0.019684443486141
 50
269.9504639781399078
 51
0.000677851149328
  0
LINE
  5
1009C
  8
0
 10
3627.0394089581359367
 20
191.8767643067490951
 30
0.0
 11
3627.0394089581359367
 21
191.9050673558490985
 31
0.0
  0
ARC
  5
1009D
  8
0
 10
3627.0556373710669504
 20
191.9066638772810904
 30
0.0
 40
0.0163067552541497
 50
163.9811169598575873
 51
185.6185739970879069
  0
LINE
  5
1009E
  8
0
 10
3627.0336433436559673
 20
191.8628448959289869
 30
0.0
 11
3627.0394089581359367
 21
191.8570792815490904
 31
0.0
  0
LINE
  5
1009F
  8
0
 10
3627.0394089581359367
 20
191.8570792815490904
 30
0.0
 11
3627.0394089581359367
 21
191.8177092027491142
 31
0.0
  0
ARC
  5
100A0
  8
0
 10
3626.9898243339539476
 20
191.8339371675027962
 30
0.0
 40
0.0163063116984621
 50
253.9807719347346051
 51
275.618816310516479
  0
LINE
  5
100A1
  8
0
 10
3626.9914208805898852
 20
191.8177092027491142
 30
0.0
 11
3627.0197074961401995
 21
191.8177088465598956
 31
0.0
  0
ARC
  5
100A2
  8
0
 10
3627.0197245146518981
 20
191.7980244104304859
 30
0.0
 40
0.019684443486141
 50
359.9993221488506947
 51
90.0495360218600354
  0
LINE
  5
100A3
  8
0
 10
3627.0394089581359367
 20
191.7980241775491095
 30
0.0
 11
3627.0394089581359367
 21
191.7697211284491061
 31
0.0
  0
ARC
  5
100A4
  8
0
 10
3627.0556373710669504
 20
191.7681246070171994
 30
0.0
 40
0.0163067552541497
 50
174.3814260029120931
 51
196.0188830401424127
  0
LINE
  5
100A5
  8
0
 10
3627.0336433436559673
 20
191.8119435883693029
 30
0.0
 11
3627.0394089581359367
 21
191.8177092027491142
 31
0.0
  0
ARC
  5
100A6
  8
0
 10
3627.2440447093390503
 20
191.8371112058891867
 30
0.0
 40
0.2594475837496218
 50
175.7088174204648112
 51
184.2911825795384004
  0
ARC
  5
100A7
  8
0
 10
3627.1283636610178291
 20
191.8408513167954936
 30
0.0
 40
0.0163063116984621
 50
73.9807719347345909
 51
95.6188163105165359
  0
LINE
  5
100A8
  8
0
 10
3627.1267671143828011
 20
191.8570792815490904
 30
0.0
 11
3627.0984804988329415
 21
191.8570796377383942
 31
0.0
  0
ARC
  5
100A9
  8
0
 10
3627.0984634803207882
 20
191.8767640738676903
 30
0.0
 40
0.019684443486141
 50
179.9993221488506947
 51
270.0495360218599785
  0
LINE
  5
100AA
  8
0
 10
3627.0787790368372043
 20
191.8767643067490951
 30
0.0
 11
3627.0787790368372043
 21
191.9050673558490985
 31
0.0
  0
ARC
  5
100AB
  8
0
 10
3627.0625506239061906
 20
191.9066638772810904
 30
0.0
 40
0.0163067552541497
 50
354.3814260029121215
 51
16.0188830401423985
  0
LINE
  5
100AC
  8
0
 10
3627.0845446513158095
 20
191.8628448959289869
 30
0.0
 11
3627.0787790368372043
 21
191.8570792815490904
 31
0.0
  0
LINE
  5
100AD
  8
0
 10
3627.0787790368372043
 20
191.8570792815490904
 30
0.0
 11
3627.0787790368372043
 21
191.8177092027491142
 31
0.0
  0
ARC
  5
100AE
  8
0
 10
3627.1283636610178291
 20
191.8339371675027962
 30
0.0
 40
0.0163063116984621
 50
264.381183689483521
 51
286.0192280652653949
  0
LINE
  5
100AF
  8
0
 10
3627.1267671143828011
 20
191.8177092027491142
 30
0.0
 11
3627.0984804988329415
 21
191.8177088465598956
 31
0.0
  0
ARC
  5
100B0
  8
0
 10
3627.0984634803207882
 20
191.7980244104304859
 30
0.0
 40
0.019684443486141
 50
89.9504639781399646
 51
180.0006778511493053
  0
LINE
  5
100B1
  8
0
 10
3627.0787790368372043
 20
191.7980241775491095
 30
0.0
 11
3627.0787790368372043
 21
191.7697211284491061
 31
0.0
  0
ARC
  5
100B2
  8
0
 10
3627.0625506239061906
 20
191.7681246070171994
 30
0.0
 40
0.0163067552541497
 50
343.9811169598576157
 51
5.6185739970879061
  0
LINE
  5
100B3
  8
0
 10
3627.0845446513158095
 20
191.8119435883693029
 30
0.0
 11
3627.0787790368372043
 21
191.8177092027491142
 31
0.0
  0
ARC
  5
100B4
  8
0
 10
3626.8741432856340907
 20
191.8371112058891867
 30
0.0
 40
0.2594475837496218
 50
355.708817420461628
 51
4.2911825795351692
  0
ARC
  5
100B5
  8
0
 10
3627.0590939974867979
 20
191.6599981409246141
 30
0.0
 40
0.2518931320245664
 50
85.6444373598362745
 51
94.3555626401637113
  0
ARC
  5
100B6
  8
0
 10
3627.0590939974867979
 20
192.0147903433737042
 30
0.0
 40
0.2518931320245664
 50
265.6444373598362745
 51
274.3555626401637255
  0
LINE
  5
100B7
  8
0
 10
3627.0787790368372043
 20
191.8570792815490904
 30
0.0
 11
3627.0394089581359367
 21
191.8570792815490904
 31
0.0
  0
LINE
  5
100B8
  8
0
 10
3627.0787790368372043
 20
191.8177092027491142
 30
0.0
 11
3627.0394089581359367
 21
191.8177092027491142
 31
0.0
  0
CIRCLE
  5
100B9
  8
0
 10
3627.1845385446358705
 20
188.6557521752490914
 30
0.0
 40
0.1771653542999996
  0
ARC
  5
100BA
  8
0
 10
3627.115268881153952
 20
188.6592092498954969
 30
0.0
 40
0.0163063116984621
 50
84.3811836894834641
 51
106.0192280652653949
  0
LINE
  5
100BB
  8
0
 10
3627.1168654277898895
 20
188.6754372146490937
 30
0.0
 11
3627.1451520433402038
 21
188.6754375708383975
 31
0.0
  0
ARC
  5
100BC
  8
0
 10
3627.1451690618509929
 20
188.6951220069676936
 30
0.0
 40
0.019684443486141
 50
269.9504639781399078
 51
0.000677851149328
  0
LINE
  5
100BD
  8
0
 10
3627.164853505335941
 20
188.6951222398490984
 30
0.0
 11
3627.164853505335941
 21
188.7234252889491017
 31
0.0
  0
ARC
  5
100BE
  8
0
 10
3627.1810819182669547
 20
188.7250218103810937
 30
0.0
 40
0.0163067552541497
 50
163.9811169598575873
 51
185.6185739970879069
  0
LINE
  5
100BF
  8
0
 10
3627.1590878908559716
 20
188.6812028290289902
 30
0.0
 11
3627.164853505335941
 21
188.6754372146490937
 31
0.0
  0
LINE
  5
100C0
  8
0
 10
3627.164853505335941
 20
188.6754372146490937
 30
0.0
 11
3627.164853505335941
 21
188.636067135849089
 31
0.0
  0
ARC
  5
100C1
  8
0
 10
3627.115268881153952
 20
188.6522951006027995
 30
0.0
 40
0.0163063116984621
 50
253.9807719347346051
 51
275.618816310516479
  0
LINE
  5
100C2
  8
0
 10
3627.1168654277898895
 20
188.636067135849089
 30
0.0
 11
3627.1451520433402038
 21
188.6360667796598989
 31
0.0
  0
ARC
  5
100C3
  8
0
 10
3627.1451690618509929
 20
188.6163823435304892
 30
0.0
 40
0.019684443486141
 50
359.9993221488506947
 51
90.0495360218600354
  0
LINE
  5
100C4
  8
0
 10
3627.164853505335941
 20
188.6163821106491127
 30
0.0
 11
3627.164853505335941
 21
188.5880790615491094
 31
0.0
  0
ARC
  5
100C5
  8
0
 10
3627.1810819182669547
 20
188.5864825401172027
 30
0.0
 40
0.0163067552541497
 50
174.3814260029120931
 51
196.0188830401424127
  0
LINE
  5
100C6
  8
0
 10
3627.1590878908559716
 20
188.6303015214693062
 30
0.0
 11
3627.164853505335941
 21
188.636067135849089
 31
0.0
  0
ARC
  5
100C7
  8
0
 10
3627.3694892565390546
 20
188.65546913898919
 30
0.0
 40
0.2594475837496218
 50
175.7088174204648112
 51
184.2911825795384004
  0
ARC
  5
100C8
  8
0
 10
3627.2538082082191977
 20
188.6592092498954969
 30
0.0
 40
0.0163063116984621
 50
73.9807719347345909
 51
95.6188163105165359
  0
LINE
  5
100C9
  8
0
 10
3627.2522116615828054
 20
188.6754372146490937
 30
0.0
 11
3627.2239250460320363
 21
188.6754375708383975
 31
0.0
  0
ARC
  5
100CA
  8
0
 10
3627.2239080275207925
 20
188.6951220069676936
 30
0.0
 40
0.019684443486141
 50
179.9993221488506947
 51
270.0495360218599785
  0
LINE
  5
100CB
  8
0
 10
3627.2042235840372086
 20
188.6951222398490984
 30
0.0
 11
3627.2042235840372086
 21
188.7234252889491017
 31
0.0
  0
ARC
  5
100CC
  8
0
 10
3627.1879951711061949
 20
188.7250218103810937
 30
0.0
 40
0.0163067552541497
 50
354.3814260029121215
 51
16.0188830401423985
  0
LINE
  5
100CD
  8
0
 10
3627.2099891985158138
 20
188.6812028290289902
 30
0.0
 11
3627.2042235840372086
 21
188.6754372146490937
 31
0.0
  0
LINE
  5
100CE
  8
0
 10
3627.2042235840372086
 20
188.6754372146490937
 30
0.0
 11
3627.2042235840372086
 21
188.636067135849089
 31
0.0
  0
ARC
  5
100CF
  8
0
 10
3627.2538082082191977
 20
188.6522951006027995
 30
0.0
 40
0.0163063116984621
 50
264.381183689483521
 51
286.0192280652653949
  0
LINE
  5
100D0
  8
0
 10
3627.2522116615828054
 20
188.636067135849089
 30
0.0
 11
3627.2239250460320363
 21
188.6360667796598989
 31
0.0
  0
ARC
  5
100D1
  8
0
 10
3627.2239080275207925
 20
188.6163823435304892
 30
0.0
 40
0.019684443486141
 50
89.9504639781399646
 51
180.0006778511493053
  0
LINE
  5
100D2
  8
0
 10
3627.2042235840372086
 20
188.6163821106491127
 30
0.0
 11
3627.2042235840372086
 21
188.5880790615491094
 31
0.0
  0
ARC
  5
100D3
  8
0
 10
3627.1879951711061949
 20
188.5864825401172027
 30
0.0
 40
0.0163067552541497
 50
343.9811169598576157
 51
5.6185739970879061
  0
LINE
  5
100D4
  8
0
 10
3627.2099891985158138
 20
188.6303015214693062
 30
0.0
 11
3627.2042235840372086
 21
188.636067135849089
 31
0.0
  0
ARC
  5
100D5
  8
0
 10
3626.999587832834095
 20
188.65546913898919
 30
0.0
 40
0.2594475837496218
 50
355.708817420461628
 51
4.2911825795351692
  0
ARC
  5
100D6
  8
0
 10
3627.1845385446868022
 20
188.4783560740245889
 30
0.0
 40
0.2518931320245664
 50
85.6444373598362745
 51
94.3555626401637113
  0
ARC
  5
100D7
  8
0
 10
3627.1845385446868022
 20
188.8331482764737075
 30
0.0
 40
0.2518931320245664
 50
265.6444373598362745
 51
274.3555626401637255
  0
LINE
  5
100D8
  8
0
 10
3627.2042235840372086
 20
188.6754372146490937
 30
0.0
 11
3627.164853505335941
 21
188.6754372146490937
 31
0.0
  0
LINE
  5
100D9
  8
0
 10
3627.2042235840372086
 20
188.636067135849089
 30
0.0
 11
3627.164853505335941
 21
188.636067135849089
 31
0.0
  0
LINE
  5
100DA
  8
0
 10
3626.6909837611360672
 20
189.5204651082491125
 30
0.0
 11
3626.7697239186359184
 21
189.4417249507490908
 31
0.0
  0
LINE
  5
100DB
  8
0
 10
3626.98768815093581
 20
189.4417249507490908
 30
0.0
 11
3626.98768815093581
 21
188.6557521752490914
 31
0.0
  0
ARC
  5
100DC
  8
0
 10
3627.1845385446358705
 20
188.6557521752490914
 30
0.0
 40
0.1968503937000001
 50
180.0
 51
0.0000002328495787
  0
LINE
  5
100DD
  8
0
 10
3627.381388938335931
 20
188.6557521760491909
 30
0.0
 11
3627.3813889351417856
 21
189.4417249507490908
 31
0.0
  0
LINE
  5
100DE
  8
0
 10
3620.5433459659361688
 20
193.6287367618490975
 30
0.0
 11
3620.7402014798940399
 21
193.6287367618490975
 31
0.0
  0
LINE
  5
100DF
  8
0
 10
3620.7402014798940399
 20
195.8742212169331083
 30
0.0
 11
3620.7402014798940399
 21
177.6827560042316065
 31
0.0
  0
ARC
  5
100E0
  8
0
 10
3621.3296493482180267
 20
177.682757633675493
 30
0.0
 40
0.5894478683267294
 50
180.0001583859414893
 51
269.9999344192511899
  0
LINE
  5
100E1
  8
0
 10
3621.3296486735371218
 20
177.0933097653490904
 30
0.0
 11
3624.6005919365170485
 21
177.0933097653490904
 31
0.0
  0
ARC
  5
100E2
  8
0
 10
3624.6005919365170485
 20
177.6838243160977981
 30
0.0
 40
0.5905145507486873
 50
270.0
 51
0.0387468352843192
  0
LINE
  5
100E3
  8
0
 10
3625.1911063522361474
 20
177.6842236573490936
 30
0.0
 11
3625.1910040676038989
 21
177.8354741217119965
 31
0.0
  0
ARC
  5
100E4
  8
0
 10
3625.3028914818328303
 20
177.823166444012088
 30
0.0
 40
0.1125623044947161
 50
75.5566626934025294
 51
173.7226700725609874
  0
ARC
  5
100E5
  8
0
 10
-8879.7790442836667353
 20
-78788.4954452538659098
 30
0.0
 40
79950.4500731475272914
 50
80.9995582019695064
 51
81.001375595679761
  0
ARC
  5
100E6
  8
0
 10
3628.4809018437322266
 20
181.6714100023891092
 30
0.0
 40
4.1859517013720247
 50
261.1338731413493974
 51
271.5574137558036227
  0
CIRCLE
  5
100E8
  8
0
 10
3621.2913774619360083
 20
177.8807052657490999
 30
0.0
 40
0.1377952755999985
  0
LINE
  5
100E9
  8
0
 10
3623.6938561244360244
 20
177.0933097653490904
 30
0.0
 11
3623.6938561244360244
 21
178.0287109039491042
 31
0.0
  0
ARC
  5
100EA
  8
0
 10
3623.2430547187400407
 20
177.7915419438812989
 30
0.0
 40
0.5093829826341147
 50
27.7490908602650101
 51
85.6247019420024174
  0
ARC
  5
100EB
  8
0
 10
3616.5058811832141146
 20
138.3298427728315971
 30
0.0
 40
40.5398985489375008
 50
80.3781460049002163
 51
82.8657623033582098
  0
ARC
  5
100EC
  8
0
 10
3621.6932982563071164
 20
179.5255463884745097
 30
0.0
 40
0.9816011380481025
 50
193.8414741774926995
 51
261.057254360467482
  0
ARC
  5
100ED
  8
0
 10
3621.8594914494469776
 20
179.8338157144447109
 30
0.0
 40
1.552231322993783
 50
223.8559073209424923
 51
269.6198992893307036
  0
LINE
  5
100EE
  8
0
 10
3621.8491940085827991
 20
178.2816185482332969
 30
0.0
 11
3621.846279260143092
 21
177.0933097653490904
 31
0.0
  0
LINE
  5
100EF
  8
0
 10
3628.0076233584359215
 20
184.9545674098490906
 30
0.0
 11
3627.3405035923360629
 21
184.954567419649095
 31
0.0
  0
ARC
  5
100F0
  8
0
 10
3627.2930129233482148
 20
184.5145635454057071
 30
0.0
 40
0.4425593440322747
 50
83.8397767885035137
 51
276.1602169220324754
  0
LINE
  5
100F1
  8
0
 10
3627.3405035440359825
 20
184.0745596659490957
 30
0.0
 11
3628.0104759322921382
 21
184.0745596022470068
 31
0.0
  0
ARC
  5
100F2
  8
0
 10
3628.0119997914448504
 20
184.5145730690423136
 30
0.0
 40
0.4400161055097114
 50
269.8015734618945771
 51
90.5698774930288693
  0
LINE
  5
100F3
  8
0
 10
3627.9484977852362135
 20
184.6066313170491071
 30
0.0
 11
3627.7248197723361045
 21
184.606631328149092
 31
0.0
  0
ARC
  5
100F4
  8
0
 10
3627.7320793161429719
 20
184.5145635333545044
 30
0.0
 40
0.09235355875455
 50
94.5084430505678483
 51
265.4915554558396025
  0
LINE
  5
100F5
  8
0
 10
3627.724819769935948
 20
184.4224957387490917
 30
0.0
 11
3627.9484977852362135
 21
184.4224957440183061
 31
0.0
  0
ARC
  5
100F6
  8
0
 10
3627.9484977830670687
 20
184.5145635305337066
 30
0.0
 40
0.0920677865153916
 50
270.0000013497325995
 51
89.9999986502674432
  0
LINE
  5
100F7
  8
0
 10
3628.0076233584359215
 20
181.8002598495392022
 30
0.0
 11
3627.3405035923360629
 21
181.8002598593392065
 31
0.0
  0
ARC
  5
100F8
  8
0
 10
3627.2930129233482148
 20
181.360255985095705
 30
0.0
 40
0.4425593440322747
 50
83.8397767885035137
 51
276.1602169220324754
  0
LINE
  5
100F9
  8
0
 10
3627.3405035440359825
 20
180.9202521056392072
 30
0.0
 11
3628.0104759322921382
 21
180.9202520419370046
 31
0.0
  0
ARC
  5
100FA
  8
0
 10
3628.0119997914448504
 20
181.3602655087323114
 30
0.0
 40
0.4400161055097114
 50
269.8015734618945771
 51
90.5698774930288693
  0
LINE
  5
100FB
  8
0
 10
3627.9484977852362135
 20
181.4523237567391902
 30
0.0
 11
3627.7248197723361045
 21
181.4523237678392036
 31
0.0
  0
ARC
  5
100FC
  8
0
 10
3627.7320793161429719
 20
181.3602559730445876
 30
0.0
 40
0.09235355875455
 50
94.5084430505678483
 51
265.4915554558396025
  0
LINE
  5
100FD
  8
0
 10
3627.724819769935948
 20
181.2681881784392033
 30
0.0
 11
3627.9484977852362135
 21
181.2681881837083893
 31
0.0
  0
ARC
  5
100FE
  8
0
 10
3627.9484977830670687
 20
181.3602559702237897
 30
0.0
 40
0.0920677865153916
 50
270.0000013497325995
 51
89.9999986502674432
  0
LINE
  5
100FF
  8
0
 10
3630.2736609265361949
 20
166.3940271163426132
 30
0.0
 11
3630.2736609265361949
 21
166.2160550778849881
 31
0.0
  0
LINE
  5
10100
  8
0
 10
3629.06696801313592
 20
176.8177131397490882
 30
0.0
 11
3629.2441333674360067
 21
176.6996029035491063
 31
0.0
  0
LINE
  5
10101
  8
0
 10
3629.2441333674360067
 20
176.6996029035491063
 30
0.0
 11
3629.2441333674360067
 21
175.7940910925840967
 31
0.0
  0
ARC
  5
10102
  8
0
 10
3629.0374404540370961
 20
175.5972406988491059
 30
0.0
 40
0.2854330708999821
 50
359.9999999999984084
 51
43.6028189757232028
  0
LINE
  5
10103
  8
0
 10
3629.6653932100361999
 20
175.2625950295490895
 30
0.0
 11
3629.6653932100361999
 21
175.1677899220491099
 31
0.0
  0
ARC
  5
10104
  8
0
 10
3629.7058445320080864
 20
175.1681197319809087
 30
0.0
 40
0.0404526664622798
 50
180.4671367338879122
 51
246.4536264413399067
  0
ARC
  5
10105
  8
0
 10
3629.6864158318521731
 20
175.125374557099093
 30
0.0
 40
0.0065364332842835
 50
300.0000003464389806
 51
59.9999995734155576
  0
ARC
  5
10106
  8
0
 10
3629.7058445320058127
 20
175.0826293822184141
 30
0.0
 40
0.0404526664588907
 50
113.5463735677555945
 51
179.532863267632905
  0
LINE
  5
10107
  8
0
 10
3629.6653932100361999
 20
175.0829591921491044
 30
0.0
 11
3629.6653932102140061
 21
174.9709395283491062
 31
0.0
  0
ARC
  5
10108
  8
0
 10
3629.480353839936015
 20
175.3413351870491113
 30
0.0
 40
0.0787401574999951
 50
179.9999999999984084
 51
270.0
  0
LINE
  5
10109
  8
0
 10
3629.4016136824361638
 20
175.3413351870491113
 30
0.0
 11
3629.4016136824361638
 21
175.5972406988491059
 31
0.0
  0
ARC
  5
1010A
  8
0
 10
3629.7058445321858926
 20
174.971269338280905
 30
0.0
 40
0.0404526664622798
 50
180.4671367338879122
 51
246.4536264413399067
  0
ARC
  5
1010B
  8
0
 10
3629.6864158320290699
 20
174.9285241633990893
 30
0.0
 40
0.0065364332842835
 50
300.0000003464389806
 51
59.9999995734155576
  0
ARC
  5
1010C
  8
0
 10
3629.7058445321831641
 20
174.8857789885184104
 30
0.0
 40
0.0404526664588907
 50
113.5463735677555945
 51
179.532863267632905
  0
LINE
  5
1010D
  8
0
 10
3629.6653932102140061
 20
174.8861087984491007
 30
0.0
 11
3629.6653932103909028
 21
174.7740891346491026
 31
0.0
  0
ARC
  5
1010E
  8
0
 10
3629.7058445323641536
 20
174.7744189445809013
 30
0.0
 40
0.0404526664622798
 50
180.4671367338879122
 51
246.4536264413399067
  0
ARC
  5
1010F
  8
0
 10
3629.6864158322068761
 20
174.731673769699114
 30
0.0
 40
0.0065364332842835
 50
300.0000003464389806
 51
59.9999995734155576
  0
ARC
  5
10110
  8
0
 10
3629.7058445323600608
 20
174.6889285948184067
 30
0.0
 40
0.0404526664588907
 50
113.5463735677555945
 51
179.532863267632905
  0
LINE
  5
10111
  8
0
 10
3629.6653932103909028
 20
174.6892584047490971
 30
0.0
 11
3629.6653932105691638
 21
174.5772387409490989
 31
0.0
  0
ARC
  5
10112
  8
0
 10
3629.7058445325410503
 20
174.5775685508808976
 30
0.0
 40
0.0404526664622798
 50
180.4671367338879122
 51
246.4536264413399067
  0
ARC
  5
10113
  8
0
 10
3629.6864158323837728
 20
174.5348233759989967
 30
0.0
 40
0.0065364332842835
 50
300.0000003464389806
 51
59.9999995734155576
  0
ARC
  5
10114
  8
0
 10
3629.7058445325378671
 20
174.4920782011184031
 30
0.0
 40
0.0404526664588907
 50
113.5463735677555945
 51
179.532863267632905
  0
LINE
  5
10115
  8
0
 10
3629.6653932105691638
 20
174.4924080110490934
 30
0.0
 11
3629.665393210745151
 21
174.3803883472490952
 31
0.0
  0
ARC
  5
10116
  8
0
 10
3629.7058445327188565
 20
174.3807181571808087
 30
0.0
 40
0.0404526664622798
 50
180.4671367338879122
 51
246.4536264413399067
  0
ARC
  5
10117
  8
0
 10
3629.6864158325620338
 20
174.337972982298993
 30
0.0
 40
0.0065364332842835
 50
300.0000003464389806
 51
59.9999995734155576
  0
ARC
  5
10118
  8
0
 10
3629.7058445327152185
 20
174.2952278074183141
 30
0.0
 40
0.0404526664588907
 50
113.5463735677555945
 51
179.532863267632905
  0
LINE
  5
10119
  8
0
 10
3629.665393210745151
 20
174.2955576173490044
 30
0.0
 11
3629.6653932109238667
 21
174.1835379535490063
 31
0.0
  0
ARC
  5
1011A
  8
0
 10
3629.705844532896208
 20
174.183867763480805
 30
0.0
 40
0.0404526664622798
 50
180.4671367338879122
 51
246.4536264413399067
  0
ARC
  5
1011B
  8
0
 10
3629.6864158327389305
 20
174.1411225885989893
 30
0.0
 40
0.0065364332842835
 50
300.0000003464389806
 51
59.9999995734155576
  0
ARC
  5
1011C
  8
0
 10
3629.7058445328921152
 20
174.0983774137183104
 30
0.0
 40
0.0404526664588907
 50
113.5463735677555945
 51
179.532863267632905
  0
LINE
  5
1011D
  8
0
 10
3629.6653932109238667
 20
174.0987072236490008
 30
0.0
 11
3629.6653932111012182
 21
173.9866875598490026
 31
0.0
  0
ARC
  5
1011E
  8
0
 10
3629.7058445330740142
 20
173.9870173697808013
 30
0.0
 40
0.0404526664622798
 50
180.4671367338879122
 51
246.4536264413399067
  0
ARC
  5
1011F
  8
0
 10
3629.6864158329158272
 20
173.944272194899014
 30
0.0
 40
0.0065364332842835
 50
300.0000003464389806
 51
59.9999995734155576
  0
ARC
  5
10120
  8
0
 10
3629.7058445330699215
 20
173.9015270200183068
 30
0.0
 40
0.0404526664588907
 50
113.5463735677555945
 51
179.532863267632905
  0
LINE
  5
10121
  8
0
 10
3629.6653932111012182
 20
173.9018568299489971
 30
0.0
 11
3629.6653932112781149
 21
173.7898371661489989
 31
0.0
  0
ARC
  5
10122
  8
0
 10
3629.7058445332500014
 20
173.7901669760807977
 30
0.0
 40
0.0404526664622798
 50
180.4671367338879122
 51
246.4536264413399067
  0
ARC
  5
10123
  8
0
 10
3629.6864158330940882
 20
173.7474218011990104
 30
0.0
 40
0.0065364332842835
 50
300.0000003464389806
 51
59.9999995734155576
  0
ARC
  5
10124
  8
0
 10
3629.7058445332481824
 20
173.7046766263183031
 30
0.0
 40
0.0404526664588907
 50
113.5463735677555945
 51
179.532863267632905
  0
LINE
  5
10125
  8
0
 10
3629.6653932112781149
 20
173.7050064362489934
 30
0.0
 11
3629.6653932114559211
 21
173.5929867724489952
 31
0.0
  0
ARC
  5
10126
  8
0
 10
3629.7058445334278076
 20
173.593316582380794
 30
0.0
 40
0.0404526664622798
 50
180.4671367338879122
 51
246.4536264413399067
  0
ARC
  5
10127
  8
0
 10
3629.6864158332709849
 20
173.5505714074990067
 30
0.0
 40
0.0065364332842835
 50
300.0000003464389806
 51
59.9999995734155576
  0
ARC
  5
10128
  8
0
 10
3629.7058445334241696
 20
173.5078262326182141
 30
0.0
 40
0.0404526664588907
 50
113.5463735677555945
 51
179.532863267632905
  0
LINE
  5
10129
  8
0
 10
3629.6653932114559211
 20
173.5081560425489897
 30
0.0
 11
3629.6653932116328178
 21
173.3961363787489063
 31
0.0
  0
ARC
  5
1012A
  8
0
 10
3629.7058445336060686
 20
173.396466188680705
 30
0.0
 40
0.0404526664622798
 50
180.4671367338879122
 51
246.4536264413399067
  0
ARC
  5
1012B
  8
0
 10
3629.6864158334487911
 20
173.3537210137988893
 30
0.0
 40
0.0065364332842835
 50
300.0000003464389806
 51
59.9999995734155576
  0
ARC
  5
1012C
  8
0
 10
3629.7058445336019759
 20
173.3109758389182105
 30
0.0
 40
0.0404526664588907
 50
113.5463735677555945
 51
179.532863267632905
  0
LINE
  5
1012D
  8
0
 10
3629.6653932116328178
 20
173.3113056488489008
 30
0.0
 11
3629.6653932118110788
 21
173.1992859850489026
 31
0.0
  0
ARC
  5
1012E
  8
0
 10
3629.7058445337829653
 20
173.1996157949807014
 30
0.0
 40
0.0404526664622798
 50
180.4671367338879122
 51
246.4536264413399067
  0
ARC
  5
1012F
  8
0
 10
3629.6864158336270521
 20
173.1568706200989141
 30
0.0
 40
0.0065364332842835
 50
300.0000003464389806
 51
59.9999995734155576
  0
ARC
  5
10130
  8
0
 10
3629.7058445337797821
 20
173.1141254452182068
 30
0.0
 40
0.0404526664588907
 50
113.5463735677555945
 51
179.532863267632905
  0
LINE
  5
10131
  8
0
 10
3629.6653932118110788
 20
173.1144552551488971
 30
0.0
 11
3629.6653932119879755
 21
173.0024355913488989
 31
0.0
  0
ARC
  5
10132
  8
0
 10
3629.705844533959862
 20
173.0027654012806977
 30
0.0
 40
0.0404526664622798
 50
180.4671367338879122
 51
246.4536264413399067
  0
ARC
  5
10133
  8
0
 10
3629.6864158338039488
 20
172.9600202263989104
 30
0.0
 40
0.0065364332842835
 50
300.0000003464389806
 51
59.9999995734155576
  0
ARC
  5
10134
  8
0
 10
3629.7058445339571335
 20
172.9172750515182031
 30
0.0
 40
0.0404526664588907
 50
113.5463735677555945
 51
179.532863267632905
  0
LINE
  5
10135
  8
0
 10
3629.6653932119879755
 20
172.9176048614488934
 30
0.0
 11
3629.6653932121657817
 21
172.8055851976488952
 31
0.0
  0
ARC
  5
10136
  8
0
 10
3629.705844534138123
 20
172.805915007580694
 30
0.0
 40
0.0404526664622798
 50
180.4671367338879122
 51
246.4536264413399067
  0
ARC
  5
10137
  8
0
 10
3629.6864158339808455
 20
172.763169832698793
 30
0.0
 40
0.0065364332842835
 50
300.0000003464389806
 51
59.9999995734155576
  0
LINE
  5
10138
  8
0
 10
3629.6653932100361999
 20
171.1459557031298004
 30
0.0
 11
3629.6653932100361999
 21
171.0339316544115036
 31
0.0
  0
ARC
  5
10139
  8
0
 10
3629.7058445320080864
 20
171.0342614643433024
 30
0.0
 40
0.0404526664622798
 50
180.4671367338879122
 51
246.4536264413399067
  0
ARC
  5
1013A
  8
0
 10
3629.6864158318521731
 20
170.9915162894614866
 30
0.0
 40
0.0065364332842835
 50
300.0000003464389806
 51
59.9999995734155576
  0
ARC
  5
1013B
  8
0
 10
3629.7058445320058127
 20
170.9487711145808078
 30
0.0
 40
0.0404526664588907
 50
113.5463735677555945
 51
179.532863267632905
  0
LINE
  5
1013C
  8
0
 10
3629.7559443911359267
 20
169.0033273129490965
 30
0.0
 11
3629.7559443911359267
 21
168.0372503876978953
 31
0.0
  0
LINE
  5
1013D
  8
0
 10
3629.6653932100361999
 20
170.9491009245114981
 30
0.0
 11
3629.6653932100361999
 21
169.4757682578490972
 31
0.0
  0
LINE
  5
1013E
  8
0
 10
3629.6653932100361999
 20
169.4757682578490972
 30
0.0
 11
3629.7259408132549652
 21
169.1017525098490921
 31
0.0
  0
LINE
  5
1013F
  8
0
 10
3629.6378341548361277
 20
169.1017525098490921
 30
0.0
 11
3629.6378341548361277
 21
169.0033273129490965
 31
0.0
  0
ARC
  5
10140
  8
0
 10
3620.6600535016200411
 20
197.1250947053260916
 30
0.0
 40
0.118405442936117
 50
189.7146939225318079
 51
269.8810053006287148
  0
ARC
  5
10141
  8
0
 10
3632.9331740790298682
 20
177.0459423775635059
 30
0.0
 40
0.4421706360982565
 50
85.9423025048246814
 51
184.1536753680582024
  0
ARC
  5
10142
  8
0
 10
3628.6118419680628904
 20
177.0318491757236075
 30
0.0
 40
0.4554792488868261
 50
357.7434545094068881
 51
92.1605676177067608
  0
LINE
  5
10143
  8
0
 10
3641.0157869107360966
 20
194.4161383366491123
 30
0.0
 11
3640.818931396779135
 21
194.4161383366491123
 31
0.0
  0
LINE
  5
10144
  8
0
 10
3620.5433459659361688
 20
194.4161383366491123
 30
0.0
 11
3620.7402014798940399
 21
194.4161383366491123
 31
0.0
  0
LINE
  5
10145
  8
0
 10
3640.1687708954618756
 20
187.3008587834490868
 30
0.0
 11
3621.3903619812108445
 21
187.3008587834490868
 31
0.0
  0
LINE
  5
10146
  8
0
 10
3640.1687709573361644
 20
187.4122142985490882
 30
0.0
 11
3621.390361919336101
 21
187.4122142985490882
 31
0.0
  0
LINE
  5
10147
  8
0
 10
3634.4247012774480936
 20
188.1169218011490898
 30
0.0
 11
3627.1378341548370372
 21
188.1169218011490898
 31
0.0
  0
LINE
  5
10148
  8
0
 10
3634.7894089580368018
 20
189.4417249507490908
 30
0.0
 11
3626.7697239186359184
 21
189.4417249507490908
 31
0.0
  0
LINE
  5
10149
  8
0
 10
3634.7894089580368018
 20
195.0598351870490887
 30
0.0
 11
3626.7697239186359184
 21
195.0598351870490887
 31
0.0
  0
LINE
  5
1014A
  8
0
 10
3634.4212987219070783
 20
196.3846383366490898
 30
0.0
 11
3627.1378341547660966
 21
196.3846383366490898
 31
0.0
  0
LINE
  5
1014B
  8
0
 10
3640.2294841936359262
 20
196.4633824311491139
 30
0.0
 11
3621.3296486830358845
 21
196.4633824311491139
 31
0.0
  0
CIRCLE
  5
1014C
  8
0
 10
3630.7795664383370422
 20
167.4285241633990893
 30
0.0
 40
0.9645669291500013
  0
LINE
  5
1014E
  8
0
 10
3637.6693302178359772
 20
175.2940910925491096
 30
0.0
 11
3636.0945270682359478
 21
176.8688942421491106
 31
0.0
  0
LINE
  5
1014F
  8
0
 10
3637.4724798241359167
 20
176.8688942421491106
 30
0.0
 11
3637.4724798241359167
 21
177.0933097653490904
 31
0.0
  0
LINE
  5
10150
  8
0
 10
3636.6850782493370389
 20
176.8688942421491106
 30
0.0
 11
3636.6850782493370389
 21
177.1604453029765978
 31
0.0
  0
ARC
  5
10151
  8
0
 10
3630.7795905980369753
 20
162.0814926673490959
 30
0.0
 40
1.9724409449
 50
1.1213197117388769
 51
353.7707463962341876
  0
ARC
  5
10152
  8
0
 10
3630.7795664383370422
 20
162.0814926673490959
 30
0.0
 40
2.5590329570844488
 50
132.1778194648206011
 51
201.6571603989692107
  0
ARC
  5
10153
  8
0
 10
3630.7795664383370422
 20
162.0814926673490959
 30
0.0
 40
2.5590329570844488
 50
11.5370603163177901
 51
47.8221805351793492
  0
ARC
  5
10154
  8
0
 10
3630.7795905980369753
 20
162.0814926673490959
 30
0.0
 40
2.090551181099999
 50
189.7612768036433124
 51
353.5120442764513768
  0
ARC
  5
10155
  8
0
 10
3630.7795905980369753
 20
162.0814926673490959
 30
0.0
 40
2.090551181099999
 50
0.0
 51
2.7612257586567179
  0
ARC
  5
10156
  8
0
 10
3630.7795905980369753
 20
162.0814926673490959
 30
0.0
 40
2.090551181099999
 50
6.0000000015385142
 51
12.4380928151970505
  0
ARC
  5
10157
  8
0
 10
3630.7795664383370422
 20
162.0814926673490959
 30
0.0
 40
2.2637739115304729
 50
208.0061531523006124
 51
354.0103917456463023
  0
CIRCLE
  5
10158
  8
0
 10
3637.0787790367371599
 20
177.5657446358490859
 30
0.0
 40
0.2755905512000005
  0
LINE
  5
10159
  8
0
 10
3637.1772042336360755
 20
177.6225704497491051
 30
0.0
 11
3637.1772042336360755
 21
177.508918821949095
 31
0.0
  0
LINE
  5
1015A
  8
0
 10
3637.1772042336360755
 20
177.508918821949095
 30
0.0
 11
3637.0787790367371599
 21
177.4520930080491041
 31
0.0
  0
LINE
  5
1015B
  8
0
 10
3637.0787790367371599
 20
177.4520930080491041
 30
0.0
 11
3636.980353839936015
 21
177.508918821949095
 31
0.0
  0
LINE
  5
1015C
  8
0
 10
3636.980353839936015
 20
177.508918821949095
 30
0.0
 11
3636.980353839936015
 21
177.6225704497491051
 31
0.0
  0
LINE
  5
1015D
  8
0
 10
3636.980353839936015
 20
177.6225704497491051
 30
0.0
 11
3637.0787790367371599
 21
177.679396263649096
 31
0.0
  0
LINE
  5
1015E
  8
0
 10
3637.0787790367371599
 20
177.679396263649096
 30
0.0
 11
3637.1772042336360755
 21
177.6225704497491051
 31
0.0
  0
ARC
  5
1015F
  8
0
 10
3631.8532883385150853
 20
172.7204246595715915
 30
0.0
 40
0.0404526664588907
 50
0.4671367323670772
 51
66.4536264322444055
  0
ARC
  5
10160
  8
0
 10
3629.7058445297561775
 20
172.7204246595715915
 30
0.0
 40
0.0404526664588907
 50
113.5463735677555945
 51
179.532863267632905
  0
LINE
  5
10161
  8
0
 10
3631.8937396604828791
 20
172.7207544695023103
 30
0.0
 11
3631.8937396603059824
 21
172.6087348057023121
 31
0.0
  0
ARC
  5
10162
  8
0
 10
3631.8532883383340959
 20
172.6090646156341109
 30
0.0
 40
0.0404526664622798
 50
293.5463735586600933
 51
359.5328632661119741
  0
ARC
  5
10163
  8
0
 10
3631.8727170384900091
 20
172.5663194407522951
 30
0.0
 40
0.0065364332842835
 50
120.0000004265844069
 51
239.999999653560991
  0
LINE
  5
10164
  8
0
 10
3631.8694488218061451
 20
172.5719801580023898
 30
0.0
 11
3629.6896840464642082
 21
172.5719801580023898
 31
0.0
  0
LINE
  5
10165
  8
0
 10
3631.8694488218138758
 20
172.5606587234977098
 30
0.0
 11
3629.6896840464560228
 21
172.5606587234977098
 31
0.0
  0
LINE
  5
10166
  8
0
 10
3629.6653932077870195
 20
172.7207544695023103
 30
0.0
 11
3629.6653932079639162
 21
172.6087348057023121
 31
0.0
  0
ARC
  5
10167
  8
0
 10
3629.705844529937167
 20
172.6090646156341109
 30
0.0
 40
0.0404526664622798
 50
180.4671367338879122
 51
246.4536264413399067
  0
ARC
  5
10168
  8
0
 10
3629.68641582977898
 20
172.5663194407522951
 30
0.0
 40
0.0065364332842835
 50
300.0000003464389806
 51
59.9999995734155576
  0
ARC
  5
10169
  8
0
 10
3631.8532883343132198
 20
172.5235742676250084
 30
0.0
 40
0.0404526664588907
 50
0.4671367323670772
 51
66.4536264322444055
  0
ARC
  5
1016A
  8
0
 10
3629.7058445255552215
 20
172.5235742676250084
 30
0.0
 40
0.0404526664588907
 50
113.5463735677555945
 51
179.532863267632905
  0
LINE
  5
1016B
  8
0
 10
3631.8937396562828326
 20
172.5239040775558124
 30
0.0
 11
3631.8937396561050264
 21
172.4118844137558142
 31
0.0
  0
ARC
  5
1016C
  8
0
 10
3631.8532883341331399
 20
172.412214223687613
 30
0.0
 40
0.0404526664622798
 50
293.5463735586600933
 51
359.5328632661119741
  0
ARC
  5
1016D
  8
0
 10
3631.8727170342890531
 20
172.369469048805712
 30
0.0
 40
0.0065364332842835
 50
120.0000004265844069
 51
239.999999653560991
  0
LINE
  5
1016E
  8
0
 10
3631.8694488176051891
 20
172.3751297660558919
 30
0.0
 11
3629.6896840422627974
 21
172.3751297660558919
 31
0.0
  0
LINE
  5
1016F
  8
0
 10
3631.8694488176129198
 20
172.3638083315512119
 30
0.0
 11
3629.6896840422550667
 21
172.3638083315512119
 31
0.0
  0
LINE
  5
10170
  8
0
 10
3629.665393203585154
 20
172.5239040775558124
 30
0.0
 11
3629.6653932037629602
 21
172.4118844137558142
 31
0.0
  0
ARC
  5
10171
  8
0
 10
3629.7058445257362109
 20
172.412214223687613
 30
0.0
 40
0.0404526664622798
 50
180.4671367338879122
 51
246.4536264413399067
  0
ARC
  5
10172
  8
0
 10
3629.6864158255789334
 20
172.369469048805712
 30
0.0
 40
0.0065364332842835
 50
300.0000003464389806
 51
59.9999995734155576
  0
ARC
  5
10173
  8
0
 10
3631.853288330111809
 20
172.3267238756785105
 30
0.0
 40
0.0404526664588907
 50
0.4671367323670772
 51
66.4536264322444055
  0
ARC
  5
10174
  8
0
 10
3629.7058445213538107
 20
172.3267238756785105
 30
0.0
 40
0.0404526664588907
 50
113.5463735677555945
 51
179.532863267632905
  0
LINE
  5
10175
  8
0
 10
3631.8937396520809671
 20
172.3270536856092008
 30
0.0
 11
3631.8937396519040703
 21
172.2150340218092026
 31
0.0
  0
ARC
  5
10176
  8
0
 10
3631.8532883299308196
 20
172.2153638317410014
 30
0.0
 40
0.0404526664622798
 50
293.5463735586600933
 51
359.5328632661119741
  0
ARC
  5
10177
  8
0
 10
3631.8727170300880971
 20
172.1726186568592141
 30
0.0
 40
0.0065364332842835
 50
120.0000004265844069
 51
239.999999653560991
  0
LINE
  5
10178
  8
0
 10
3631.8694488134037783
 20
172.1782793741093087
 30
0.0
 11
3629.6896840380609319
 21
172.1782793741093087
 31
0.0
  0
LINE
  5
10179
  8
0
 10
3631.8694488134110543
 20
172.1669579396046004
 30
0.0
 11
3629.6896840380541107
 21
172.1669579396046004
 31
0.0
  0
LINE
  5
1017A
  8
0
 10
3629.6653931993851074
 20
172.3270536856092008
 30
0.0
 11
3629.6653931995610947
 21
172.2150340218092026
 31
0.0
  0
ARC
  5
1017B
  8
0
 10
3629.7058445215338907
 20
172.2153638317410014
 30
0.0
 40
0.0404526664622798
 50
180.4671367338879122
 51
246.4536264413399067
  0
ARC
  5
1017C
  8
0
 10
3629.6864158213770679
 20
172.1726186568592141
 30
0.0
 40
0.0065364332842835
 50
300.0000003464389806
 51
59.9999995734155576
  0
ARC
  5
1017D
  8
0
 10
3631.853288325910853
 20
172.1298734837318989
 30
0.0
 40
0.0404526664588907
 50
0.4671367323670772
 51
66.4536264322444055
  0
ARC
  5
1017E
  8
0
 10
3629.7058445171528547
 20
172.1298734837318989
 30
0.0
 40
0.0404526664588907
 50
113.5463735677555945
 51
179.532863267632905
  0
LINE
  5
1017F
  8
0
 10
3631.893739647880011
 20
172.1302032936627029
 30
0.0
 11
3631.8937396477031143
 21
172.018183629862591
 31
0.0
  0
ARC
  5
10180
  8
0
 10
3631.8532883257298636
 20
172.0185134397943898
 30
0.0
 40
0.0404526664622798
 50
293.5463735586600933
 51
359.5328632661119741
  0
ARC
  5
10181
  8
0
 10
3631.8727170258871411
 20
171.9757682649126025
 30
0.0
 40
0.0065364332842835
 50
120.0000004265844069
 51
239.999999653560991
  0
LINE
  5
10182
  8
0
 10
3631.8694488092028223
 20
171.9814289821626971
 30
0.0
 11
3629.6896840338599759
 21
171.9814289821626971
 31
0.0
  0
LINE
  5
10183
  8
0
 10
3631.8694488092100983
 20
171.9701075476579888
 30
0.0
 11
3629.6896840338531547
 21
171.9701075476579888
 31
0.0
  0
LINE
  5
10184
  8
0
 10
3629.6653931951827872
 20
172.1302032936627029
 30
0.0
 11
3629.6653931953601386
 21
172.018183629862591
 31
0.0
  0
ARC
  5
10185
  8
0
 10
3629.7058445173329346
 20
172.0185134397943898
 30
0.0
 40
0.0404526664622798
 50
180.4671367338879122
 51
246.4536264413399067
  0
ARC
  5
10186
  8
0
 10
3629.6864158171770214
 20
171.9757682649126025
 30
0.0
 40
0.0065364332842835
 50
300.0000003464389806
 51
59.9999995734155576
  0
ARC
  5
10187
  8
0
 10
3631.853288321709897
 20
171.933023091785401
 30
0.0
 40
0.0404526664588907
 50
0.4671367323670772
 51
66.4536264322444055
  0
ARC
  5
10188
  8
0
 10
3629.7058445129509892
 20
171.933023091785401
 30
0.0
 40
0.0404526664588907
 50
113.5463735677555945
 51
179.532863267632905
  0
LINE
  5
10189
  8
0
 10
3631.893739643679055
 20
171.9333529017160913
 30
0.0
 11
3631.893739643500794
 21
171.8213332379160931
 31
0.0
  0
ARC
  5
1018A
  8
0
 10
3631.8532883215289075
 20
171.8216630478478919
 30
0.0
 40
0.0404526664622798
 50
293.5463735586600933
 51
359.5328632661119741
  0
ARC
  5
1018B
  8
0
 10
3631.872717021686185
 20
171.7789178729661046
 30
0.0
 40
0.0065364332842835
 50
120.0000004265844069
 51
239.999999653560991
  0
LINE
  5
1018C
  8
0
 10
3631.8694488050018663
 20
171.7845785902161992
 30
0.0
 11
3629.6896840296590199
 21
171.7845785902161992
 31
0.0
  0
LINE
  5
1018D
  8
0
 10
3631.8694488050091422
 20
171.7732571557114909
 30
0.0
 11
3629.6896840296508344
 21
171.7732571557114909
 31
0.0
  0
LINE
  5
1018E
  8
0
 10
3629.6653931909818311
 20
171.9333529017160913
 30
0.0
 11
3629.6653931911591826
 21
171.8213332379160931
 31
0.0
  0
ARC
  5
1018F
  8
0
 10
3629.7058445131310691
 20
171.8216630478478919
 30
0.0
 40
0.0404526664622798
 50
180.4671367338879122
 51
246.4536264413399067
  0
ARC
  5
10190
  8
0
 10
3629.6864158129751559
 20
171.7789178729661046
 30
0.0
 40
0.0065364332842835
 50
300.0000003464389806
 51
59.9999995734155576
  0
ARC
  5
10191
  8
0
 10
3631.853288317508941
 20
171.7361726998387894
 30
0.0
 40
0.0404526664588907
 50
0.4671367323670772
 51
66.4536264322444055
  0
ARC
  5
10192
  8
0
 10
3629.7058445087500331
 20
171.7361726998387894
 30
0.0
 40
0.0404526664588907
 50
113.5463735677555945
 51
179.532863267632905
  0
LINE
  5
10193
  8
0
 10
3631.8937396394771895
 20
171.7365025097695082
 30
0.0
 11
3631.893739639299838
 21
171.62448284596951
 31
0.0
  0
ARC
  5
10194
  8
0
 10
3631.8532883173279515
 20
171.6248126559013087
 30
0.0
 40
0.0404526664622798
 50
293.5463735586600933
 51
359.5328632661119741
  0
ARC
  5
10195
  8
0
 10
3631.8727170174847743
 20
171.582067481019493
 30
0.0
 40
0.0065364332842835
 50
120.0000004265844069
 51
239.999999653560991
  0
LINE
  5
10196
  8
0
 10
3631.8694488008009102
 20
171.5877281982695877
 30
0.0
 11
3629.6896840254571543
 21
171.5877281982695877
 31
0.0
  0
LINE
  5
10197
  8
0
 10
3631.8694488008081862
 20
171.576406763764993
 30
0.0
 11
3629.6896840254498784
 21
171.576406763764993
 31
0.0
  0
LINE
  5
10198
  8
0
 10
3629.6653931867799656
 20
171.7365025097695082
 30
0.0
 11
3629.6653931869582266
 21
171.62448284596951
 31
0.0
  0
ARC
  5
10199
  8
0
 10
3629.7058445089310226
 20
171.6248126559013087
 30
0.0
 40
0.0404526664622798
 50
180.4671367338879122
 51
246.4536264413399067
  0
ARC
  5
1019A
  8
0
 10
3629.6864158087741998
 20
171.582067481019493
 30
0.0
 40
0.0065364332842835
 50
300.0000003464389806
 51
59.9999995734155576
  0
ARC
  5
1019B
  8
0
 10
3631.8532883133070754
 20
171.5393223078922063
 30
0.0
 40
0.0404526664588907
 50
0.4671367323670772
 51
66.4536264322444055
  0
ARC
  5
1019C
  8
0
 10
3629.7058445045490771
 20
171.5393223078922063
 30
0.0
 40
0.0404526664588907
 50
113.5463735677555945
 51
179.532863267632905
  0
LINE
  5
1019D
  8
0
 10
3631.893739635277143
 20
171.5396521178230103
 30
0.0
 11
3631.893739635098882
 21
171.4276324540230121
 31
0.0
  0
ARC
  5
1019E
  8
0
 10
3631.8532883131269955
 20
171.4279622639548109
 30
0.0
 40
0.0404526664622798
 50
293.5463735586600933
 51
359.5328632661119741
  0
ARC
  5
1019F
  8
0
 10
3631.8727170132829087
 20
171.3852170890729099
 30
0.0
 40
0.0065364332842835
 50
120.0000004265844069
 51
239.999999653560991
  0
LINE
  5
101A0
  8
0
 10
3631.8694487965990447
 20
171.3908778063230898
 30
0.0
 11
3629.6896840212571078
 21
171.3908778063230898
 31
0.0
  0
LINE
  5
101A1
  8
0
 10
3631.8694487966067754
 20
171.3795563718184098
 30
0.0
 11
3629.6896840212489224
 21
171.3795563718184098
 31
0.0
  0
LINE
  5
101A2
  8
0
 10
3629.6653931825790096
 20
171.5396521178230103
 30
0.0
 11
3629.6653931827568158
 21
171.4276324540230121
 31
0.0
  0
ARC
  5
101A3
  8
0
 10
3629.7058445047291571
 20
171.4279622639548109
 30
0.0
 40
0.0404526664622798
 50
180.4671367338879122
 51
246.4536264413399067
  0
ARC
  5
101A4
  8
0
 10
3629.6864158045718796
 20
171.3852170890729099
 30
0.0
 40
0.0065364332842835
 50
300.0000003464389806
 51
59.9999995734155576
  0
ARC
  5
101A5
  8
0
 10
3631.8532883091061194
 20
171.3424719159457084
 30
0.0
 40
0.0404526664588907
 50
0.4671367323670772
 51
66.4536264322444055
  0
ARC
  5
101A6
  8
0
 10
3629.7058445003472116
 20
171.3424719159457084
 30
0.0
 40
0.0404526664588907
 50
113.5463735677555945
 51
179.532863267632905
  0
LINE
  5
101A7
  8
0
 10
3631.8937396310748227
 20
171.3428017258763987
 30
0.0
 11
3631.893739630897926
 21
171.2307820620764005
 31
0.0
  0
ARC
  5
101A8
  8
0
 10
3631.8532883089260395
 20
171.2311118720081993
 30
0.0
 40
0.0404526664622798
 50
293.5463735586600933
 51
359.5328632661119741
  0
ARC
  5
101A9
  8
0
 10
3631.8727170090819527
 20
171.188366697126412
 30
0.0
 40
0.0065364332842835
 50
120.0000004265844069
 51
239.999999653560991
  0
LINE
  5
101AA
  8
0
 10
3631.8694487923980887
 20
171.1940274143765066
 30
0.0
 11
3629.6896840170547875
 21
171.1940274143765066
 31
0.0
  0
LINE
  5
101AB
  8
0
 10
3631.8694487924058194
 20
171.1827059798717983
 30
0.0
 11
3629.6896840170479663
 21
171.1827059798717983
 31
0.0
  0
LINE
  5
101AC
  8
0
 10
3629.6653931783780536
 20
171.3428017258763987
 30
0.0
 11
3629.6653931785558598
 21
171.2307820620764005
 31
0.0
  0
ARC
  5
101AD
  8
0
 10
3629.7058445005291105
 20
171.2311118720081993
 30
0.0
 40
0.0404526664622798
 50
180.4671367338879122
 51
246.4536264413399067
  0
ARC
  5
101AE
  8
0
 10
3629.6864158003709235
 20
171.188366697126412
 30
0.0
 40
0.0065364332842835
 50
300.0000003464389806
 51
59.9999995734155576
  0
ARC
  5
101AF
  8
0
 10
3631.8532883049051634
 20
171.1456215239990968
 30
0.0
 40
0.0404526664588907
 50
0.460177213551927
 51
66.4536264322444055
  0
ARC
  5
101B0
  8
0
 10
3629.7058444961458008
 20
171.1456215239990968
 30
0.0
 40
0.0404526664588925
 50
113.5463735677562056
 51
179.5266746731986132
  0
LINE
  5
101B1
  8
0
 10
3637.5081942762608378
 20
156.1090517225491112
 30
0.0
 11
3634.554875608211205
 21
156.1090517225491112
 31
0.0
  0
ARC
  5
101B2
  8
0
 10
3637.5034008318848464
 20
155.7190639928631128
 30
0.0
 40
0.390017187332374
 50
80.1306967329727513
 51
89.2957975808897118
  0
ARC
  5
101B3
  8
0
 10
3637.5538580010052101
 20
156.0592057249025117
 30
0.0
 40
0.0470515022032615
 50
9.3741281816500504
 51
69.611116708043383
  0
ARC
  5
101B4
  8
0
 10
3637.4205991535050089
 20
156.0188889233455996
 30
0.0
 40
0.1859778529986023
 50
2.904523703711833
 51
14.9508756463743495
  0
ARC
  5
101B5
  8
0
 10
3637.5034008318848464
 20
155.797804151491988
 30
0.0
 40
0.390017187332374
 50
80.1306967329727513
 51
89.2957975808897118
  0
ARC
  5
101B6
  8
0
 10
3637.5538580010052101
 20
156.1379458835315006
 30
0.0
 40
0.0470515022032615
 50
9.3741281816500504
 51
69.611116708043383
  0
ARC
  5
101B7
  8
0
 10
3637.4205991535050089
 20
156.0976290819745032
 30
0.0
 40
0.1859778529986023
 50
2.904523703711833
 51
14.9508756463743495
  0
ARC
  5
101B8
  8
0
 10
3634.5596690525871963
 20
155.7190639928631128
 30
0.0
 40
0.390017187332374
 50
90.704202419110274
 51
99.8693032670272629
  0
ARC
  5
101B9
  8
0
 10
3634.5092118834681969
 20
156.0592057249025117
 30
0.0
 40
0.0470515022032615
 50
110.3888832919566028
 51
170.625871818349907
  0
ARC
  5
101BA
  8
0
 10
3634.6424707309670339
 20
156.0188889233455996
 30
0.0
 40
0.1859778529986023
 50
165.0491243536255865
 51
177.0954762962882114
  0
ARC
  5
101BB
  8
0
 10
3634.5596690525871963
 20
155.797804151491988
 30
0.0
 40
0.390017187332374
 50
90.704202419110274
 51
99.8693032670272629
  0
ARC
  5
101BC
  8
0
 10
3634.5092118834681969
 20
156.1379458835315006
 30
0.0
 40
0.0470515022032615
 50
110.3888832919566028
 51
170.625871818349907
  0
ARC
  5
101BD
  8
0
 10
3634.6424707309670339
 20
156.0976290819745032
 30
0.0
 40
0.1859778529986023
 50
165.0491243536255865
 51
177.0954762962882114
  0
ARC
  5
101BE
  8
0
 10
3635.977722308120974
 20
157.4618554993438124
 30
0.0
 40
0.1164543485884323
 50
303.9481837333127032
 51
56.0518162760826328
  0
ARC
  5
101BF
  8
0
 10
3635.9777238326200859
 20
156.882233047999307
 30
0.0
 40
0.1164527918662995
 50
303.9508821194240795
 51
56.0522049141122309
  0
ARC
  5
101C0
  8
0
 10
3635.7072396864377879
 20
157.1720438486497073
 30
0.0
 40
0.3871692721857992
 50
330.0643784536700878
 51
29.9356215119751603
  0
LINE
  5
101C1
  8
0
 10
3636.0945270684010211
 20
157.5066895178491109
 30
0.0
 11
3636.0655886830668351
 21
157.5382826899171107
 31
0.0
  0
LINE
  5
101C2
  8
0
 10
3636.0945270684010211
 20
156.8373981792491065
 30
0.0
 11
3636.0628238576628064
 21
156.8027394100706999
 31
0.0
  0
LINE
  5
101C3
  8
0
 10
3636.0945270682359478
 20
165.1051147146490905
 30
0.0
 11
3625.4646058084358629
 21
165.1051147146490905
 31
0.0
  0
LINE
  5
101C4
  8
0
 10
3632.4331339051368559
 20
165.1051147146490905
 30
0.0
 11
3632.4331339051368559
 21
164.12380957274911
 31
0.0
  0
ARC
  5
101C5
  8
0
 10
3632.6301011734149142
 20
164.12380957274911
 30
0.0
 40
0.1969672682786783
 50
180.0
 51
227.7973867947258952
  0
LINE
  5
101C6
  8
0
 10
3629.06696801313592
 20
177.013915150449094
 30
0.0
 11
3629.06696801313592
 21
176.8177131397490882
 31
0.0
  0
LINE
  5
101C7
  8
0
 10
3631.5709291807361296
 20
165.1051147146490905
 30
0.0
 11
3631.5709291807361296
 21
164.6838550981491096
 31
0.0
  0
ARC
  5
101C8
  8
0
 10
3631.5512439153321793
 20
164.6838550981491096
 30
0.0
 40
0.0196852654048012
 50
270.0015463978036223
 51
359.9999999999984084
  0
LINE
  5
101C9
  8
0
 10
3631.4725039839368037
 20
164.9082643209490868
 30
0.0
 11
3631.3622677634361935
 21
164.9082643209490868
 31
0.0
  0
LINE
  5
101CA
  8
0
 10
3631.3622677634361935
 20
164.9082643209490868
 30
0.0
 11
3631.3622677634361935
 21
164.9397603839491069
 31
0.0
  0
ARC
  5
101CB
  8
0
 10
3631.3228976847358354
 20
164.9397603839491069
 30
0.0
 40
0.0393700786999993
 50
0.0000000000016284
 51
90.0000001455437939
  0
LINE
  5
101CC
  8
0
 10
3631.3228976846357909
 20
164.9791304626490955
 30
0.0
 11
3631.3032126453372257
 21
164.9791304625991017
 31
0.0
  0
ARC
  5
101CD
  8
0
 10
3631.3032126454368154
 20
164.9397603837990971
 30
0.0
 40
0.0393700787999993
 50
90.0000001455437939
 51
179.9999997817037922
  0
LINE
  5
101CE
  8
0
 10
3631.2638425666359581
 20
164.9397603839491069
 30
0.0
 11
3631.2638425665168143
 21
164.9082643209490868
 31
0.0
  0
LINE
  5
101CF
  8
0
 10
3631.1536063461358026
 20
164.9082643209490868
 30
0.0
 11
3631.1536063461358026
 21
164.9397603839491069
 31
0.0
  0
ARC
  5
101D0
  8
0
 10
3631.1142362674368087
 20
164.9397603839491069
 30
0.0
 40
0.0393700786999993
 50
0.0000000000016284
 51
90.0000001455437939
  0
LINE
  5
101D1
  8
0
 10
3631.1142362673358548
 20
164.9791304626490955
 30
0.0
 11
3631.0945512280368348
 21
164.9791304625991017
 31
0.0
  0
ARC
  5
101D2
  8
0
 10
3631.0945512281359697
 20
164.9397603837990971
 30
0.0
 40
0.0393700787999993
 50
90.0000001455437939
 51
179.9999997817037922
  0
LINE
  5
101D3
  8
0
 10
3631.0551811493360219
 20
164.9397603839491069
 30
0.0
 11
3631.0551811492159686
 21
164.9082643209490868
 31
0.0
  0
ARC
  5
101D4
  8
0
 10
3631.531559102157189
 20
164.9397603839491069
 30
0.0
 40
0.0393700786999993
 50
0.0000000000016284
 51
90.0000001455437939
  0
LINE
  5
101D5
  8
0
 10
3631.5315591020557804
 20
164.9791304626490955
 30
0.0
 11
3631.5118740627558509
 21
164.9791304625991017
 31
0.0
  0
ARC
  5
101D6
  8
0
 10
3631.5118740628558953
 20
164.9397603837990971
 30
0.0
 40
0.0393700787999993
 50
90.0000001455437939
 51
179.9999997817037922
  0
LINE
  5
101D7
  8
0
 10
3631.4725039840559475
 20
164.9397603839491069
 30
0.0
 11
3631.4725039839368037
 21
164.9082643209490868
 31
0.0
  0
LINE
  5
101D8
  8
0
 10
3631.2638425665168143
 20
164.9082643209490868
 30
0.0
 11
3631.1536063461358026
 21
164.9082643209490868
 31
0.0
  0
LINE
  5
101D9
  8
0
 10
3631.0551811492159686
 20
164.9082643209490868
 30
0.0
 11
3630.944944928735822
 21
164.9082643209490868
 31
0.0
  0
LINE
  5
101DA
  8
0
 10
3630.944944928735822
 20
164.9082643209490868
 30
0.0
 11
3630.944944928735822
 21
164.9791304626490955
 31
0.0
  0
LINE
  5
101DB
  8
0
 10
3630.944944928735822
 20
164.9791304626490955
 30
0.0
 11
3630.6488246419257848
 21
164.9791304626490955
 31
0.0
  0
LINE
  5
101DC
  8
0
 10
3629.9882036959361358
 20
164.9870044784491085
 30
0.0
 11
3631.5709291807361296
 21
164.9870044784491085
 31
0.0
  0
ARC
  5
101DD
  8
0
 10
3632.7440661163359437
 20
161.3664820527490917
 30
0.0
 40
0.1181102361999991
 50
248.38125979670059
 51
71.6187402036070466
  0
ARC
  5
101DE
  8
0
 10
3631.9786862351998025
 20
160.3690264182457099
 30
0.0
 40
0.1181102361999991
 50
124.3545828242015006
 51
125.6460395339421012
  0
ARC
  5
101DF
  8
0
 10
3631.9786862351998025
 20
160.3690264182457099
 30
0.0
 40
0.1181102361999991
 50
213.3854229297550091
 51
36.6151994283924509
  0
ARC
  5
101E0
  8
0
 10
3630.7795711789999586
 20
159.99095451098529
 30
0.0
 40
0.1181102361999991
 50
89.1729488025440844
 51
90.8259867549378157
  0
ARC
  5
101E1
  8
0
 10
3630.7795711789999586
 20
159.99095451098529
 30
0.0
 40
0.1181102361999991
 50
178.3870383533324002
 51
1.6118972041520401
  0
ARC
  5
101E2
  8
0
 10
3629.5805044423000254
 20
160.3690264182457099
 30
0.0
 40
0.1181102361999991
 50
54.1619240578476422
 51
55.8378793109676081
  0
ARC
  5
101E3
  8
0
 10
3629.5805044423000254
 20
160.3690264182457099
 30
0.0
 40
0.1181102361999991
 50
143.3876484500077026
 51
326.6121549188121094
  0
LINE
  5
101E4
  8
0
 10
3627.1024010840360461
 20
155.9909414862491133
 30
0.0
 11
3623.9527947848359872
 21
155.9909414862491133
 31
0.0
  0
LINE
  5
101E5
  8
0
 10
3623.8898026588371977
 20
175.2940910925491096
 30
0.0
 11
3619.7559443911359267
 21
175.2940910925491096
 31
0.0
  0
LINE
  5
101E6
  8
0
 10
3625.4646058084358629
 20
176.8688942421491106
 30
0.0
 11
3620.5433459659361688
 21
176.8688942421491106
 31
0.0
  0
LINE
  5
101E7
  8
0
 10
3625.4646058084358629
 20
176.8688942421491106
 30
0.0
 11
3625.4646058084358629
 21
156.1877918799492022
 31
0.0
  0
LINE
  5
101E8
  8
0
 10
3623.8898026588371977
 20
175.2940910925491096
 30
0.0
 11
3623.8898026588371977
 21
156.1877918799492022
 31
0.0
  0
CIRCLE
  5
101E9
  8
0
 10
3624.6772042336360755
 20
173.7980281003490859
 30
0.0
 40
0.2460629921000006
  0
LINE
  5
101EA
  8
0
 10
3627.1024010840360461
 20
156.1877918799490885
 30
0.0
 11
3623.8898026588371977
 21
156.1877918799492022
 31
0.0
  0
LINE
  5
101EB
  8
0
 10
3627.1024010840360461
 20
156.1877918799490885
 30
0.0
 11
3627.1024010840360461
 21
155.9909414862491133
 31
0.0
  0
LINE
  5
101EC
  8
0
 10
3623.9527947848359872
 20
156.1877918799490885
 30
0.0
 11
3623.9527947848359872
 21
155.9909414862491133
 31
0.0
  0
LINE
  5
101ED
  8
0
 10
3625.9370467533371993
 20
157.5066897661222924
 30
0.0
 11
3626.1732672257371632
 21
157.5066877294491121
 31
0.0
  0
LINE
  5
101EE
  8
0
 10
3626.1732672257371632
 20
157.5066877294491121
 30
0.0
 11
3626.1732672257371632
 21
156.8373999676491053
 31
0.0
  0
LINE
  5
101EF
  8
0
 10
3625.72779478559778
 20
157.5584593816309962
 30
0.0
 11
3625.5163774621050834
 21
157.5584593831742097
 31
0.0
  0
LINE
  5
101F0
  8
0
 10
3625.9370467533371993
 20
157.5066897661222924
 30
0.0
 11
3625.9370467533371993
 21
156.8373979309760102
 31
0.0
  0
LINE
  5
101F1
  8
0
 10
3625.9370467533371993
 20
157.5017769203491014
 30
0.0
 11
3625.9212987218361377
 21
157.501759595549089
 31
0.0
  0
LINE
  5
101F2
  8
0
 10
3625.9212987218361377
 20
157.501759595549089
 30
0.0
 11
3625.9212987218361377
 21
156.8423281015491
 31
0.0
  0
LINE
  5
101F3
  8
0
 10
3625.9212987218361377
 20
157.3334611713490858
 30
0.0
 11
3625.7786344206228932
 21
157.3334611713490858
 31
0.0
  0
LINE
  5
101F4
  8
0
 10
3626.1214955722371087
 20
157.1720438485490945
 30
0.0
 11
3625.9370467533371993
 21
157.1720438485490945
 31
0.0
  0
ARC
  5
101F5
  8
0
 10
3625.6627616780560857
 20
157.4618554993438124
 30
0.0
 40
0.1164543485884323
 50
303.9481837333127032
 51
56.0518162760826328
  0
LINE
  5
101F6
  8
0
 10
3625.7277947848519943
 20
157.3652516157490879
 30
0.0
 11
3625.5163774619209107
 21
157.3652516157490879
 31
0.0
  0
ARC
  5
101F7
  8
0
 10
3625.8774550667289986
 20
157.3392236767163013
 30
0.0
 40
0.2958122094743907
 50
325.5869259932424029
 51
34.4799187833558065
  0
LINE
  5
101F8
  8
0
 10
3625.9370467533371993
 20
156.8373979309760102
 30
0.0
 11
3626.1732672257371632
 21
156.8373999676491053
 31
0.0
  0
LINE
  5
101F9
  8
0
 10
3625.7277999902689771
 20
156.7856335199379885
 30
0.0
 11
3625.5163774620082222
 21
156.7856283138767992
 31
0.0
  0
LINE
  5
101FA
  8
0
 10
3625.9370467533371993
 20
156.8423107767490876
 30
0.0
 11
3625.9212987218361377
 21
156.8423281015491
 31
0.0
  0
LINE
  5
101FB
  8
0
 10
3625.9212987218361377
 20
157.0106265257491032
 30
0.0
 11
3625.7786344206228932
 21
157.0106265257491032
 31
0.0
  0
ARC
  5
101FC
  8
0
 10
3625.6627632025538333
 20
156.882233047999307
 30
0.0
 40
0.1164527918662995
 50
303.950882119424989
 51
56.0522049141122309
  0
LINE
  5
101FD
  8
0
 10
3625.7277947847369433
 20
156.9788360813491011
 30
0.0
 11
3625.5163774618708885
 21
156.9788360813491011
 31
0.0
  0
ARC
  5
101FE
  8
0
 10
3625.8774550667289986
 20
157.0048640203820014
 30
0.0
 40
0.2958122094743907
 50
325.5200812166442006
 51
34.4130740067576966
  0
LINE
  5
101FF
  8
0
 10
3625.7795664383361327
 20
157.5066895178491109
 30
0.0
 11
3625.7795664383361327
 21
156.8373981792491065
 31
0.0
  0
ARC
  5
10200
  8
0
 10
3625.39227905637199
 20
157.1720438486497073
 30
0.0
 40
0.3871692721857992
 50
330.0643784536700878
 51
29.9356215119751603
  0
LINE
  5
10201
  8
0
 10
3625.7795664383361327
 20
157.5066895178491109
 30
0.0
 11
3625.7506280530019467
 21
157.5382826899171107
 31
0.0
  0
LINE
  5
10202
  8
0
 10
3625.7795664383361327
 20
156.8373981792491065
 30
0.0
 11
3625.747863227597918
 21
156.8027394100706999
 31
0.0
  0
CIRCLE
  5
10203
  8
0
 10
3627.2362351920360197
 20
166.0184655625490961
 30
0.0
 40
0.2657480314999994
  0
CIRCLE
  5
10204
  8
0
 10
3626.2519832235361719
 20
166.0184655625490961
 30
0.0
 40
0.2657480314999994
  0
LINE
  5
10205
  8
0
 10
3623.8898026588371977
 20
175.2940910925491096
 30
0.0
 11
3625.4646058084358629
 21
176.8688942421491106
 31
0.0
  0
LINE
  5
10206
  8
0
 10
3624.0866530525368034
 20
176.8688942421491106
 30
0.0
 11
3624.0866530525368034
 21
177.0933097653490904
 31
0.0
  0
LINE
  5
10207
  8
0
 10
3624.874054627336136
 20
176.8688942421491106
 30
0.0
 11
3624.874054627336136
 21
177.1604453029765978
 31
0.0
  0
CIRCLE
  5
10208
  8
0
 10
3624.480353839936015
 20
177.5657446358490859
 30
0.0
 40
0.2755905512000005
  0
LINE
  5
10209
  8
0
 10
3624.3819286430370994
 20
177.6225704497491051
 30
0.0
 11
3624.3819286430370994
 21
177.508918821949095
 31
0.0
  0
LINE
  5
1020A
  8
0
 10
3624.3819286430370994
 20
177.508918821949095
 30
0.0
 11
3624.480353839936015
 21
177.4520930080491041
 31
0.0
  0
LINE
  5
1020B
  8
0
 10
3624.480353839936015
 20
177.4520930080491041
 30
0.0
 11
3624.5787790367371599
 21
177.508918821949095
 31
0.0
  0
LINE
  5
1020C
  8
0
 10
3624.5787790367371599
 20
177.508918821949095
 30
0.0
 11
3624.5787790367371599
 21
177.6225704497491051
 31
0.0
  0
LINE
  5
1020D
  8
0
 10
3624.5787790367371599
 20
177.6225704497491051
 30
0.0
 11
3624.480353839936015
 21
177.679396263649096
 31
0.0
  0
LINE
  5
1020E
  8
0
 10
3624.480353839936015
 20
177.679396263649096
 30
0.0
 11
3624.3819286430370994
 21
177.6225704497491051
 31
0.0
  0
LINE
  5
1020F
  8
0
 10
3624.0509386004118824
 20
156.1090517225491112
 30
0.0
 11
3627.0042572684610604
 21
156.1090517225491112
 31
0.0
  0
ARC
  5
10210
  8
0
 10
3624.0557320447878737
 20
155.7190639928631128
 30
0.0
 40
0.390017187332374
 50
90.704202419110274
 51
99.8693032670272629
  0
ARC
  5
10211
  8
0
 10
3624.0052748756670553
 20
156.0592057249025117
 30
0.0
 40
0.0470515022032615
 50
110.3888832919566028
 51
170.625871818349907
  0
ARC
  5
10212
  8
0
 10
3624.138533723168166
 20
156.0188889233455996
 30
0.0
 40
0.1859778529986023
 50
165.0491243536255865
 51
177.0954762962882114
  0
ARC
  5
10213
  8
0
 10
3624.0557320447878737
 20
155.797804151491988
 30
0.0
 40
0.390017187332374
 50
90.704202419110274
 51
99.8693032670272629
  0
ARC
  5
10214
  8
0
 10
3624.0052748756670553
 20
156.1379458835315006
 30
0.0
 40
0.0470515022032615
 50
110.3888832919566028
 51
170.625871818349907
  0
ARC
  5
10215
  8
0
 10
3624.138533723168166
 20
156.0976290819745032
 30
0.0
 40
0.1859778529986023
 50
165.0491243536255865
 51
177.0954762962882114
  0
ARC
  5
10216
  8
0
 10
3626.9994638240850691
 20
155.7190639928631128
 30
0.0
 40
0.390017187332374
 50
80.1306967329727513
 51
89.2957975808897118
  0
ARC
  5
10217
  8
0
 10
3627.049920993204978
 20
156.0592057249025117
 30
0.0
 40
0.0470515022032615
 50
9.3741281816500504
 51
69.611116708043383
  0
ARC
  5
10218
  8
0
 10
3626.9166621457047768
 20
156.0188889233455996
 30
0.0
 40
0.1859778529986023
 50
2.904523703711833
 51
14.9508756463743495
  0
ARC
  5
10219
  8
0
 10
3626.9994638240850691
 20
155.797804151491988
 30
0.0
 40
0.390017187332374
 50
80.1306967329727513
 51
89.2957975808897118
  0
ARC
  5
1021A
  8
0
 10
3627.049920993204978
 20
156.1379458835315006
 30
0.0
 40
0.0470515022032615
 50
9.3741281816500504
 51
69.611116708043383
  0
ARC
  5
1021B
  8
0
 10
3626.9166621457047768
 20
156.0976290819745032
 30
0.0
 40
0.1859778529986023
 50
2.904523703711833
 51
14.9508756463743495
  0
ARC
  5
1021C
  8
0
 10
3625.5814105685522009
 20
157.4618554993438124
 30
0.0
 40
0.1164543485884323
 50
123.9481837239172961
 51
236.0518162666872968
  0
ARC
  5
1021D
  8
0
 10
3625.581409044053089
 20
156.882233047999307
 30
0.0
 40
0.1164527918662995
 50
123.9477950858878046
 51
236.0491178805758921
  0
ARC
  5
1021E
  8
0
 10
3625.8518931902349323
 20
157.1720438486497073
 30
0.0
 40
0.3871692721857992
 50
150.0643784880248006
 51
209.9356215463299122
  0
LINE
  5
1021F
  8
0
 10
3625.4646058082707896
 20
157.5066895178491109
 30
0.0
 11
3625.4935441936049756
 21
157.5382826899171107
 31
0.0
  0
LINE
  5
10220
  8
0
 10
3625.4646058082707896
 20
156.8373981792491065
 30
0.0
 11
3625.4963090190090043
 21
156.8027394100706999
 31
0.0
  0
LINE
  5
10221
  8
0
 10
3629.1259989715367738
 20
165.1051147146490905
 30
0.0
 11
3629.1259989715367738
 21
164.12380957274911
 31
0.0
  0
ARC
  5
10222
  8
0
 10
3628.9290317032578059
 20
164.12380957274911
 30
0.0
 40
0.1969672682786783
 50
312.2026132052740763
 51
0.0
  0
LINE
  5
10223
  8
0
 10
3629.9882036959361358
 20
165.1051147146490905
 30
0.0
 11
3629.9882036959361358
 21
164.6838550981491096
 31
0.0
  0
ARC
  5
10224
  8
0
 10
3630.0078889613409956
 20
164.6838550981491096
 30
0.0
 40
0.0196852654048012
 50
180.0000000000015916
 51
269.9984536021963777
  0
LINE
  5
10225
  8
0
 10
3630.0866288927359165
 20
164.9082643209490868
 30
0.0
 11
3630.1968651132360719
 21
164.9082643209490868
 31
0.0
  0
LINE
  5
10226
  8
0
 10
3630.1968651132360719
 20
164.9082643209490868
 30
0.0
 11
3630.1968651132360719
 21
164.9397603839491069
 31
0.0
  0
ARC
  5
10227
  8
0
 10
3630.2362351919368848
 20
164.9397603839491069
 30
0.0
 40
0.0393700786999993
 50
89.9999998544561919
 51
179.9999999999984084
  0
LINE
  5
10228
  8
0
 10
3630.2362351920360197
 20
164.9791304626490955
 30
0.0
 11
3630.2559202313359492
 21
164.9791304625991017
 31
0.0
  0
ARC
  5
10229
  8
0
 10
3630.2559202312359048
 20
164.9397603837990971
 30
0.0
 40
0.0393700787999993
 50
0.0000002182961747
 51
89.9999998544561919
  0
LINE
  5
1022A
  8
0
 10
3630.2952903100358526
 20
164.9397603839491069
 30
0.0
 11
3630.2952903101568154
 21
164.9082643209490868
 31
0.0
  0
LINE
  5
1022B
  8
0
 10
3630.4055265305360081
 20
164.9082643209490868
 30
0.0
 11
3630.4055265305360081
 21
164.9397603839491069
 31
0.0
  0
ARC
  5
1022C
  8
0
 10
3630.4448966092359115
 20
164.9397603839491069
 30
0.0
 40
0.0393700786999993
 50
89.9999998544561919
 51
179.9999999999984084
  0
LINE
  5
1022D
  8
0
 10
3630.4448966093359559
 20
164.9791304626490955
 30
0.0
 11
3630.4645816486367949
 21
164.9791304625991017
 31
0.0
  0
ARC
  5
1022E
  8
0
 10
3630.4645816485358409
 20
164.9397603837990971
 30
0.0
 40
0.0393700787999993
 50
0.0000002182961747
 51
89.9999998544561919
  0
LINE
  5
1022F
  8
0
 10
3630.5039517273357887
 20
164.9397603839491069
 30
0.0
 11
3630.5039517274572063
 21
164.9082643209490868
 31
0.0
  0
ARC
  5
10230
  8
0
 10
3630.0275737745159859
 20
164.9397603839491069
 30
0.0
 40
0.0393700786999993
 50
89.9999998544561919
 51
179.9999999999984084
  0
LINE
  5
10231
  8
0
 10
3630.0275737746160303
 20
164.9791304626490955
 30
0.0
 11
3630.0472588139159598
 21
164.9791304625991017
 31
0.0
  0
ARC
  5
10232
  8
0
 10
3630.0472588138159153
 20
164.9397603837990971
 30
0.0
 40
0.0393700787999993
 50
0.0000002182961747
 51
89.9999998544561919
  0
LINE
  5
10233
  8
0
 10
3630.0866288926167726
 20
164.9397603839491069
 30
0.0
 11
3630.0866288927359165
 21
164.9082643209490868
 31
0.0
  0
LINE
  5
10234
  8
0
 10
3630.2952903101568154
 20
164.9082643209490868
 30
0.0
 11
3630.4055265305360081
 21
164.9082643209490868
 31
0.0
  0
LINE
  5
10235
  8
0
 10
3630.5039517274572063
 20
164.9082643209490868
 30
0.0
 11
3630.6141879479359886
 21
164.9082643209490868
 31
0.0
  0
LINE
  5
10236
  8
0
 10
3630.6141879479359886
 20
164.9082643209490868
 30
0.0
 11
3630.6141879479359886
 21
164.9791304626490955
 31
0.0
  0
LINE
  5
10237
  8
0
 10
3630.6141879479359886
 20
164.9791304626490955
 30
0.0
 11
3630.9103082347460258
 21
164.9791304626490955
 31
0.0
  0
ARC
  5
10238
  8
0
 10
3630.7795664383370422
 20
167.3484179334490989
 30
0.0
 40
1.2402362773
 50
191.9980244728521086
 51
348.0019755271479198
  0
ARC
  5
10239
  8
0
 10
3632.2246836891849853
 20
166.4440255865391975
 30
0.0
 40
0.7075198838712711
 50
90.3215364482723544
 51
106.2153506212295042
  0
ARC
  5
1023A
  8
0
 10
3632.0651209356278741
 20
167.0490935889010018
 30
0.0
 40
0.0834638516844624
 50
117.0918979930144985
 51
150.1784877520099997
  0
LINE
  5
1023B
  8
0
 10
3629.3384196760371196
 20
167.1515343294491061
 30
0.0
 11
3625.4646058084358629
 21
167.1515343294491061
 31
0.0
  0
ARC
  5
1023C
  8
0
 10
3629.3344491874881896
 20
166.4440255865391975
 30
0.0
 40
0.7075198838712711
 50
73.78464937877051
 51
89.6784635517276456
  0
ARC
  5
1023D
  8
0
 10
3629.494011941044846
 20
167.0490935889010018
 30
0.0
 40
0.0834638516844624
 50
29.821512247989979
 51
62.9081020069854588
  0
LINE
  5
1023E
  8
0
 10
3630.0078884300410209
 20
164.6641698327514973
 30
0.0
 11
3631.551244446632154
 21
164.6641698327514973
 31
0.0
  0
LINE
  5
1023F
  8
0
 10
3628.9794650521171206
 20
161.0185005414491002
 30
0.0
 11
3628.5819078048361916
 21
161.0185005414491002
 31
0.0
  0
ARC
  5
10240
  8
0
 10
3628.579515507978158
 20
161.211872443337711
 30
0.0
 40
0.1933866994502467
 50
202.753572450225704
 51
270.7087975022047885
  0
LINE
  5
10241
  8
0
 10
3632.8210750727821505
 20
162.5317652294372124
 30
0.0
 11
3633.2785382131050937
 21
162.632663915105411
 31
0.0
  0
LINE
  5
10242
  8
0
 10
3632.8567531167668676
 20
161.8452721949491036
 30
0.0
 11
3633.3949737604370966
 21
161.8452721949491036
 31
0.0
  0
ARC
  5
10243
  8
0
 10
3633.3949737604370966
 20
161.9240123524492958
 30
0.0
 40
0.0787401575001372
 50
270.0
 51
359.9999999999006945
  0
LINE
  5
10244
  8
0
 10
3633.4737139179360383
 20
161.9240123524490969
 30
0.0
 11
3633.4737139179369478
 21
162.1208627461091112
 31
0.0
  0
ARC
  5
10245
  8
0
 10
3633.5524540754768168
 20
162.1208627461089975
 30
0.0
 40
0.0787401575401372
 50
90.0000001018233462
 51
179.9999999999006093
  0
LINE
  5
10246
  8
0
 10
3633.5524540753372094
 20
162.1996029036490938
 30
0.0
 11
3633.8674147052161061
 21
162.1996029042088878
 31
0.0
  0
ARC
  5
10247
  8
0
 10
3633.946154862847834
 20
162.2586580220155952
 30
0.0
 40
0.0984251967889641
 50
216.8698974517986073
 51
143.1301025286574031
  0
LINE
  5
10248
  8
0
 10
3633.867414705236115
 20
162.3177131398491895
 30
0.0
 11
3633.5524540753381189
 21
162.3177131405163038
 31
0.0
  0
ARC
  5
10249
  8
0
 10
3633.5524540755050111
 20
162.3964532981846105
 30
0.0
 40
0.0787401576683067
 50
180.0000006116468114
 51
269.9999998786353217
  0
LINE
  5
1024A
  8
0
 10
3633.4737139178359939
 20
162.39645329734401
 30
0.0
 11
3633.473713916575889
 21
162.5145635335491079
 31
0.0
  0
ARC
  5
1024B
  8
0
 10
3633.39497375823521
 20
162.5145635327085927
 30
0.0
 40
0.0787401583405707
 50
0.0000006116451937
 51
89.9999983981061575
  0
LINE
  5
1024C
  8
0
 10
3633.3949737604370966
 20
162.5933036910491012
 30
0.0
 11
3633.2374934454369395
 21
162.5933036954519935
 31
0.0
  0
LINE
  5
1024D
  8
0
 10
3633.2374934454369395
 20
162.5933036954519935
 30
0.0
 11
3633.089510501937184
 21
162.3369897141490981
 31
0.0
  0
LINE
  5
1024E
  8
0
 10
3633.089510501937184
 20
162.3369897141490981
 30
0.0
 11
3633.3556036816357846
 21
162.3649572343491059
 31
0.0
  0
LINE
  5
1024F
  8
0
 10
3633.3556036816357846
 20
162.3649572343491059
 30
0.0
 11
3633.3556036816357846
 21
162.0027525099490902
 31
0.0
  0
ARC
  5
10250
  8
0
 10
3633.316233602837201
 20
162.0027525099490902
 30
0.0
 40
0.0393700787999993
 50
270.0000001455438223
 51
0.0
  0
LINE
  5
10251
  8
0
 10
3633.3162336029367907
 20
161.9633824311491139
 30
0.0
 11
3632.8567531168359892
 21
161.9633824299820049
 31
0.0
  0
ARC
  5
10252
  8
0
 10
3632.8567531171370319
 20
161.8448339549937884
 30
0.0
 40
0.1185484749882697
 50
90.0000001455437939
 51
168.9925695500058112
  0
ARC
  5
10253
  8
0
 10
3632.7910163589431249
 20
162.1208627461658125
 30
0.0
 40
0.0393700787166703
 50
181.1213197358019897
 51
269.999999990099127
  0
LINE
  5
10254
  8
0
 10
3632.791016358935849
 20
162.0814926674491119
 30
0.0
 11
3633.2176762997360129
 21
162.0814926673753007
 31
0.0
  0
ARC
  5
10255
  8
0
 10
3633.2176762997560218
 20
162.1996029035593097
 30
0.0
 40
0.118110236183945
 50
269.999999990099127
 51
2.7734594478874821
  0
ARC
  5
10256
  8
0
 10
3630.7795905644229606
 20
162.081492663752698
 30
0.0
 40
2.5590551519054849
 50
2.7734594478874821
 51
6.2831161223003944
  0
LINE
  5
10257
  8
0
 10
3632.8586895210219154
 20
162.3000147697476905
 30
0.0
 11
3633.3246269444430254
 21
162.348986766249709
 31
0.0
  0
LINE
  5
10258
  8
0
 10
3632.867714580496795
 20
162.1822025212449887
 30
0.0
 11
3633.3342606912651718
 21
162.2312384934521958
 31
0.0
  0
LINE
  5
10259
  8
0
 10
3628.9147575075649002
 20
161.1366107776491106
 30
0.0
 11
3628.5185515173361637
 21
161.1366107776491106
 31
0.0
  0
ARC
  5
1025A
  8
0
 10
3628.5185515173361637
 20
161.215350935111303
 30
0.0
 40
0.0787401574621711
 50
200.9604587316223103
 51
270.0
  0
ARC
  5
1025B
  8
0
 10
3630.7795906053461295
 20
162.081492668867611
 30
0.0
 40
2.5000000073058359
 50
181.8636059913409042
 51
200.9604587316223103
  0
ARC
  5
1025C
  8
0
 10
3628.3596114219021729
 20
162.0027525099825993
 30
0.0
 40
0.0787401573665136
 50
90.0000000475505573
 51
181.8636059913424958
  0
LINE
  5
1025D
  8
0
 10
3628.3596114218357798
 20
162.0814926673490959
 30
0.0
 11
3628.6923785310359563
 21
162.0814926676252981
 31
0.0
  0
ARC
  5
1025E
  8
0
 10
3628.6923785309390951
 20
162.1996029040425924
 30
0.0
 40
0.118110236417273
 50
270.0000000475505999
 51
356.7583579648330101
  0
ARC
  5
1025F
  8
0
 10
3630.7795906005908364
 20
162.081492668328508
 30
0.0
 40
2.2086614200326808
 50
190.6519723195305005
 51
205.3284979925514904
  0
ARC
  5
10260
  8
0
 10
3628.6863719608181782
 20
161.6877918799642941
 30
0.0
 40
0.0787401574848028
 50
89.9999999866597875
 51
190.6519723195305005
  0
LINE
  5
10261
  8
0
 10
3628.6863719608359133
 20
161.7665320374491102
 30
0.0
 11
3628.7992286756370959
 21
161.7665320374229054
 31
0.0
  0
ARC
  5
10262
  8
0
 10
3628.7992286756280009
 20
161.7271619586908002
 30
0.0
 40
0.0393700787320359
 50
10.1441470356706205
 51
89.9999999866597875
  0
ARC
  5
10263
  8
0
 10
3628.7597382572839706
 20
161.7261309656821879
 30
0.0
 40
0.0404438423371716
 50
92.6352524565395754
 51
178.6931605036947133
  0
ENDSEC
  0
EOF
