  0
SECTION
  2
HEADER
  9
$ACADVER
  1
AC1009
  9
$INSBASE
 10
3563.2756368414989083
 20
154.9244979756338978
 30
0.0
  9
$EXTMIN
 10
3553.1673691248997784
 20
147.2448910070567933
 30
0.0
  9
$EXTMAX
 10
3573.3839045580989477
 20
157.128783802433901
 30
0.0
  9
$LIMMIN
 10
0.0
 20
0.0
  9
$LIMMAX
 10
11.6929133858000007
 20
8.2677165353999982
  9
$ORTHOMODE
 70
     0
  9
$REGENMODE
 70
     1
  9
$FILLMODE
 70
     1
  9
$QTEXTMODE
 70
     0
  9
$MIRRTEXT
 70
     0
  9
$DRAGMODE
 70
     2
  9
$LTSCALE
 40
0.6431102362
  9
$OSMODE
 70
  3839
  9
$ATTMODE
 70
     1
  9
$TEXTSIZE
 40
0.2
  9
$TRACEWID
 40
0.05
  9
$TEXTSTYLE
  7
STANDARD
  9
$CLAYER
  8
0
  9
$CELTYPE
  6
BYLAYER
  9
$CECOLOR
 62
   256
  9
$DIMSCALE
 40
1.0
  9
$DIMASZ
 40
0.1875
  9
$DIMEXO
 40
0.0625
  9
$DIMDLI
 40
0.4443307087
  9
$DIMRND
 40
0.0
  9
$DIMDLE
 40
0.0
  9
$DIMEXE
 40
0.125
  9
$DIMTP
 40
0.01
  9
$DIMTM
 40
0.01
  9
$DIMTXT
 40
2.0
  9
$DIMCEN
 40
0.1052362205
  9
$DIMTSZ
 40
0.0
  9
$DIMTOL
 70
     1
  9
$DIMLIM
 70
     0
  9
$DIMTIH
 70
     1
  9
$DIMTOH
 70
     1
  9
$DIMSE1
 70
     0
  9
$DIMSE2
 70
     0
  9
$DIMTAD
 70
     0
  9
$DIMZIN
 70
     0
  9
$DIMBLK
  1

  9
$DIMASO
 70
     1
  9
$DIMSHO
 70
     1
  9
$DIMPOST
  1
\X
  9
$DIMAPOST
  1

  9
$DIMALT
 70
     1
  9
$DIMALTD
 70
     2
  9
$DIMALTF
 40
25.3999999999999986
  9
$DIMLFAC
 40
1.0
  9
$DIMTOFL
 70
     0
  9
$DIMTVP
 40
0.0
  9
$DIMTIX
 70
     0
  9
$DIMSOXD
 70
     0
  9
$DIMSAH
 70
     0
  9
$DIMBLK1
  1

  9
$DIMBLK2
  1

  9
$DIMSTYLE
  2
STANDARD
  9
$DIMCLRD
 70
     0
  9
$DIMCLRE
 70
     0
  9
$DIMCLRT
 70
     0
  9
$DIMTFAC
 40
1.0
  9
$DIMGAP
 40
0.09
  9
$LUNITS
 70
     2
  9
$LUPREC
 70
     4
  9
$SKETCHINC
 40
0.1
  9
$FILLETRAD
 40
0.0
  9
$AUNITS
 70
     0
  9
$AUPREC
 70
     0
  9
$MENU
  1
.
  9
$ELEVATION
 40
0.0
  9
$PELEVATION
 40
0.0
  9
$THICKNESS
 40
0.0
  9
$LIMCHECK
 70
     0
  9
$BLIPMODE
 70
     0
  9
$CHAMFERA
 40
0.0
  9
$CHAMFERB
 40
0.0
  9
$SKPOLY
 70
     0
  9
$TDCREATE
 40
2458060.468368056230247
  9
$TDUPDATE
 40
2459083.7828356479294598
  9
$TDINDWG
 40
0.7734445602
  9
$TDUSRTIMER
 40
0.7734445602
  9
$USRTIMER
 70
     1
  9
$ANGBASE
 50
0.0
  9
$ANGDIR
 70
     0
  9
$PDMODE
 70
     0
  9
$PDSIZE
 40
0.3125
  9
$PLINEWID
 40
0.0
  9
$COORDS
 70
     1
  9
$SPLFRAME
 70
     0
  9
$SPLINETYPE
 70
     6
  9
$SPLINESEGS
 70
     8
  9
$ATTDIA
 70
     1
  9
$ATTREQ
 70
     1
  9
$HANDLING
 70
     1
  9
$HANDSEED
  5
11672
  9
$SURFTAB1
 70
     6
  9
$SURFTAB2
 70
     6
  9
$SURFTYPE
 70
     6
  9
$SURFU
 70
     6
  9
$SURFV
 70
     6
  9
$UCSNAME
  2

  9
$UCSORG
 10
0.0
 20
0.0
 30
0.0
  9
$UCSXDIR
 10
1.0
 20
0.0
 30
0.0
  9
$UCSYDIR
 10
0.0
 20
1.0
 30
0.0
  9
$PUCSNAME
  2

  9
$PUCSORG
 10
0.0
 20
0.0
 30
0.0
  9
$PUCSXDIR
 10
1.0
 20
0.0
 30
0.0
  9
$PUCSYDIR
 10
0.0
 20
1.0
 30
0.0
  9
$USERI1
 70
     0
  9
$USERI2
 70
     0
  9
$USERI3
 70
     0
  9
$USERI4
 70
     0
  9
$USERI5
 70
     0
  9
$USERR1
 40
0.0
  9
$USERR2
 40
0.0
  9
$USERR3
 40
0.0
  9
$USERR4
 40
0.0
  9
$USERR5
 40
0.0
  9
$WORLDVIEW
 70
     1
  9
$SHADEDGE
 70
     3
  9
$SHADEDIF
 70
    70
  9
$TILEMODE
 70
     1
  9
$MAXACTVP
 70
    64
  9
$PLIMCHECK
 70
     0
  9
$PEXTMIN
 10
1.0000000000000000E+20
 20
1.0000000000000000E+20
 30
1.0000000000000000E+20
  9
$PEXTMAX
 10
-1.0000000000000000E+20
 20
-1.0000000000000000E+20
 30
-1.0000000000000000E+20
  9
$PLIMMIN
 10
0.0
 20
0.0
  9
$PLIMMAX
 10
12.0
 20
9.0
  9
$UNITMODE
 70
     0
  9
$VISRETAIN
 70
     1
  9
$PLINEGEN
 70
     0
  9
$PSLTSCALE
 70
     1
  0
ENDSEC
  0
SECTION
  2
TABLES
  0
TABLE
  2
VPORT
 70
     1
  0
VPORT
  2
*ACTIVE
 70
     0
 10
0.0
 20
0.0
 11
1.0
 21
1.0
 12
0.0
 22
0.0
 13
0.0
 23
0.0
 14
1.0
 24
1.0
 15
0.0
 25
0.0
 16
0.0
 26
0.0
 36
93.4227598568862589
 17
3563.275634765625
 27
152.1868438720703125
 37
0.0
 40
22.5031159881012002
 41
3.314341846758349
 42
50.0
 43
0.0
 44
0.0
 50
0.0
 51
0.0
 71
     0
 72
   100
 73
     1
 74
     1
 75
     0
 76
     0
 77
     0
 78
     0
  0
ENDTAB
  0
TABLE
  2
LTYPE
 70
     2
  0
LTYPE
  2
CONTINUOUS
 70
     0
  3
Solid line
 72
    65
 73
     0
 40
0.0
  0
LTYPE
  2
PHANTOM2
 70
     0
  3
___ _ _ ___ _ _ ___ _ _ ___ _ _
 72
    65
 73
     6
 40
1.25
 49
0.625
 49
-0.125
 49
0.125
 49
-0.125
 49
0.125
 49
-0.125
  0
ENDTAB
  0
TABLE
  2
LAYER
 70
     2
  0
LAYER
  2
0
 70
     0
 62
   255
  6
CONTINUOUS
  0
LAYER
  2
DEFPOINTS
 70
     0
 62
     7
  6
CONTINUOUS
  0
ENDTAB
  0
TABLE
  2
STYLE
 70
     1
  0
STYLE
  2
STANDARD
 70
     0
 40
0.0
 41
0.8
 50
0.0
 71
     0
 42
0.2
  3
txt
  4

  0
ENDTAB
  0
TABLE
  2
VIEW
 70
     0
  0
ENDTAB
  0
TABLE
  2
UCS
 70
     0
  0
ENDTAB
  0
TABLE
  2
APPID
 70
    10
  0
APPID
  2
ACAD
 70
     0
  0
APPID
  2
ACAD_MLEADERVER
 70
     0
  0
APPID
  2
ACAD_EXEMPT_FROM_CAD_STANDARDS
 70
     0
  0
APPID
  2
ACAD_NAV_VCDISPLAY
 70
     0
  0
APPID
  2
ACAECLAYERSTANDARD
 70
     0
  0
APPID
  2
ACCMTRANSPARENCY
 70
     0
  0
APPID
  2
ACAD_DSTYLE_DIMJAG
 70
     0
  0
APPID
  2
ACAD_DSTYLE_DIMTALN
 70
     0
  0
APPID
  2
ACDBATTR
 70
     0
  0
APPID
  2
ACAD_PSEXT
 70
     0
  0
ENDTAB
  0
TABLE
  2
DIMSTYLE
 70
     1
  0
DIMSTYLE
  2
STANDARD
 70
     0
  3

  4

  5

  6

  7

 40
1.0
 41
0.1875
 42
0.0625
 43
0.38
 44
0.125
 45
0.0
 46
0.0
 47
0.01
 48
0.01
140
0.15625
141
0.09
142
0.0
143
25.3999999999999986
144
1.0
145
0.0
146
1.0
147
0.09
 71
     1
 72
     0
 73
     1
 74
     1
 75
     0
 76
     0
 77
     0
 78
     4
170
     0
171
     2
172
     0
173
     0
174
     0
175
     0
176
     0
177
     0
178
     0
  0
ENDTAB
  0
ENDSEC
  0
SECTION
  2
BLOCKS
  0
BLOCK
  8
0
  2
$MODEL_SPACE
 70
     0
 10
0.0
 20
0.0
 30
0.0
  3
$MODEL_SPACE
  1

  0
ENDBLK
  5
21
  8
0
  0
BLOCK
 67
     1
  8
0
  2
$PAPER_SPACE
 70
     0
 10
0.0
 20
0.0
 30
0.0
  3
$PAPER_SPACE
  1

  0
ENDBLK
  5
1D
 67
     1
  8
0
  0
BLOCK
  8
0
  2
_FILLED
 70
     0
 10
0.0
 20
0.0
 30
0.0
  3
_FILLED
  1

  0
SOLID
  5
B630
  8
0
  6
BYBLOCK
 62
     0
 10
0.0
 20
0.0
 30
0.0
 11
-1.0
 21
0.1666666667
 31
0.0
 12
-1.0
 22
-0.1666666667
 32
0.0
 13
-1.0
 23
-0.1666666667
 33
0.0
  0
ENDBLK
  5
B631
  8
0
  6
BYBLOCK
 62
     0
  0
BLOCK
  8
0
  2
_CLOSED
 70
     0
 10
0.0
 20
0.0
 30
0.0
  3
_CLOSED
  1

  0
LINE
  5
ECF3
  8
0
  6
BYBLOCK
 62
     0
 10
0.0
 20
0.0
 30
0.0
 11
-1.0
 21
0.1666666667
 31
0.0
  0
LINE
  5
ECF4
  8
0
  6
BYBLOCK
 62
     0
 10
-1.0
 20
0.1666666667
 30
0.0
 11
-1.0
 21
-0.1666666667
 31
0.0
  0
LINE
  5
ECF5
  8
0
  6
BYBLOCK
 62
     0
 10
-1.0
 20
-0.1666666667
 30
0.0
 11
0.0
 21
0.0
 31
0.0
  0
LINE
  5
ECF6
  8
0
  6
BYBLOCK
 62
     0
 10
-1.0
 20
0.0
 30
0.0
 11
0.0
 21
0.0
 31
0.0
  0
ENDBLK
  5
ECF7
  8
0
  6
BYBLOCK
 62
     0
  0
ENDSEC
  0
SECTION
  2
ENTITIES
  0
ATTDEF
  5
AA11
  8
DEFPOINTS
 10
3563.2758032970809836
 20
154.9232343735928055
 30
0.0
 40
0.001
  1
K-20082IN-M
  3

  2
MODELNUMBER
 70
     0
1001
ACDBATTR
1070
     0
1070
     1
  0
ATTDEF
  5
AA12
  8
DEFPOINTS
 10
3563.2758032970809836
 20
154.9215677069261972
 30
0.0
 40
0.001
  1
INSTAFIT
  3

  2
TRADENAME
 70
     0
1001
ACDBATTR
1070
     0
1070
     1
  0
ATTDEF
  5
AA13
  8
DEFPOINTS
 10
3563.2758032970809836
 20
154.9199010402595036
 30
0.0
 40
0.001
  1
IN-WALL TANK AND CARRIER SYSTEM
  3

  2
PRODUCT
 70
     0
1001
ACDBATTR
1070
     0
1070
     1
  0
LINE
  5
11288
  8
0
 10
3573.3150017999419106
 20
154.8772538811338109
 30
0.0
 11
3553.2362718830568156
 21
154.8772538811338109
 31
0.0
  0
LINE
  5
11289
  8
0
 10
3573.3150017999419106
 20
151.6426583767434977
 30
0.0
 11
3573.3150017999419106
 21
154.8772538811338109
 31
0.0
  0
LINE
  5
1128A
  8
0
 10
3567.3642195186998833
 20
147.4166239599337871
 30
0.0
 11
3559.187054164300207
 21
147.4166239599337871
 31
0.0
  0
LINE
  5
1128B
  8
0
 10
3567.3110699123990344
 20
147.3378838024339075
 30
0.0
 11
3559.2402037705987823
 21
147.3378838024339075
 31
0.0
  0
LINE
  5
1128C
  8
0
 10
3567.3642195186998833
 20
150.5859152984338039
 30
0.0
 11
3567.3642195186998833
 21
151.2626717276546913
 31
0.0
  0
LINE
  5
1128D
  8
0
 10
3567.3642195186998833
 20
150.4087499441338025
 30
0.0
 11
3567.3642195186998833
 21
150.3890649047339139
 31
0.0
  0
LINE
  5
1128E
  8
0
 10
3567.3642195186998833
 20
147.8496948260338115
 30
0.0
 11
3567.3642195186998833
 21
147.4166239599337871
 31
0.0
  0
LINE
  5
1128F
  8
0
 10
3567.3110699123990344
 20
147.3378838024339075
 30
0.0
 11
3567.3110699123990344
 21
147.4166239599337871
 31
0.0
  0
LINE
  5
11290
  8
0
 10
3567.409495109198815
 20
151.4520570308339131
 30
0.0
 11
3567.409495109198815
 21
151.3339467945338868
 31
0.0
  0
ARC
  5
11291
  8
0
 10
3567.3307549516998733
 20
151.3339467945338868
 30
0.0
 40
0.0787401574999969
 50
270.0
 51
0.0000000000065138
  0
LINE
  5
11292
  8
0
 10
3567.3307549516998733
 20
151.2552066370338082
 30
0.0
 11
3559.2205187312988528
 21
151.2552066370338082
 31
0.0
  0
LINE
  5
11293
  8
0
 10
3567.3642195186998833
 20
150.5859152984338039
 30
0.0
 11
3559.187054164300207
 21
150.5859152984338039
 31
0.0
  0
LINE
  5
11294
  8
0
 10
3565.6361360541000067
 20
150.5859152984338039
 30
0.0
 11
3565.6591249565999533
 21
150.5254177149338091
 31
0.0
  0
LINE
  5
11295
  8
0
 10
3565.6591249565999533
 20
150.5254177149338091
 30
0.0
 11
3565.8134085688989217
 21
150.5254177149338091
 31
0.0
  0
LINE
  5
11296
  8
0
 10
3565.8134085688989217
 20
150.5254177149338091
 30
0.0
 11
3565.8363974713988682
 21
150.5859152984338039
 31
0.0
  0
LINE
  5
11297
  8
0
 10
3567.3642195186998833
 20
150.4087499441338025
 30
0.0
 11
3567.2631164152430756
 21
150.5859152984338039
 31
0.0
  0
LINE
  5
11298
  8
0
 10
3567.3642195186998833
 20
150.3890649047339139
 30
0.0
 11
3559.187054164300207
 21
150.3890649047339139
 31
0.0
  0
LINE
  5
11299
  8
0
 10
3567.2977206313148599
 20
150.5252775139232142
 30
0.0
 11
3567.2971914534000462
 21
150.5859152984338039
 31
0.0
  0
LINE
  5
1129A
  8
0
 10
3567.2854793612000321
 20
150.4087499441338025
 30
0.0
 11
3559.187054164300207
 21
150.4087499441338025
 31
0.0
  0
LINE
  5
1129B
  8
0
 10
3567.2854793612000321
 20
150.3890649047339139
 30
0.0
 11
3567.2854793612000321
 21
150.4087499441338025
 31
0.0
  0
LINE
  5
1129C
  8
0
 10
3567.2854793612000321
 20
150.4087499441338025
 30
0.0
 11
3567.3248261321127757
 21
150.4777799051628051
 31
0.0
  0
LINE
  5
1129D
  8
0
 10
3567.3642195186998833
 20
150.2118995504337988
 30
0.0
 11
3567.3642195186998833
 21
150.1922145110339102
 31
0.0
  0
LINE
  5
1129E
  8
0
 10
3565.6361360541000067
 20
150.3890649047338002
 30
0.0
 11
3565.6591249565999533
 21
150.3285673212338907
 31
0.0
  0
LINE
  5
1129F
  8
0
 10
3565.6591249565999533
 20
150.3285673212338907
 30
0.0
 11
3565.8134085688989217
 21
150.3285673212338907
 31
0.0
  0
LINE
  5
112A0
  8
0
 10
3565.8134085688989217
 20
150.3285673212338907
 30
0.0
 11
3565.8363974713988682
 21
150.3890649047338002
 31
0.0
  0
LINE
  5
112A1
  8
0
 10
3567.3642195186998833
 20
150.2118995504337988
 30
0.0
 11
3567.2631164152430756
 21
150.3890649047338002
 31
0.0
  0
LINE
  5
112A2
  8
0
 10
3567.3642195186998833
 20
150.1922145110339102
 30
0.0
 11
3559.187054164300207
 21
150.1922145110339102
 31
0.0
  0
LINE
  5
112A3
  8
0
 10
3567.2977206313148599
 20
150.3284271202232105
 30
0.0
 11
3567.2971914534000462
 21
150.3890649047338002
 31
0.0
  0
LINE
  5
112A4
  8
0
 10
3567.2854793612000321
 20
150.2118995504337988
 30
0.0
 11
3559.187054164300207
 21
150.2118995504337988
 31
0.0
  0
LINE
  5
112A5
  8
0
 10
3567.2854793612000321
 20
150.1922145110339102
 30
0.0
 11
3567.2854793612000321
 21
150.2118995504337988
 31
0.0
  0
LINE
  5
112A6
  8
0
 10
3567.2854793612000321
 20
150.2118995504337988
 30
0.0
 11
3567.3248261321127757
 21
150.2809295114626877
 31
0.0
  0
LINE
  5
112A7
  8
0
 10
3567.3642195186998833
 20
150.0150491567339088
 30
0.0
 11
3567.3642195186998833
 21
149.9953641173337928
 31
0.0
  0
LINE
  5
112A8
  8
0
 10
3565.6361360541000067
 20
150.1922145110339102
 30
0.0
 11
3565.6591249565999533
 21
150.1317169275338017
 31
0.0
  0
LINE
  5
112A9
  8
0
 10
3565.6591249565999533
 20
150.1317169275338017
 30
0.0
 11
3565.8134085688989217
 21
150.1317169275338017
 31
0.0
  0
LINE
  5
112AA
  8
0
 10
3565.8134085688989217
 20
150.1317169275338017
 30
0.0
 11
3565.8363974713988682
 21
150.1922145110339102
 31
0.0
  0
LINE
  5
112AB
  8
0
 10
3567.3642195186998833
 20
150.0150491567339088
 30
0.0
 11
3567.2631164152430756
 21
150.1922145110339102
 31
0.0
  0
LINE
  5
112AC
  8
0
 10
3567.3642195186998833
 20
149.9953641173337928
 30
0.0
 11
3559.187054164300207
 21
149.9953641173337928
 31
0.0
  0
LINE
  5
112AD
  8
0
 10
3567.2977206313148599
 20
150.1315767265230932
 30
0.0
 11
3567.2971914534000462
 21
150.1922145110339102
 31
0.0
  0
LINE
  5
112AE
  8
0
 10
3567.2854793612000321
 20
150.0150491567339088
 30
0.0
 11
3559.187054164300207
 21
150.0150491567339088
 31
0.0
  0
LINE
  5
112AF
  8
0
 10
3567.2854793612000321
 20
149.9953641173337928
 30
0.0
 11
3567.2854793612000321
 21
150.0150491567339088
 31
0.0
  0
LINE
  5
112B0
  8
0
 10
3567.2854793612000321
 20
150.0150491567339088
 30
0.0
 11
3567.3248261321127757
 21
150.0840791177627978
 31
0.0
  0
LINE
  5
112B1
  8
0
 10
3567.3642195186998833
 20
149.8181987630339052
 30
0.0
 11
3567.3642195186998833
 21
149.7985137236339028
 31
0.0
  0
LINE
  5
112B2
  8
0
 10
3565.6361360541000067
 20
149.9953641173337928
 30
0.0
 11
3565.6591249565999533
 21
149.934866533833798
 31
0.0
  0
LINE
  5
112B3
  8
0
 10
3565.6591249565999533
 20
149.934866533833798
 30
0.0
 11
3565.8134085688989217
 21
149.934866533833798
 31
0.0
  0
LINE
  5
112B4
  8
0
 10
3565.8134085688989217
 20
149.934866533833798
 30
0.0
 11
3565.8363974713988682
 21
149.9953641173337928
 31
0.0
  0
LINE
  5
112B5
  8
0
 10
3567.3642195186998833
 20
149.8181987630339052
 30
0.0
 11
3567.2631164152430756
 21
149.9953641173337928
 31
0.0
  0
LINE
  5
112B6
  8
0
 10
3567.3642195186998833
 20
149.7985137236339028
 30
0.0
 11
3559.187054164300207
 21
149.7985137236339028
 31
0.0
  0
LINE
  5
112B7
  8
0
 10
3567.2977206313148599
 20
149.9347263328232032
 30
0.0
 11
3567.2971914534000462
 21
149.9953641173337928
 31
0.0
  0
LINE
  5
112B8
  8
0
 10
3567.2854793612000321
 20
149.8181987630339052
 30
0.0
 11
3559.187054164300207
 21
149.8181987630339052
 31
0.0
  0
LINE
  5
112B9
  8
0
 10
3567.2854793612000321
 20
149.7985137236339028
 30
0.0
 11
3567.2854793612000321
 21
149.8181987630339052
 31
0.0
  0
LINE
  5
112BA
  8
0
 10
3567.2854793612000321
 20
149.8181987630339052
 30
0.0
 11
3567.3248261321127757
 21
149.8872287240627941
 31
0.0
  0
LINE
  5
112BB
  8
0
 10
3567.3642195186998833
 20
149.6213483693337878
 30
0.0
 11
3567.3642195186998833
 21
149.6016633299338991
 31
0.0
  0
LINE
  5
112BC
  8
0
 10
3565.6361360541000067
 20
149.7985137236339028
 30
0.0
 11
3565.6591249565999533
 21
149.738016140133908
 31
0.0
  0
LINE
  5
112BD
  8
0
 10
3565.6591249565999533
 20
149.738016140133908
 30
0.0
 11
3565.8134085688989217
 21
149.738016140133908
 31
0.0
  0
LINE
  5
112BE
  8
0
 10
3565.8134085688989217
 20
149.738016140133908
 30
0.0
 11
3565.8363974713988682
 21
149.7985137236339028
 31
0.0
  0
LINE
  5
112BF
  8
0
 10
3567.3642195186998833
 20
149.6213483693337878
 30
0.0
 11
3567.2631164152430756
 21
149.7985137236339028
 31
0.0
  0
LINE
  5
112C0
  8
0
 10
3567.3642195186998833
 20
149.6016633299338991
 30
0.0
 11
3559.187054164300207
 21
149.6016633299338991
 31
0.0
  0
LINE
  5
112C1
  8
0
 10
3567.2977206313148599
 20
149.7378759391230858
 30
0.0
 11
3567.2971914534000462
 21
149.7985137236339028
 31
0.0
  0
LINE
  5
112C2
  8
0
 10
3567.2854793612000321
 20
149.6213483693337878
 30
0.0
 11
3559.187054164300207
 21
149.6213483693337878
 31
0.0
  0
LINE
  5
112C3
  8
0
 10
3567.2854793612000321
 20
149.6016633299338991
 30
0.0
 11
3567.2854793612000321
 21
149.6213483693337878
 31
0.0
  0
LINE
  5
112C4
  8
0
 10
3567.2854793612000321
 20
149.6213483693337878
 30
0.0
 11
3567.3248261321127757
 21
149.6903783303627904
 31
0.0
  0
LINE
  5
112C5
  8
0
 10
3567.3642195186998833
 20
149.4244979756338125
 30
0.0
 11
3567.3642195186998833
 21
149.4048129362338102
 31
0.0
  0
LINE
  5
112C6
  8
0
 10
3565.6361360541000067
 20
149.6016633299338991
 30
0.0
 11
3565.6591249565999533
 21
149.5411657464337907
 31
0.0
  0
LINE
  5
112C7
  8
0
 10
3565.6591249565999533
 20
149.5411657464337907
 30
0.0
 11
3565.8134085688989217
 21
149.5411657464337907
 31
0.0
  0
LINE
  5
112C8
  8
0
 10
3565.8134085688989217
 20
149.5411657464337907
 30
0.0
 11
3565.8363974713988682
 21
149.6016633299338991
 31
0.0
  0
LINE
  5
112C9
  8
0
 10
3567.3642195186998833
 20
149.4244979756338125
 30
0.0
 11
3567.2631164152430756
 21
149.6016633299338991
 31
0.0
  0
LINE
  5
112CA
  8
0
 10
3567.3642195186998833
 20
149.4048129362338102
 30
0.0
 11
3559.187054164300207
 21
149.4048129362338102
 31
0.0
  0
LINE
  5
112CB
  8
0
 10
3567.2977206313148599
 20
149.5410255454231105
 30
0.0
 11
3567.2971914534000462
 21
149.6016633299338991
 31
0.0
  0
LINE
  5
112CC
  8
0
 10
3567.2854793612000321
 20
149.4244979756338125
 30
0.0
 11
3559.187054164300207
 21
149.4244979756338125
 31
0.0
  0
LINE
  5
112CD
  8
0
 10
3567.2854793612000321
 20
149.4048129362338102
 30
0.0
 11
3567.2854793612000321
 21
149.4244979756338125
 31
0.0
  0
LINE
  5
112CE
  8
0
 10
3567.2854793612000321
 20
149.4244979756338125
 30
0.0
 11
3567.3248261321127757
 21
149.4935279366627867
 31
0.0
  0
LINE
  5
112CF
  8
0
 10
3567.3642195186998833
 20
149.2276475819338089
 30
0.0
 11
3567.3642195186998833
 21
149.2079625425338065
 31
0.0
  0
LINE
  5
112D0
  8
0
 10
3565.6361360541000067
 20
149.4048129362338102
 30
0.0
 11
3565.6591249565999533
 21
149.344315352733787
 31
0.0
  0
LINE
  5
112D1
  8
0
 10
3565.6591249565999533
 20
149.344315352733787
 30
0.0
 11
3565.8134085688989217
 21
149.344315352733787
 31
0.0
  0
LINE
  5
112D2
  8
0
 10
3565.8134085688989217
 20
149.344315352733787
 30
0.0
 11
3565.8363974713988682
 21
149.4048129362338102
 31
0.0
  0
LINE
  5
112D3
  8
0
 10
3567.3642195186998833
 20
149.2276475819338089
 30
0.0
 11
3567.2631164152430756
 21
149.4048129362338102
 31
0.0
  0
LINE
  5
112D4
  8
0
 10
3567.3642195186998833
 20
149.2079625425338065
 30
0.0
 11
3559.187054164300207
 21
149.2079625425338065
 31
0.0
  0
LINE
  5
112D5
  8
0
 10
3567.2977206313148599
 20
149.3441751517231069
 30
0.0
 11
3567.2971914534000462
 21
149.4048129362338102
 31
0.0
  0
LINE
  5
112D6
  8
0
 10
3567.2854793612000321
 20
149.2276475819338089
 30
0.0
 11
3559.187054164300207
 21
149.2276475819338089
 31
0.0
  0
LINE
  5
112D7
  8
0
 10
3567.2854793612000321
 20
149.2079625425338065
 30
0.0
 11
3567.2854793612000321
 21
149.2276475819338089
 31
0.0
  0
LINE
  5
112D8
  8
0
 10
3567.2854793612000321
 20
149.2276475819338089
 30
0.0
 11
3567.3248261321127757
 21
149.2966775429628115
 31
0.0
  0
LINE
  5
112D9
  8
0
 10
3567.3642195186998833
 20
149.0307971882338052
 30
0.0
 11
3567.3642195186998833
 21
149.0111121488338881
 31
0.0
  0
LINE
  5
112DA
  8
0
 10
3565.6361360541000067
 20
149.2079625425338065
 30
0.0
 11
3565.6591249565999533
 21
149.147464959033897
 31
0.0
  0
LINE
  5
112DB
  8
0
 10
3565.6591249565999533
 20
149.147464959033897
 30
0.0
 11
3565.8134085688989217
 21
149.147464959033897
 31
0.0
  0
LINE
  5
112DC
  8
0
 10
3565.8134085688989217
 20
149.147464959033897
 30
0.0
 11
3565.8363974713988682
 21
149.2079625425338065
 31
0.0
  0
LINE
  5
112DD
  8
0
 10
3567.3642195186998833
 20
149.0307971882338052
 30
0.0
 11
3567.2631164152430756
 21
149.2079625425338065
 31
0.0
  0
LINE
  5
112DE
  8
0
 10
3567.3642195186998833
 20
149.0111121488338881
 30
0.0
 11
3559.187054164300207
 21
149.0111121488338881
 31
0.0
  0
LINE
  5
112DF
  8
0
 10
3567.2977206313148599
 20
149.1473247580231885
 30
0.0
 11
3567.2971914534000462
 21
149.2079625425338065
 31
0.0
  0
LINE
  5
112E0
  8
0
 10
3567.2854793612000321
 20
149.0307971882338052
 30
0.0
 11
3559.187054164300207
 21
149.0307971882338052
 31
0.0
  0
LINE
  5
112E1
  8
0
 10
3567.2854793612000321
 20
149.0111121488338881
 30
0.0
 11
3567.2854793612000321
 21
149.0307971882338052
 31
0.0
  0
LINE
  5
112E2
  8
0
 10
3567.2854793612000321
 20
149.0307971882338052
 30
0.0
 11
3567.3248261321127757
 21
149.0998271492626941
 31
0.0
  0
LINE
  5
112E3
  8
0
 10
3567.3642195186998833
 20
148.8339467945338015
 30
0.0
 11
3567.3642195186998833
 21
148.8142617551337992
 31
0.0
  0
LINE
  5
112E4
  8
0
 10
3565.6361360541000067
 20
149.0111121488338028
 30
0.0
 11
3565.6591249565999533
 21
148.9506145653338081
 31
0.0
  0
LINE
  5
112E5
  8
0
 10
3565.6591249565999533
 20
148.9506145653338081
 30
0.0
 11
3565.8134085688989217
 21
148.9506145653338081
 31
0.0
  0
LINE
  5
112E6
  8
0
 10
3565.8134085688989217
 20
148.9506145653338081
 30
0.0
 11
3565.8363974713988682
 21
149.0111121488338028
 31
0.0
  0
LINE
  5
112E7
  8
0
 10
3567.3642195186998833
 20
148.8339467945338015
 30
0.0
 11
3567.2631164152430756
 21
149.0111121488338028
 31
0.0
  0
LINE
  5
112E8
  8
0
 10
3567.3642195186998833
 20
148.8142617551337992
 30
0.0
 11
3559.187054164300207
 21
148.8142617551337992
 31
0.0
  0
LINE
  5
112E9
  8
0
 10
3567.2977206313148599
 20
148.9504743643232132
 30
0.0
 11
3567.2971914534000462
 21
149.0111121488338028
 31
0.0
  0
LINE
  5
112EA
  8
0
 10
3567.2854793612000321
 20
148.8339467945338015
 30
0.0
 11
3559.187054164300207
 21
148.8339467945338015
 31
0.0
  0
LINE
  5
112EB
  8
0
 10
3567.2854793612000321
 20
148.8142617551337992
 30
0.0
 11
3567.2854793612000321
 21
148.8339467945338015
 31
0.0
  0
LINE
  5
112EC
  8
0
 10
3567.2854793612000321
 20
148.8339467945338015
 30
0.0
 11
3567.3248261321127757
 21
148.9029767555628041
 31
0.0
  0
LINE
  5
112ED
  8
0
 10
3567.3642195186998833
 20
148.6370964008339115
 30
0.0
 11
3567.3642195186998833
 21
148.6174113614339092
 31
0.0
  0
LINE
  5
112EE
  8
0
 10
3565.6361360541000067
 20
148.8142617551337992
 30
0.0
 11
3565.6591249565999533
 21
148.7537641716338044
 31
0.0
  0
LINE
  5
112EF
  8
0
 10
3565.6591249565999533
 20
148.7537641716338044
 30
0.0
 11
3565.8134085688989217
 21
148.7537641716338044
 31
0.0
  0
LINE
  5
112F0
  8
0
 10
3565.8134085688989217
 20
148.7537641716338044
 30
0.0
 11
3565.8363974713988682
 21
148.8142617551337992
 31
0.0
  0
LINE
  5
112F1
  8
0
 10
3567.3642195186998833
 20
148.6370964008339115
 30
0.0
 11
3567.2631164152430756
 21
148.8142617551337992
 31
0.0
  0
LINE
  5
112F2
  8
0
 10
3567.3642195186998833
 20
148.6174113614339092
 30
0.0
 11
3559.187054164300207
 21
148.6174113614339092
 31
0.0
  0
LINE
  5
112F3
  8
0
 10
3567.2977206313148599
 20
148.7536239706232095
 30
0.0
 11
3567.2971914534000462
 21
148.8142617551337992
 31
0.0
  0
LINE
  5
112F4
  8
0
 10
3567.2854793612000321
 20
148.6370964008339115
 30
0.0
 11
3559.187054164300207
 21
148.6370964008339115
 31
0.0
  0
LINE
  5
112F5
  8
0
 10
3567.2854793612000321
 20
148.6174113614339092
 30
0.0
 11
3567.2854793612000321
 21
148.6370964008339115
 31
0.0
  0
LINE
  5
112F6
  8
0
 10
3567.2854793612000321
 20
148.6370964008339115
 30
0.0
 11
3567.3248261321127757
 21
148.7061263618628004
 31
0.0
  0
LINE
  5
112F7
  8
0
 10
3567.3642195186998833
 20
148.4402460071339078
 30
0.0
 11
3567.3642195186998833
 21
148.4205609677339055
 31
0.0
  0
LINE
  5
112F8
  8
0
 10
3565.6361360541000067
 20
148.6174113614339092
 30
0.0
 11
3565.6591249565999533
 21
148.5569137779338007
 31
0.0
  0
LINE
  5
112F9
  8
0
 10
3565.6591249565999533
 20
148.5569137779338007
 30
0.0
 11
3565.8134085688989217
 21
148.5569137779338007
 31
0.0
  0
LINE
  5
112FA
  8
0
 10
3565.8134085688989217
 20
148.5569137779338007
 30
0.0
 11
3565.8363974713988682
 21
148.6174113614339092
 31
0.0
  0
LINE
  5
112FB
  8
0
 10
3567.3642195186998833
 20
148.4402460071339078
 30
0.0
 11
3567.2631164152430756
 21
148.6174113614339092
 31
0.0
  0
LINE
  5
112FC
  8
0
 10
3567.3642195186998833
 20
148.4205609677339055
 30
0.0
 11
3559.187054164300207
 21
148.4205609677339055
 31
0.0
  0
LINE
  5
112FD
  8
0
 10
3567.2977206313148599
 20
148.5567735769232058
 30
0.0
 11
3567.2971914534000462
 21
148.6174113614339092
 31
0.0
  0
LINE
  5
112FE
  8
0
 10
3567.2854793612000321
 20
148.4402460071339078
 30
0.0
 11
3559.187054164300207
 21
148.4402460071339078
 31
0.0
  0
LINE
  5
112FF
  8
0
 10
3567.2854793612000321
 20
148.4205609677339055
 30
0.0
 11
3567.2854793612000321
 21
148.4402460071339078
 31
0.0
  0
LINE
  5
11300
  8
0
 10
3567.2854793612000321
 20
148.4402460071339078
 30
0.0
 11
3567.3248261321127757
 21
148.5092759681627967
 31
0.0
  0
LINE
  5
11301
  8
0
 10
3567.3642195186998833
 20
148.2433956134337905
 30
0.0
 11
3567.3642195186998833
 21
148.2237105740337881
 31
0.0
  0
LINE
  5
11302
  8
0
 10
3565.6361360541000067
 20
148.4205609677339055
 30
0.0
 11
3565.6591249565999533
 21
148.3600633842339107
 31
0.0
  0
LINE
  5
11303
  8
0
 10
3565.6591249565999533
 20
148.3600633842339107
 30
0.0
 11
3565.8134085688989217
 21
148.3600633842339107
 31
0.0
  0
LINE
  5
11304
  8
0
 10
3565.8134085688989217
 20
148.3600633842339107
 30
0.0
 11
3565.8363974713988682
 21
148.4205609677339055
 31
0.0
  0
LINE
  5
11305
  8
0
 10
3567.3642195186998833
 20
148.2433956134337905
 30
0.0
 11
3567.2631164152430756
 21
148.4205609677339055
 31
0.0
  0
LINE
  5
11306
  8
0
 10
3567.3642195186998833
 20
148.2237105740337881
 30
0.0
 11
3559.187054164300207
 21
148.2237105740337881
 31
0.0
  0
LINE
  5
11307
  8
0
 10
3567.2977206313148599
 20
148.3599231832230885
 30
0.0
 11
3567.2971914534000462
 21
148.4205609677339055
 31
0.0
  0
LINE
  5
11308
  8
0
 10
3567.2854793612000321
 20
148.2433956134337905
 30
0.0
 11
3559.187054164300207
 21
148.2433956134337905
 31
0.0
  0
LINE
  5
11309
  8
0
 10
3567.2854793612000321
 20
148.2237105740337881
 30
0.0
 11
3567.2854793612000321
 21
148.2433956134337905
 31
0.0
  0
LINE
  5
1130A
  8
0
 10
3567.2854793612000321
 20
148.2433956134337905
 30
0.0
 11
3567.3248261321127757
 21
148.3124255744627931
 31
0.0
  0
LINE
  5
1130B
  8
0
 10
3567.3642195186998833
 20
148.0465452197339005
 30
0.0
 11
3567.3642195186998833
 21
148.0268601803338129
 31
0.0
  0
LINE
  5
1130C
  8
0
 10
3565.6361360541000067
 20
148.2237105740337881
 30
0.0
 11
3565.6591249565999533
 21
148.163212990533907
 31
0.0
  0
LINE
  5
1130D
  8
0
 10
3565.6591249565999533
 20
148.163212990533907
 30
0.0
 11
3565.8134085688989217
 21
148.163212990533907
 31
0.0
  0
LINE
  5
1130E
  8
0
 10
3565.8134085688989217
 20
148.163212990533907
 30
0.0
 11
3565.8363974713988682
 21
148.2237105740337881
 31
0.0
  0
LINE
  5
1130F
  8
0
 10
3567.3642195186998833
 20
148.0465452197339005
 30
0.0
 11
3567.2631164152430756
 21
148.2237105740337881
 31
0.0
  0
LINE
  5
11310
  8
0
 10
3567.3642195186998833
 20
148.0268601803338129
 30
0.0
 11
3559.187054164300207
 21
148.0268601803338129
 31
0.0
  0
LINE
  5
11311
  8
0
 10
3567.2977206313148599
 20
148.1630727895231132
 30
0.0
 11
3567.2971914534000462
 21
148.2237105740337881
 31
0.0
  0
LINE
  5
11312
  8
0
 10
3567.2854793612000321
 20
148.0465452197339005
 30
0.0
 11
3559.187054164300207
 21
148.0465452197339005
 31
0.0
  0
LINE
  5
11313
  8
0
 10
3567.2854793612000321
 20
148.0268601803338129
 30
0.0
 11
3567.2854793612000321
 21
148.0465452197339005
 31
0.0
  0
LINE
  5
11314
  8
0
 10
3567.2854793612000321
 20
148.0465452197339005
 30
0.0
 11
3567.3248261321127757
 21
148.1155751807627894
 31
0.0
  0
LINE
  5
11315
  8
0
 10
3565.6361360541000067
 20
148.0268601803338129
 30
0.0
 11
3565.6591249565999533
 21
147.9663625968337897
 31
0.0
  0
LINE
  5
11316
  8
0
 10
3565.6591249565999533
 20
147.9663625968337897
 30
0.0
 11
3565.8134085688989217
 21
147.9663625968337897
 31
0.0
  0
LINE
  5
11317
  8
0
 10
3565.8134085688989217
 20
147.9663625968337897
 30
0.0
 11
3565.8363974713988682
 21
148.0268601803338129
 31
0.0
  0
LINE
  5
11318
  8
0
 10
3567.3642195186998833
 20
147.8496948260338115
 30
0.0
 11
3567.2631164152430756
 21
148.0268601803338129
 31
0.0
  0
LINE
  5
11319
  8
0
 10
3567.2977206313148599
 20
147.9662223958231095
 30
0.0
 11
3567.2971914534000462
 21
148.0268601803338129
 31
0.0
  0
LINE
  5
1131A
  8
0
 10
3567.2854793612000321
 20
147.8496948260338115
 30
0.0
 11
3559.187054164300207
 21
147.8496948260338115
 31
0.0
  0
LINE
  5
1131B
  8
0
 10
3567.2854793612000321
 20
147.8496948260338115
 30
0.0
 11
3567.3248261321127757
 21
147.9187247870628141
 31
0.0
  0
LINE
  5
1131C
  8
0
 10
3567.173433336925882
 20
147.3378838024339075
 30
0.0
 11
3567.1734570109260858
 21
147.33018874163389
 31
0.0
  0
ARC
  5
1131D
  8
0
 10
3567.1617477927511572
 20
147.3301527180028074
 30
0.0
 40
0.0117092735879217
 50
320.851454511100826
 51
0.1762709925298689
  0
ARC
  5
1131E
  8
0
 10
3566.9945736423401286
 20
147.466246817490088
 30
0.0
 40
0.227275505825544
 50
292.9219721418754148
 51
320.851454511100826
  0
ARC
  5
1131F
  8
0
 10
3567.0785356829201191
 20
147.2676932824332994
 30
0.0
 40
0.0116992303636617
 50
258.6324636953215759
 51
292.9219721418759832
  0
ARC
  5
11320
  8
0
 10
3566.9991702708462071
 20
147.4724652635684947
 30
0.0
 40
0.2295618399710006
 50
277.5785337198108778
 51
289.6139342910815913
  0
ARC
  5
11321
  8
0
 10
3567.0287745801338133
 20
147.2576833090577111
 30
0.0
 40
0.0127923020009826
 50
184.6587754981889873
 51
273.0087909319897221
  0
LINE
  5
11322
  8
0
 10
3566.8191547808260111
 20
147.3378838024339075
 30
0.0
 11
3566.8191311068258074
 21
147.33018874163389
 31
0.0
  0
ARC
  5
11323
  8
0
 10
3566.8308403249998264
 20
147.3301527180028074
 30
0.0
 40
0.0117092735879217
 50
179.8237290074700923
 51
219.1485454888992024
  0
ARC
  5
11324
  8
0
 10
3566.9980144754122193
 20
147.466246817490088
 30
0.0
 40
0.227275505825544
 50
219.1485454888992024
 51
247.0780278581246137
  0
ARC
  5
11325
  8
0
 10
3566.9140524348308645
 20
147.2676932824332994
 30
0.0
 40
0.0116992303636617
 50
247.0780278581239031
 51
281.3675363046784241
  0
ARC
  5
11326
  8
0
 10
3566.9934178469061408
 20
147.4724652635684947
 30
0.0
 40
0.2295618399710006
 50
250.3860657089184087
 51
262.4214662801891222
  0
ARC
  5
11327
  8
0
 10
3566.9638135376180799
 20
147.2576833090577111
 30
0.0
 40
0.0127923020009826
 50
266.9912090680102779
 51
355.3412245018109274
  0
LINE
  5
11328
  8
0
 10
3566.9765635749258763
 20
147.2566443003337895
 30
0.0
 11
3567.0160245428260168
 21
147.2566443003337895
 31
0.0
  0
LINE
  5
11329
  8
0
 10
3563.1755061328499323
 20
150.5859152984338039
 30
0.0
 11
3563.1984950353498789
 21
150.5254177149338091
 31
0.0
  0
LINE
  5
1132A
  8
0
 10
3563.1984950353498789
 20
150.5254177149338091
 30
0.0
 11
3563.3527786476488473
 21
150.5254177149338091
 31
0.0
  0
LINE
  5
1132B
  8
0
 10
3563.3527786476488473
 20
150.5254177149338091
 30
0.0
 11
3563.3757675501487938
 21
150.5859152984338039
 31
0.0
  0
LINE
  5
1132C
  8
0
 10
3563.1755061328499323
 20
150.3890649047338002
 30
0.0
 11
3563.1984950353498789
 21
150.3285673212338907
 31
0.0
  0
LINE
  5
1132D
  8
0
 10
3563.1984950353498789
 20
150.3285673212338907
 30
0.0
 11
3563.3527786476488473
 21
150.3285673212338907
 31
0.0
  0
LINE
  5
1132E
  8
0
 10
3563.3527786476488473
 20
150.3285673212338907
 30
0.0
 11
3563.3757675501487938
 21
150.3890649047338002
 31
0.0
  0
LINE
  5
1132F
  8
0
 10
3563.1755061328499323
 20
150.1922145110339102
 30
0.0
 11
3563.1984950353498789
 21
150.1317169275338017
 31
0.0
  0
LINE
  5
11330
  8
0
 10
3563.1984950353498789
 20
150.1317169275338017
 30
0.0
 11
3563.3527786476488473
 21
150.1317169275338017
 31
0.0
  0
LINE
  5
11331
  8
0
 10
3563.3527786476488473
 20
150.1317169275338017
 30
0.0
 11
3563.3757675501487938
 21
150.1922145110339102
 31
0.0
  0
LINE
  5
11332
  8
0
 10
3563.1755061328499323
 20
149.9953641173337928
 30
0.0
 11
3563.1984950353498789
 21
149.934866533833798
 31
0.0
  0
LINE
  5
11333
  8
0
 10
3563.1984950353498789
 20
149.934866533833798
 30
0.0
 11
3563.3527786476488473
 21
149.934866533833798
 31
0.0
  0
LINE
  5
11334
  8
0
 10
3563.3527786476488473
 20
149.934866533833798
 30
0.0
 11
3563.3757675501487938
 21
149.9953641173337928
 31
0.0
  0
LINE
  5
11335
  8
0
 10
3563.1755061328499323
 20
149.7985137236339028
 30
0.0
 11
3563.1984950353498789
 21
149.738016140133908
 31
0.0
  0
LINE
  5
11336
  8
0
 10
3563.1984950353498789
 20
149.738016140133908
 30
0.0
 11
3563.3527786476488473
 21
149.738016140133908
 31
0.0
  0
LINE
  5
11337
  8
0
 10
3563.3527786476488473
 20
149.738016140133908
 30
0.0
 11
3563.3757675501487938
 21
149.7985137236339028
 31
0.0
  0
LINE
  5
11338
  8
0
 10
3563.1755061328499323
 20
149.6016633299338991
 30
0.0
 11
3563.1984950353498789
 21
149.5411657464337907
 31
0.0
  0
LINE
  5
11339
  8
0
 10
3563.1984950353498789
 20
149.5411657464337907
 30
0.0
 11
3563.3527786476488473
 21
149.5411657464337907
 31
0.0
  0
LINE
  5
1133A
  8
0
 10
3563.3527786476488473
 20
149.5411657464337907
 30
0.0
 11
3563.3757675501487938
 21
149.6016633299338991
 31
0.0
  0
LINE
  5
1133B
  8
0
 10
3563.1755061328499323
 20
149.4048129362338102
 30
0.0
 11
3563.1984950353498789
 21
149.344315352733787
 31
0.0
  0
LINE
  5
1133C
  8
0
 10
3563.1984950353498789
 20
149.344315352733787
 30
0.0
 11
3563.3527786476488473
 21
149.344315352733787
 31
0.0
  0
LINE
  5
1133D
  8
0
 10
3563.3527786476488473
 20
149.344315352733787
 30
0.0
 11
3563.3757675501487938
 21
149.4048129362338102
 31
0.0
  0
LINE
  5
1133E
  8
0
 10
3563.1755061328499323
 20
149.2079625425338065
 30
0.0
 11
3563.1984950353498789
 21
149.147464959033897
 31
0.0
  0
LINE
  5
1133F
  8
0
 10
3563.1984950353498789
 20
149.147464959033897
 30
0.0
 11
3563.3527786476488473
 21
149.147464959033897
 31
0.0
  0
LINE
  5
11340
  8
0
 10
3563.3527786476488473
 20
149.147464959033897
 30
0.0
 11
3563.3757675501487938
 21
149.2079625425338065
 31
0.0
  0
LINE
  5
11341
  8
0
 10
3563.1755061328499323
 20
149.0111121488338028
 30
0.0
 11
3563.1984950353498789
 21
148.9506145653338081
 31
0.0
  0
LINE
  5
11342
  8
0
 10
3563.1984950353498789
 20
148.9506145653338081
 30
0.0
 11
3563.3527786476488473
 21
148.9506145653338081
 31
0.0
  0
LINE
  5
11343
  8
0
 10
3563.3527786476488473
 20
148.9506145653338081
 30
0.0
 11
3563.3757675501487938
 21
149.0111121488338028
 31
0.0
  0
LINE
  5
11344
  8
0
 10
3563.1755061328499323
 20
148.8142617551337992
 30
0.0
 11
3563.1984950353498789
 21
148.7537641716338044
 31
0.0
  0
LINE
  5
11345
  8
0
 10
3563.1984950353498789
 20
148.7537641716338044
 30
0.0
 11
3563.3527786476488473
 21
148.7537641716338044
 31
0.0
  0
LINE
  5
11346
  8
0
 10
3563.3527786476488473
 20
148.7537641716338044
 30
0.0
 11
3563.3757675501487938
 21
148.8142617551337992
 31
0.0
  0
LINE
  5
11347
  8
0
 10
3563.1755061328499323
 20
148.6174113614339092
 30
0.0
 11
3563.1984950353498789
 21
148.5569137779338007
 31
0.0
  0
LINE
  5
11348
  8
0
 10
3563.1984950353498789
 20
148.5569137779338007
 30
0.0
 11
3563.3527786476488473
 21
148.5569137779338007
 31
0.0
  0
LINE
  5
11349
  8
0
 10
3563.3527786476488473
 20
148.5569137779338007
 30
0.0
 11
3563.3757675501487938
 21
148.6174113614339092
 31
0.0
  0
LINE
  5
1134A
  8
0
 10
3563.1755061328499323
 20
148.4205609677339055
 30
0.0
 11
3563.1984950353498789
 21
148.3600633842339107
 31
0.0
  0
LINE
  5
1134B
  8
0
 10
3563.1984950353498789
 20
148.3600633842339107
 30
0.0
 11
3563.3527786476488473
 21
148.3600633842339107
 31
0.0
  0
LINE
  5
1134C
  8
0
 10
3563.3527786476488473
 20
148.3600633842339107
 30
0.0
 11
3563.3757675501487938
 21
148.4205609677339055
 31
0.0
  0
LINE
  5
1134D
  8
0
 10
3563.1755061328499323
 20
148.2237105740337881
 30
0.0
 11
3563.1984950353498789
 21
148.163212990533907
 31
0.0
  0
LINE
  5
1134E
  8
0
 10
3563.1984950353498789
 20
148.163212990533907
 30
0.0
 11
3563.3527786476488473
 21
148.163212990533907
 31
0.0
  0
LINE
  5
1134F
  8
0
 10
3563.3527786476488473
 20
148.163212990533907
 30
0.0
 11
3563.3757675501487938
 21
148.2237105740337881
 31
0.0
  0
LINE
  5
11350
  8
0
 10
3563.1755061328499323
 20
148.0268601803338129
 30
0.0
 11
3563.1984950353498789
 21
147.9663625968337897
 31
0.0
  0
LINE
  5
11351
  8
0
 10
3563.1984950353498789
 20
147.9663625968337897
 30
0.0
 11
3563.3527786476488473
 21
147.9663625968337897
 31
0.0
  0
LINE
  5
11352
  8
0
 10
3563.3527786476488473
 20
147.9663625968337897
 30
0.0
 11
3563.3757675501487938
 21
148.0268601803338129
 31
0.0
  0
LINE
  5
11353
  8
0
 10
3573.3020836227779
 20
154.6607184481337924
 30
0.0
 11
3570.4186677274237809
 21
154.6607184481337924
 31
0.0
  0
ARC
  5
11354
  8
0
 10
3571.576924611738832
 20
154.4253065642118941
 30
0.0
 40
0.2373655565860977
 50
97.3561911838251888
 51
178.7962603699781141
  0
LINE
  5
11355
  8
0
 10
3571.3396114382999258
 20
154.4302930625339059
 30
0.0
 11
3571.5608322484790733
 21
152.0281204932205128
 31
0.0
  0
ARC
  5
11356
  8
0
 10
3570.2580410418240717
 20
153.072382185641402
 30
0.0
 40
1.8133865990703839
 50
95.5545947800108166
 51
148.4599484147813939
  0
ARC
  5
11357
  8
0
 10
3567.1791740792859855
 20
154.9620759971635096
 30
0.0
 40
1.799142220788041
 50
272.5644818949156161
 51
328.4599484147814792
  0
ARC
  5
11358
  8
0
 10
3570.6376459356251871
 20
152.542783789374198
 30
0.0
 40
2.1292248999206
 50
95.9029698160768902
 51
117.1817836081450963
  0
LINE
  5
11359
  8
0
 10
3569.6649837936997756
 20
154.4368606178339007
 30
0.0
 11
3569.7048510742620238
 21
151.4520570308339131
 31
0.0
  0
LINE
  5
1135A
  8
0
 10
3567.2596743765698193
 20
153.1647356196170051
 30
0.0
 11
3558.9897182217441696
 21
153.1647356196170051
 31
0.0
  0
CIRCLE
  5
1135B
  8
0
 10
3558.1181565264992059
 20
153.0859152984338891
 30
0.0
 40
0.464566048
  0
LINE
  5
1135C
  8
0
 10
3559.187054164300207
 20
150.5859152984338039
 30
0.0
 11
3559.187054164300207
 21
151.2626717276546913
 31
0.0
  0
LINE
  5
1135D
  8
0
 10
3559.187054164300207
 20
150.4087499441338025
 30
0.0
 11
3559.187054164300207
 21
150.3890649047339139
 31
0.0
  0
LINE
  5
1135E
  8
0
 10
3559.187054164300207
 20
147.8496948260338115
 30
0.0
 11
3559.187054164300207
 21
147.4166239599337871
 31
0.0
  0
LINE
  5
1135F
  8
0
 10
3559.2402037705987823
 20
147.3378838024339075
 30
0.0
 11
3559.2402037705987823
 21
147.4166239599337871
 31
0.0
  0
LINE
  5
11360
  8
0
 10
3559.1417785737990016
 20
151.4520570308339131
 30
0.0
 11
3559.1417785737990016
 21
151.3339467945338868
 31
0.0
  0
ARC
  5
11361
  8
0
 10
3559.2205187312988528
 20
151.3339467945338868
 30
0.0
 40
0.0787401574999969
 50
179.9999999999934914
 51
270.0
  0
ARC
  5
11362
  8
0
 10
3559.4443884754000464
 20
151.2158365583337911
 30
0.0
 40
0.0393700787000189
 50
0.0000000000211698
 51
90.0
  0
LINE
  5
11363
  8
0
 10
3559.4837585540999498
 20
151.2158365583339048
 30
0.0
 11
3559.4837585540999498
 21
151.1764664796338877
 31
0.0
  0
ARC
  5
11364
  8
0
 10
3559.5231286329699287
 20
151.1764664798045033
 30
0.0
 40
0.0393700788706895
 50
180.0000002484011929
 51
269.9999998971084096
  0
LINE
  5
11365
  8
0
 10
3559.857774302100097
 20
151.1370964008339115
 30
0.0
 11
3559.5034435934999237
 21
151.1370964008339115
 31
0.0
  0
LINE
  5
11366
  8
0
 10
3559.5034435934999237
 20
151.1370964008339115
 30
0.0
 11
3559.5034435934999237
 21
151.1293292927711889
 31
0.0
  0
ARC
  5
11367
  8
0
 10
3559.5151528116739428
 20
151.1293653164028115
 30
0.0
 40
0.0117092735879119
 50
180.1762709953551962
 51
219.148545488914408
  0
ARC
  5
11368
  8
0
 10
3559.682326962085881
 20
151.265459415890092
 30
0.0
 40
0.227275505825544
 50
219.1485454888992024
 51
247.0780278581246137
  0
ARC
  5
11369
  8
0
 10
3559.5983649215049809
 20
151.0669058808333034
 30
0.0
 40
0.0116992303636617
 50
247.0780278581239031
 51
281.3675363046784241
  0
ARC
  5
1136A
  8
0
 10
3559.6777303335788929
 20
151.2716778619684135
 30
0.0
 40
0.2295618399710006
 50
250.3860657089184087
 51
262.4214662801891222
  0
ARC
  5
1136B
  8
0
 10
3559.648126024290832
 20
151.0568959074576867
 30
0.0
 40
0.0127923020009826
 50
266.9912090680102779
 51
355.3412245018109274
  0
LINE
  5
1136C
  8
0
 10
3559.700341834000028
 20
151.0558568987339072
 30
0.0
 11
3559.6608760615990832
 21
151.0558568987339072
 31
0.0
  0
LINE
  5
1136D
  8
0
 10
3560.9151376289000837
 20
150.5859152984338039
 30
0.0
 11
3560.8921487263987729
 21
150.5254177149338091
 31
0.0
  0
LINE
  5
1136E
  8
0
 10
3560.8921487263987729
 20
150.5254177149338091
 30
0.0
 11
3560.7378651140998045
 21
150.5254177149338091
 31
0.0
  0
LINE
  5
1136F
  8
0
 10
3560.7378651140998045
 20
150.5254177149338091
 30
0.0
 11
3560.7148762115998579
 21
150.5859152984338039
 31
0.0
  0
LINE
  5
11370
  8
0
 10
3559.187054164300207
 20
150.4087499441338025
 30
0.0
 11
3559.2881572677570148
 21
150.5859152984338039
 31
0.0
  0
LINE
  5
11371
  8
0
 10
3559.2535530516838662
 20
150.5252775139232142
 30
0.0
 11
3559.2540822296000442
 21
150.5859152984338039
 31
0.0
  0
LINE
  5
11372
  8
0
 10
3559.2657943217991487
 20
150.3890649047339139
 30
0.0
 11
3559.2657943217991487
 21
150.4087499441338025
 31
0.0
  0
LINE
  5
11373
  8
0
 10
3559.2657943217991487
 20
150.4087499441338025
 30
0.0
 11
3559.226447550885041
 21
150.4777799051628051
 31
0.0
  0
LINE
  5
11374
  8
0
 10
3559.187054164300207
 20
150.2118995504337988
 30
0.0
 11
3559.187054164300207
 21
150.1922145110339102
 31
0.0
  0
LINE
  5
11375
  8
0
 10
3560.9151376289000837
 20
150.3890649047338002
 30
0.0
 11
3560.8921487263987729
 21
150.3285673212338907
 31
0.0
  0
LINE
  5
11376
  8
0
 10
3560.8921487263987729
 20
150.3285673212338907
 30
0.0
 11
3560.7378651140998045
 21
150.3285673212338907
 31
0.0
  0
LINE
  5
11377
  8
0
 10
3560.7378651140998045
 20
150.3285673212338907
 30
0.0
 11
3560.7148762115998579
 21
150.3890649047338002
 31
0.0
  0
LINE
  5
11378
  8
0
 10
3559.187054164300207
 20
150.2118995504337988
 30
0.0
 11
3559.2881572677570148
 21
150.3890649047338002
 31
0.0
  0
LINE
  5
11379
  8
0
 10
3559.2535530516838662
 20
150.3284271202232105
 30
0.0
 11
3559.2540822296000442
 21
150.3890649047338002
 31
0.0
  0
LINE
  5
1137A
  8
0
 10
3559.2657943217991487
 20
150.1922145110339102
 30
0.0
 11
3559.2657943217991487
 21
150.2118995504337988
 31
0.0
  0
LINE
  5
1137B
  8
0
 10
3559.2657943217991487
 20
150.2118995504337988
 30
0.0
 11
3559.226447550885041
 21
150.2809295114626877
 31
0.0
  0
LINE
  5
1137C
  8
0
 10
3559.187054164300207
 20
150.0150491567339088
 30
0.0
 11
3559.187054164300207
 21
149.9953641173337928
 31
0.0
  0
LINE
  5
1137D
  8
0
 10
3560.9151376289000837
 20
150.1922145110339102
 30
0.0
 11
3560.8921487263987729
 21
150.1317169275338017
 31
0.0
  0
LINE
  5
1137E
  8
0
 10
3560.8921487263987729
 20
150.1317169275338017
 30
0.0
 11
3560.7378651140998045
 21
150.1317169275338017
 31
0.0
  0
LINE
  5
1137F
  8
0
 10
3560.7378651140998045
 20
150.1317169275338017
 30
0.0
 11
3560.7148762115998579
 21
150.1922145110339102
 31
0.0
  0
LINE
  5
11380
  8
0
 10
3559.187054164300207
 20
150.0150491567339088
 30
0.0
 11
3559.2881572677570148
 21
150.1922145110339102
 31
0.0
  0
LINE
  5
11381
  8
0
 10
3559.2535530516838662
 20
150.1315767265230932
 30
0.0
 11
3559.2540822296000442
 21
150.1922145110339102
 31
0.0
  0
LINE
  5
11382
  8
0
 10
3559.2657943217991487
 20
149.9953641173337928
 30
0.0
 11
3559.2657943217991487
 21
150.0150491567339088
 31
0.0
  0
LINE
  5
11383
  8
0
 10
3559.2657943217991487
 20
150.0150491567339088
 30
0.0
 11
3559.226447550885041
 21
150.0840791177627978
 31
0.0
  0
LINE
  5
11384
  8
0
 10
3559.187054164300207
 20
149.8181987630339052
 30
0.0
 11
3559.187054164300207
 21
149.7985137236339028
 31
0.0
  0
LINE
  5
11385
  8
0
 10
3560.9151376289000837
 20
149.9953641173337928
 30
0.0
 11
3560.8921487263987729
 21
149.934866533833798
 31
0.0
  0
LINE
  5
11386
  8
0
 10
3560.8921487263987729
 20
149.934866533833798
 30
0.0
 11
3560.7378651140998045
 21
149.934866533833798
 31
0.0
  0
LINE
  5
11387
  8
0
 10
3560.7378651140998045
 20
149.934866533833798
 30
0.0
 11
3560.7148762115998579
 21
149.9953641173337928
 31
0.0
  0
LINE
  5
11388
  8
0
 10
3559.187054164300207
 20
149.8181987630339052
 30
0.0
 11
3559.2881572677570148
 21
149.9953641173337928
 31
0.0
  0
LINE
  5
11389
  8
0
 10
3559.2535530516838662
 20
149.9347263328232032
 30
0.0
 11
3559.2540822296000442
 21
149.9953641173337928
 31
0.0
  0
LINE
  5
1138A
  8
0
 10
3559.2657943217991487
 20
149.7985137236339028
 30
0.0
 11
3559.2657943217991487
 21
149.8181987630339052
 31
0.0
  0
LINE
  5
1138B
  8
0
 10
3559.2657943217991487
 20
149.8181987630339052
 30
0.0
 11
3559.226447550885041
 21
149.8872287240627941
 31
0.0
  0
LINE
  5
1138C
  8
0
 10
3559.187054164300207
 20
149.6213483693337878
 30
0.0
 11
3559.187054164300207
 21
149.6016633299338991
 31
0.0
  0
LINE
  5
1138D
  8
0
 10
3560.9151376289000837
 20
149.7985137236339028
 30
0.0
 11
3560.8921487263987729
 21
149.738016140133908
 31
0.0
  0
LINE
  5
1138E
  8
0
 10
3560.8921487263987729
 20
149.738016140133908
 30
0.0
 11
3560.7378651140998045
 21
149.738016140133908
 31
0.0
  0
LINE
  5
1138F
  8
0
 10
3560.7378651140998045
 20
149.738016140133908
 30
0.0
 11
3560.7148762115998579
 21
149.7985137236339028
 31
0.0
  0
LINE
  5
11390
  8
0
 10
3559.187054164300207
 20
149.6213483693337878
 30
0.0
 11
3559.2881572677570148
 21
149.7985137236339028
 31
0.0
  0
LINE
  5
11391
  8
0
 10
3559.2535530516838662
 20
149.7378759391230858
 30
0.0
 11
3559.2540822296000442
 21
149.7985137236339028
 31
0.0
  0
LINE
  5
11392
  8
0
 10
3559.2657943217991487
 20
149.6016633299338991
 30
0.0
 11
3559.2657943217991487
 21
149.6213483693337878
 31
0.0
  0
LINE
  5
11393
  8
0
 10
3559.2657943217991487
 20
149.6213483693337878
 30
0.0
 11
3559.226447550885041
 21
149.6903783303627904
 31
0.0
  0
LINE
  5
11394
  8
0
 10
3559.187054164300207
 20
149.4244979756338125
 30
0.0
 11
3559.187054164300207
 21
149.4048129362338102
 31
0.0
  0
LINE
  5
11395
  8
0
 10
3560.9151376289000837
 20
149.6016633299338991
 30
0.0
 11
3560.8921487263987729
 21
149.5411657464337907
 31
0.0
  0
LINE
  5
11396
  8
0
 10
3560.8921487263987729
 20
149.5411657464337907
 30
0.0
 11
3560.7378651140998045
 21
149.5411657464337907
 31
0.0
  0
LINE
  5
11397
  8
0
 10
3560.7378651140998045
 20
149.5411657464337907
 30
0.0
 11
3560.7148762115998579
 21
149.6016633299338991
 31
0.0
  0
LINE
  5
11398
  8
0
 10
3559.187054164300207
 20
149.4244979756338125
 30
0.0
 11
3559.2881572677570148
 21
149.6016633299338991
 31
0.0
  0
LINE
  5
11399
  8
0
 10
3559.2535530516838662
 20
149.5410255454231105
 30
0.0
 11
3559.2540822296000442
 21
149.6016633299338991
 31
0.0
  0
LINE
  5
1139A
  8
0
 10
3559.2657943217991487
 20
149.4048129362338102
 30
0.0
 11
3559.2657943217991487
 21
149.4244979756338125
 31
0.0
  0
LINE
  5
1139B
  8
0
 10
3559.2657943217991487
 20
149.4244979756338125
 30
0.0
 11
3559.226447550885041
 21
149.4935279366627867
 31
0.0
  0
LINE
  5
1139C
  8
0
 10
3559.187054164300207
 20
149.2276475819338089
 30
0.0
 11
3559.187054164300207
 21
149.2079625425338065
 31
0.0
  0
LINE
  5
1139D
  8
0
 10
3560.9151376289000837
 20
149.4048129362338102
 30
0.0
 11
3560.8921487263987729
 21
149.344315352733787
 31
0.0
  0
LINE
  5
1139E
  8
0
 10
3560.8921487263987729
 20
149.344315352733787
 30
0.0
 11
3560.7378651140998045
 21
149.344315352733787
 31
0.0
  0
LINE
  5
1139F
  8
0
 10
3560.7378651140998045
 20
149.344315352733787
 30
0.0
 11
3560.7148762115998579
 21
149.4048129362338102
 31
0.0
  0
LINE
  5
113A0
  8
0
 10
3559.187054164300207
 20
149.2276475819338089
 30
0.0
 11
3559.2881572677570148
 21
149.4048129362338102
 31
0.0
  0
LINE
  5
113A1
  8
0
 10
3559.2535530516838662
 20
149.3441751517231069
 30
0.0
 11
3559.2540822296000442
 21
149.4048129362338102
 31
0.0
  0
LINE
  5
113A2
  8
0
 10
3559.2657943217991487
 20
149.2079625425338065
 30
0.0
 11
3559.2657943217991487
 21
149.2276475819338089
 31
0.0
  0
LINE
  5
113A3
  8
0
 10
3559.2657943217991487
 20
149.2276475819338089
 30
0.0
 11
3559.226447550885041
 21
149.2966775429628115
 31
0.0
  0
LINE
  5
113A4
  8
0
 10
3559.187054164300207
 20
149.0307971882338052
 30
0.0
 11
3559.187054164300207
 21
149.0111121488338881
 31
0.0
  0
LINE
  5
113A5
  8
0
 10
3560.9151376289000837
 20
149.2079625425338065
 30
0.0
 11
3560.8921487263987729
 21
149.147464959033897
 31
0.0
  0
LINE
  5
113A6
  8
0
 10
3560.8921487263987729
 20
149.147464959033897
 30
0.0
 11
3560.7378651140998045
 21
149.147464959033897
 31
0.0
  0
LINE
  5
113A7
  8
0
 10
3560.7378651140998045
 20
149.147464959033897
 30
0.0
 11
3560.7148762115998579
 21
149.2079625425338065
 31
0.0
  0
LINE
  5
113A8
  8
0
 10
3559.187054164300207
 20
149.0307971882338052
 30
0.0
 11
3559.2881572677570148
 21
149.2079625425338065
 31
0.0
  0
LINE
  5
113A9
  8
0
 10
3559.2535530516838662
 20
149.1473247580231885
 30
0.0
 11
3559.2540822296000442
 21
149.2079625425338065
 31
0.0
  0
LINE
  5
113AA
  8
0
 10
3559.2657943217991487
 20
149.0111121488338881
 30
0.0
 11
3559.2657943217991487
 21
149.0307971882338052
 31
0.0
  0
LINE
  5
113AB
  8
0
 10
3559.2657943217991487
 20
149.0307971882338052
 30
0.0
 11
3559.226447550885041
 21
149.0998271492626941
 31
0.0
  0
LINE
  5
113AC
  8
0
 10
3559.187054164300207
 20
148.8339467945338015
 30
0.0
 11
3559.187054164300207
 21
148.8142617551337992
 31
0.0
  0
LINE
  5
113AD
  8
0
 10
3560.9151376289000837
 20
149.0111121488338028
 30
0.0
 11
3560.8921487263987729
 21
148.9506145653338081
 31
0.0
  0
LINE
  5
113AE
  8
0
 10
3560.8921487263987729
 20
148.9506145653338081
 30
0.0
 11
3560.7378651140998045
 21
148.9506145653338081
 31
0.0
  0
LINE
  5
113AF
  8
0
 10
3560.7378651140998045
 20
148.9506145653338081
 30
0.0
 11
3560.7148762115998579
 21
149.0111121488338028
 31
0.0
  0
LINE
  5
113B0
  8
0
 10
3559.187054164300207
 20
148.8339467945338015
 30
0.0
 11
3559.2881572677570148
 21
149.0111121488338028
 31
0.0
  0
LINE
  5
113B1
  8
0
 10
3559.2535530516838662
 20
148.9504743643232132
 30
0.0
 11
3559.2540822296000442
 21
149.0111121488338028
 31
0.0
  0
LINE
  5
113B2
  8
0
 10
3559.2657943217991487
 20
148.8142617551337992
 30
0.0
 11
3559.2657943217991487
 21
148.8339467945338015
 31
0.0
  0
LINE
  5
113B3
  8
0
 10
3559.2657943217991487
 20
148.8339467945338015
 30
0.0
 11
3559.226447550885041
 21
148.9029767555628041
 31
0.0
  0
LINE
  5
113B4
  8
0
 10
3559.187054164300207
 20
148.6370964008339115
 30
0.0
 11
3559.187054164300207
 21
148.6174113614339092
 31
0.0
  0
LINE
  5
113B5
  8
0
 10
3560.9151376289000837
 20
148.8142617551337992
 30
0.0
 11
3560.8921487263987729
 21
148.7537641716338044
 31
0.0
  0
LINE
  5
113B6
  8
0
 10
3560.8921487263987729
 20
148.7537641716338044
 30
0.0
 11
3560.7378651140998045
 21
148.7537641716338044
 31
0.0
  0
LINE
  5
113B7
  8
0
 10
3560.7378651140998045
 20
148.7537641716338044
 30
0.0
 11
3560.7148762115998579
 21
148.8142617551337992
 31
0.0
  0
LINE
  5
113B8
  8
0
 10
3559.187054164300207
 20
148.6370964008339115
 30
0.0
 11
3559.2881572677570148
 21
148.8142617551337992
 31
0.0
  0
LINE
  5
113B9
  8
0
 10
3559.2535530516838662
 20
148.7536239706232095
 30
0.0
 11
3559.2540822296000442
 21
148.8142617551337992
 31
0.0
  0
LINE
  5
113BA
  8
0
 10
3559.2657943217991487
 20
148.6174113614339092
 30
0.0
 11
3559.2657943217991487
 21
148.6370964008339115
 31
0.0
  0
LINE
  5
113BB
  8
0
 10
3559.2657943217991487
 20
148.6370964008339115
 30
0.0
 11
3559.226447550885041
 21
148.7061263618628004
 31
0.0
  0
LINE
  5
113BC
  8
0
 10
3559.187054164300207
 20
148.4402460071339078
 30
0.0
 11
3559.187054164300207
 21
148.4205609677339055
 31
0.0
  0
LINE
  5
113BD
  8
0
 10
3560.9151376289000837
 20
148.6174113614339092
 30
0.0
 11
3560.8921487263987729
 21
148.5569137779338007
 31
0.0
  0
LINE
  5
113BE
  8
0
 10
3560.8921487263987729
 20
148.5569137779338007
 30
0.0
 11
3560.7378651140998045
 21
148.5569137779338007
 31
0.0
  0
LINE
  5
113BF
  8
0
 10
3560.7378651140998045
 20
148.5569137779338007
 30
0.0
 11
3560.7148762115998579
 21
148.6174113614339092
 31
0.0
  0
LINE
  5
113C0
  8
0
 10
3559.187054164300207
 20
148.4402460071339078
 30
0.0
 11
3559.2881572677570148
 21
148.6174113614339092
 31
0.0
  0
LINE
  5
113C1
  8
0
 10
3559.2535530516838662
 20
148.5567735769232058
 30
0.0
 11
3559.2540822296000442
 21
148.6174113614339092
 31
0.0
  0
LINE
  5
113C2
  8
0
 10
3559.2657943217991487
 20
148.4205609677339055
 30
0.0
 11
3559.2657943217991487
 21
148.4402460071339078
 31
0.0
  0
LINE
  5
113C3
  8
0
 10
3559.2657943217991487
 20
148.4402460071339078
 30
0.0
 11
3559.226447550885041
 21
148.5092759681627967
 31
0.0
  0
LINE
  5
113C4
  8
0
 10
3559.187054164300207
 20
148.2433956134337905
 30
0.0
 11
3559.187054164300207
 21
148.2237105740337881
 31
0.0
  0
LINE
  5
113C5
  8
0
 10
3560.9151376289000837
 20
148.4205609677339055
 30
0.0
 11
3560.8921487263987729
 21
148.3600633842339107
 31
0.0
  0
LINE
  5
113C6
  8
0
 10
3560.8921487263987729
 20
148.3600633842339107
 30
0.0
 11
3560.7378651140998045
 21
148.3600633842339107
 31
0.0
  0
LINE
  5
113C7
  8
0
 10
3560.7378651140998045
 20
148.3600633842339107
 30
0.0
 11
3560.7148762115998579
 21
148.4205609677339055
 31
0.0
  0
LINE
  5
113C8
  8
0
 10
3559.187054164300207
 20
148.2433956134337905
 30
0.0
 11
3559.2881572677570148
 21
148.4205609677339055
 31
0.0
  0
LINE
  5
113C9
  8
0
 10
3559.2535530516838662
 20
148.3599231832230885
 30
0.0
 11
3559.2540822296000442
 21
148.4205609677339055
 31
0.0
  0
LINE
  5
113CA
  8
0
 10
3559.2657943217991487
 20
148.2237105740337881
 30
0.0
 11
3559.2657943217991487
 21
148.2433956134337905
 31
0.0
  0
LINE
  5
113CB
  8
0
 10
3559.2657943217991487
 20
148.2433956134337905
 30
0.0
 11
3559.226447550885041
 21
148.3124255744627931
 31
0.0
  0
LINE
  5
113CC
  8
0
 10
3559.187054164300207
 20
148.0465452197339005
 30
0.0
 11
3559.187054164300207
 21
148.0268601803338129
 31
0.0
  0
LINE
  5
113CD
  8
0
 10
3560.9151376289000837
 20
148.2237105740337881
 30
0.0
 11
3560.8921487263987729
 21
148.163212990533907
 31
0.0
  0
LINE
  5
113CE
  8
0
 10
3560.8921487263987729
 20
148.163212990533907
 30
0.0
 11
3560.7378651140998045
 21
148.163212990533907
 31
0.0
  0
LINE
  5
113CF
  8
0
 10
3560.7378651140998045
 20
148.163212990533907
 30
0.0
 11
3560.7148762115998579
 21
148.2237105740337881
 31
0.0
  0
LINE
  5
113D0
  8
0
 10
3559.187054164300207
 20
148.0465452197339005
 30
0.0
 11
3559.2881572677570148
 21
148.2237105740337881
 31
0.0
  0
LINE
  5
113D1
  8
0
 10
3559.2535530516838662
 20
148.1630727895231132
 30
0.0
 11
3559.2540822296000442
 21
148.2237105740337881
 31
0.0
  0
LINE
  5
113D2
  8
0
 10
3559.2657943217991487
 20
148.0268601803338129
 30
0.0
 11
3559.2657943217991487
 21
148.0465452197339005
 31
0.0
  0
LINE
  5
113D3
  8
0
 10
3559.2657943217991487
 20
148.0465452197339005
 30
0.0
 11
3559.226447550885041
 21
148.1155751807627894
 31
0.0
  0
LINE
  5
113D4
  8
0
 10
3560.9151376289000837
 20
148.0268601803338129
 30
0.0
 11
3560.8921487263987729
 21
147.9663625968337897
 31
0.0
  0
LINE
  5
113D5
  8
0
 10
3560.8921487263987729
 20
147.9663625968337897
 30
0.0
 11
3560.7378651140998045
 21
147.9663625968337897
 31
0.0
  0
LINE
  5
113D6
  8
0
 10
3560.7378651140998045
 20
147.9663625968337897
 30
0.0
 11
3560.7148762115998579
 21
148.0268601803338129
 31
0.0
  0
LINE
  5
113D7
  8
0
 10
3559.187054164300207
 20
147.8496948260338115
 30
0.0
 11
3559.2881572677570148
 21
148.0268601803338129
 31
0.0
  0
LINE
  5
113D8
  8
0
 10
3559.2535530516838662
 20
147.9662223958231095
 30
0.0
 11
3559.2540822296000442
 21
148.0268601803338129
 31
0.0
  0
LINE
  5
113D9
  8
0
 10
3559.2657943217991487
 20
147.8496948260338115
 30
0.0
 11
3559.226447550885041
 21
147.9187247870628141
 31
0.0
  0
LINE
  5
113DA
  8
0
 10
3559.3778403460728441
 20
147.3378838024339075
 30
0.0
 11
3559.3778166720730951
 21
147.33018874163389
 31
0.0
  0
ARC
  5
113DB
  8
0
 10
3559.3895258902480236
 20
147.3301527180028074
 30
0.0
 40
0.0117092735879217
 50
179.8237290074700923
 51
219.1485454888992024
  0
ARC
  5
113DC
  8
0
 10
3559.5567000406599618
 20
147.466246817490088
 30
0.0
 40
0.227275505825544
 50
219.1485454888992024
 51
247.0780278581246137
  0
ARC
  5
113DD
  8
0
 10
3559.4727380000781523
 20
147.2676932824332994
 30
0.0
 40
0.0116992303636617
 50
247.0780278581239031
 51
281.3675363046784241
  0
ARC
  5
113DE
  8
0
 10
3559.5521034121538833
 20
147.4724652635684947
 30
0.0
 40
0.2295618399710006
 50
250.3860657089184087
 51
262.4214662801891222
  0
ARC
  5
113DF
  8
0
 10
3559.5224991028649129
 20
147.2576833090577111
 30
0.0
 40
0.0127923020009826
 50
266.9912090680102779
 51
355.3412245018109274
  0
LINE
  5
113E0
  8
0
 10
3559.7321189021740793
 20
147.3378838024339075
 30
0.0
 11
3559.7321425761729188
 21
147.33018874163389
 31
0.0
  0
ARC
  5
113E1
  8
0
 10
3559.7204333579988997
 20
147.3301527180028074
 30
0.0
 40
0.0117092735879217
 50
320.851454511100826
 51
0.1762709925298689
  0
ARC
  5
113E2
  8
0
 10
3559.5532592075878711
 20
147.466246817490088
 30
0.0
 40
0.227275505825544
 50
292.9219721418754148
 51
320.851454511100826
  0
ARC
  5
113E3
  8
0
 10
3559.6372212481692259
 20
147.2676932824332994
 30
0.0
 40
0.0116992303636617
 50
258.6324636953215759
 51
292.9219721418759832
  0
ARC
  5
113E4
  8
0
 10
3559.5578558360930401
 20
147.4724652635684947
 30
0.0
 40
0.2295618399710006
 50
277.5785337198108778
 51
289.6139342910815913
  0
ARC
  5
113E5
  8
0
 10
3559.5874601453820105
 20
147.2576833090577111
 30
0.0
 40
0.0127923020009826
 50
184.6587754981889873
 51
273.0087909319897221
  0
LINE
  5
113E6
  8
0
 10
3559.5747101080728498
 20
147.2566443003337895
 30
0.0
 11
3559.5352491401740735
 21
147.2566443003337895
 31
0.0
  0
LINE
  5
113E7
  8
0
 10
3563.3757675501487938
 20
150.5859152984338039
 30
0.0
 11
3563.3527786476488473
 21
150.5254177149338091
 31
0.0
  0
LINE
  5
113E8
  8
0
 10
3563.3527786476488473
 20
150.5254177149338091
 30
0.0
 11
3563.1984950353498789
 21
150.5254177149338091
 31
0.0
  0
LINE
  5
113E9
  8
0
 10
3563.1984950353498789
 20
150.5254177149338091
 30
0.0
 11
3563.1755061328499323
 21
150.5859152984338039
 31
0.0
  0
LINE
  5
113EA
  8
0
 10
3563.3757675501487938
 20
150.3890649047338002
 30
0.0
 11
3563.3527786476488473
 21
150.3285673212338907
 31
0.0
  0
LINE
  5
113EB
  8
0
 10
3563.3527786476488473
 20
150.3285673212338907
 30
0.0
 11
3563.1984950353498789
 21
150.3285673212338907
 31
0.0
  0
LINE
  5
113EC
  8
0
 10
3563.1984950353498789
 20
150.3285673212338907
 30
0.0
 11
3563.1755061328499323
 21
150.3890649047338002
 31
0.0
  0
LINE
  5
113ED
  8
0
 10
3563.3757675501487938
 20
150.1922145110339102
 30
0.0
 11
3563.3527786476488473
 21
150.1317169275338017
 31
0.0
  0
LINE
  5
113EE
  8
0
 10
3563.3527786476488473
 20
150.1317169275338017
 30
0.0
 11
3563.1984950353498789
 21
150.1317169275338017
 31
0.0
  0
LINE
  5
113EF
  8
0
 10
3563.1984950353498789
 20
150.1317169275338017
 30
0.0
 11
3563.1755061328499323
 21
150.1922145110339102
 31
0.0
  0
LINE
  5
113F0
  8
0
 10
3563.3757675501487938
 20
149.9953641173337928
 30
0.0
 11
3563.3527786476488473
 21
149.934866533833798
 31
0.0
  0
LINE
  5
113F1
  8
0
 10
3563.3527786476488473
 20
149.934866533833798
 30
0.0
 11
3563.1984950353498789
 21
149.934866533833798
 31
0.0
  0
LINE
  5
113F2
  8
0
 10
3563.1984950353498789
 20
149.934866533833798
 30
0.0
 11
3563.1755061328499323
 21
149.9953641173337928
 31
0.0
  0
LINE
  5
113F3
  8
0
 10
3563.3757675501487938
 20
149.7985137236339028
 30
0.0
 11
3563.3527786476488473
 21
149.738016140133908
 31
0.0
  0
LINE
  5
113F4
  8
0
 10
3563.3527786476488473
 20
149.738016140133908
 30
0.0
 11
3563.1984950353498789
 21
149.738016140133908
 31
0.0
  0
LINE
  5
113F5
  8
0
 10
3563.1984950353498789
 20
149.738016140133908
 30
0.0
 11
3563.1755061328499323
 21
149.7985137236339028
 31
0.0
  0
LINE
  5
113F6
  8
0
 10
3563.3757675501487938
 20
149.6016633299338991
 30
0.0
 11
3563.3527786476488473
 21
149.5411657464337907
 31
0.0
  0
LINE
  5
113F7
  8
0
 10
3563.3527786476488473
 20
149.5411657464337907
 30
0.0
 11
3563.1984950353498789
 21
149.5411657464337907
 31
0.0
  0
LINE
  5
113F8
  8
0
 10
3563.1984950353498789
 20
149.5411657464337907
 30
0.0
 11
3563.1755061328499323
 21
149.6016633299338991
 31
0.0
  0
LINE
  5
113F9
  8
0
 10
3563.3757675501487938
 20
149.4048129362338102
 30
0.0
 11
3563.3527786476488473
 21
149.344315352733787
 31
0.0
  0
LINE
  5
113FA
  8
0
 10
3563.3527786476488473
 20
149.344315352733787
 30
0.0
 11
3563.1984950353498789
 21
149.344315352733787
 31
0.0
  0
LINE
  5
113FB
  8
0
 10
3563.1984950353498789
 20
149.344315352733787
 30
0.0
 11
3563.1755061328499323
 21
149.4048129362338102
 31
0.0
  0
LINE
  5
113FC
  8
0
 10
3563.3757675501487938
 20
149.2079625425338065
 30
0.0
 11
3563.3527786476488473
 21
149.147464959033897
 31
0.0
  0
LINE
  5
113FD
  8
0
 10
3563.3527786476488473
 20
149.147464959033897
 30
0.0
 11
3563.1984950353498789
 21
149.147464959033897
 31
0.0
  0
LINE
  5
113FE
  8
0
 10
3563.1984950353498789
 20
149.147464959033897
 30
0.0
 11
3563.1755061328499323
 21
149.2079625425338065
 31
0.0
  0
LINE
  5
113FF
  8
0
 10
3563.3757675501487938
 20
149.0111121488338028
 30
0.0
 11
3563.3527786476488473
 21
148.9506145653338081
 31
0.0
  0
LINE
  5
11400
  8
0
 10
3563.3527786476488473
 20
148.9506145653338081
 30
0.0
 11
3563.1984950353498789
 21
148.9506145653338081
 31
0.0
  0
LINE
  5
11401
  8
0
 10
3563.1984950353498789
 20
148.9506145653338081
 30
0.0
 11
3563.1755061328499323
 21
149.0111121488338028
 31
0.0
  0
LINE
  5
11402
  8
0
 10
3563.3757675501487938
 20
148.8142617551337992
 30
0.0
 11
3563.3527786476488473
 21
148.7537641716338044
 31
0.0
  0
LINE
  5
11403
  8
0
 10
3563.3527786476488473
 20
148.7537641716338044
 30
0.0
 11
3563.1984950353498789
 21
148.7537641716338044
 31
0.0
  0
LINE
  5
11404
  8
0
 10
3563.1984950353498789
 20
148.7537641716338044
 30
0.0
 11
3563.1755061328499323
 21
148.8142617551337992
 31
0.0
  0
LINE
  5
11405
  8
0
 10
3563.3757675501487938
 20
148.6174113614339092
 30
0.0
 11
3563.3527786476488473
 21
148.5569137779338007
 31
0.0
  0
LINE
  5
11406
  8
0
 10
3563.3527786476488473
 20
148.5569137779338007
 30
0.0
 11
3563.1984950353498789
 21
148.5569137779338007
 31
0.0
  0
LINE
  5
11407
  8
0
 10
3563.1984950353498789
 20
148.5569137779338007
 30
0.0
 11
3563.1755061328499323
 21
148.6174113614339092
 31
0.0
  0
LINE
  5
11408
  8
0
 10
3563.3757675501487938
 20
148.4205609677339055
 30
0.0
 11
3563.3527786476488473
 21
148.3600633842339107
 31
0.0
  0
LINE
  5
11409
  8
0
 10
3563.3527786476488473
 20
148.3600633842339107
 30
0.0
 11
3563.1984950353498789
 21
148.3600633842339107
 31
0.0
  0
LINE
  5
1140A
  8
0
 10
3563.1984950353498789
 20
148.3600633842339107
 30
0.0
 11
3563.1755061328499323
 21
148.4205609677339055
 31
0.0
  0
LINE
  5
1140B
  8
0
 10
3563.3757675501487938
 20
148.2237105740337881
 30
0.0
 11
3563.3527786476488473
 21
148.163212990533907
 31
0.0
  0
LINE
  5
1140C
  8
0
 10
3563.3527786476488473
 20
148.163212990533907
 30
0.0
 11
3563.1984950353498789
 21
148.163212990533907
 31
0.0
  0
LINE
  5
1140D
  8
0
 10
3563.1984950353498789
 20
148.163212990533907
 30
0.0
 11
3563.1755061328499323
 21
148.2237105740337881
 31
0.0
  0
LINE
  5
1140E
  8
0
 10
3563.3757675501487938
 20
148.0268601803338129
 30
0.0
 11
3563.3527786476488473
 21
147.9663625968337897
 31
0.0
  0
LINE
  5
1140F
  8
0
 10
3563.3527786476488473
 20
147.9663625968337897
 30
0.0
 11
3563.1984950353498789
 21
147.9663625968337897
 31
0.0
  0
LINE
  5
11410
  8
0
 10
3563.1984950353498789
 20
147.9663625968337897
 30
0.0
 11
3563.1755061328499323
 21
148.0268601803338129
 31
0.0
  0
LINE
  5
11411
  8
0
 10
3553.2491900602221904
 20
154.6607184481337924
 30
0.0
 11
3556.1326059555749453
 21
154.6607184481337924
 31
0.0
  0
ARC
  5
11412
  8
0
 10
3555.9136277473749033
 20
152.542783789374198
 30
0.0
 40
2.1292248999206
 50
62.8182163918548468
 51
84.097030183923124
  0
LINE
  5
11413
  8
0
 10
3556.8862898892998601
 20
154.4368606178339007
 30
0.0
 11
3556.8464226088231044
 21
151.4520570308339131
 31
0.0
  0
LINE
  5
11414
  8
0
 10
3558.9687032377928517
 20
152.7885008264665032
 30
0.0
 11
3559.0720880670000952
 21
154.7006984360338038
 31
0.0
  0
ARC
  5
11415
  8
0
 10
3559.3009767387138709
 20
154.6408940904898941
 30
0.0
 40
0.2365725761475927
 50
92.4302950766604567
 51
165.3570369777586109
  0
LINE
  5
11416
  8
0
 10
3557.3062084926000352
 20
152.4243097922339132
 30
0.0
 11
3557.1659411935997923
 21
154.6330669607339132
 31
0.0
  0
ARC
  5
11417
  8
0
 10
3556.9735112062649023
 20
154.5559782834639009
 30
0.0
 40
0.2072968021669894
 50
21.8313532351778612
 51
80.288934736306075
  0
ARC
  5
11418
  8
0
 10
3557.093660538650056
 20
155.260603033324287
 30
0.0
 40
0.5074982559366714
 50
249.5528534464590109
 51
260.3372799196666847
  0
ARC
  5
11419
  8
0
 10
3556.3841483983987928
 20
153.295105015233986
 30
0.0
 40
1.5821770103998281
 50
70.3432008144919223
 51
89.6582507990392656
  0
ARC
  5
1141B
  8
0
 10
3559.9168294201990648
 20
151.2158365583337911
 30
0.0
 40
0.0393700787000189
 50
90.0
 51
179.9999999999787974
  0
LINE
  5
1141C
  8
0
 10
3559.8774593415000709
 20
151.2158365583339048
 30
0.0
 11
3559.8774593415000709
 21
151.1764664796338877
 31
0.0
  0
ARC
  5
1141D
  8
0
 10
3559.8380892626291825
 20
151.1764664798045033
 30
0.0
 40
0.0393700788706895
 50
270.0000001028915904
 51
359.9999997515971017
  0
LINE
  5
1141E
  8
0
 10
3559.857774302100097
 20
151.1370964008339115
 30
0.0
 11
3559.857774302100097
 21
151.1293292927711889
 31
0.0
  0
ARC
  5
1141F
  8
0
 10
3559.8460650839251684
 20
151.1293653164028115
 30
0.0
 40
0.0117092735879119
 50
320.851454511085592
 51
359.8237290046430985
  0
ARC
  5
11420
  8
0
 10
3559.6788909335127755
 20
151.265459415890092
 30
0.0
 40
0.227275505825544
 50
292.9219721418754148
 51
320.851454511100826
  0
ARC
  5
11421
  8
0
 10
3559.7628529740950398
 20
151.0669058808333034
 30
0.0
 40
0.0116992303636617
 50
258.6324636953215759
 51
292.9219721418759832
  0
ARC
  5
11422
  8
0
 10
3559.6834875620202183
 20
151.2716778619684135
 30
0.0
 40
0.2295618399710006
 50
277.5785337198108778
 51
289.6139342910815913
  0
ARC
  5
11423
  8
0
 10
3559.7130918713078245
 20
151.0568959074576867
 30
0.0
 40
0.0127923020009826
 50
184.6587754981889873
 51
273.0087909319897221
  0
ARC
  5
11424
  8
0
 10
3567.1068852076000439
 20
151.2158365583337911
 30
0.0
 40
0.0393700787000189
 50
90.0
 51
179.9999999999787974
  0
LINE
  5
11425
  8
0
 10
3567.0675151289001406
 20
151.2158365583339048
 30
0.0
 11
3567.0675151289001406
 21
151.1764664796338877
 31
0.0
  0
ARC
  5
11426
  8
0
 10
3567.0281450500287974
 20
151.1764664798045033
 30
0.0
 40
0.0393700788706895
 50
270.0000001028915904
 51
359.9999997515971017
  0
LINE
  5
11427
  8
0
 10
3566.6934993808999934
 20
151.1370964008339115
 30
0.0
 11
3567.0478300894988024
 21
151.1370964008339115
 31
0.0
  0
LINE
  5
11428
  8
0
 10
3567.0478300894988024
 20
151.1370964008339115
 30
0.0
 11
3567.0478300894988024
 21
151.1293292927711889
 31
0.0
  0
ARC
  5
11429
  8
0
 10
3567.0361208713247834
 20
151.1293653164028115
 30
0.0
 40
0.0117092735879119
 50
320.851454511085592
 51
359.8237290046430985
  0
ARC
  5
1142A
  8
0
 10
3566.8689467209142094
 20
151.265459415890092
 30
0.0
 40
0.227275505825544
 50
292.9219721418754148
 51
320.851454511100826
  0
ARC
  5
1142B
  8
0
 10
3566.9529087614942
 20
151.0669058808333034
 30
0.0
 40
0.0116992303636617
 50
258.6324636953215759
 51
292.9219721418759832
  0
ARC
  5
1142C
  8
0
 10
3566.8735433494189238
 20
151.2716778619684135
 30
0.0
 40
0.2295618399710006
 50
277.5785337198108778
 51
289.6139342910815913
  0
ARC
  5
1142D
  8
0
 10
3566.9031476587069847
 20
151.0568959074576867
 30
0.0
 40
0.0127923020009826
 50
184.6587754981889873
 51
273.0087909319897221
  0
LINE
  5
1142E
  8
0
 10
3566.8509318490000624
 20
151.0558568987339072
 30
0.0
 11
3566.8903976214000977
 21
151.0558568987339072
 31
0.0
  0
ARC
  5
1142F
  8
0
 10
3566.6344442627992066
 20
151.2158365583337911
 30
0.0
 40
0.0393700787000189
 50
0.0000000000211698
 51
90.0
  0
LINE
  5
11430
  8
0
 10
3566.6738143415000195
 20
151.2158365583339048
 30
0.0
 11
3566.6738143415000195
 21
151.1764664796338877
 31
0.0
  0
ARC
  5
11431
  8
0
 10
3566.7131844203699984
 20
151.1764664798045033
 30
0.0
 40
0.0393700788706895
 50
180.0000002484011929
 51
269.9999998971084096
  0
LINE
  5
11432
  8
0
 10
3566.6934993808999934
 20
151.1370964008339115
 30
0.0
 11
3566.6934993808999934
 21
151.1293292927711889
 31
0.0
  0
ARC
  5
11433
  8
0
 10
3566.7052085990740125
 20
151.1293653164028115
 30
0.0
 40
0.0117092735879119
 50
180.1762709953551962
 51
219.148545488914408
  0
ARC
  5
11434
  8
0
 10
3566.8723827494859506
 20
151.265459415890092
 30
0.0
 40
0.227275505825544
 50
219.1485454888992024
 51
247.0780278581246137
  0
ARC
  5
11435
  8
0
 10
3566.7884207089050506
 20
151.0669058808333034
 30
0.0
 40
0.0116992303636617
 50
247.0780278581239031
 51
281.3675363046784241
  0
ARC
  5
11436
  8
0
 10
3566.8677861209798721
 20
151.2716778619684135
 30
0.0
 40
0.2295618399710006
 50
250.3860657089184087
 51
262.4214662801891222
  0
ARC
  5
11437
  8
0
 10
3566.8381818116918112
 20
151.0568959074576867
 30
0.0
 40
0.0127923020009826
 50
266.9912090680102779
 51
355.3412245018109274
  0
LINE
  5
11438
  8
0
 10
3573.3839045579989033
 20
151.3969389205338132
 30
0.0
 11
3573.3839045579989033
 21
154.8300097867339105
 31
0.0
  0
LINE
  5
11439
  8
0
 10
3571.8091014083997834
 20
151.3024507315338951
 30
0.0
 11
3571.8091014083997834
 21
151.3496948260338115
 31
0.0
  0
LINE
  5
1143A
  8
0
 10
3571.7380274806000671
 20
151.3024507315338951
 30
0.0
 11
3567.402921498095111
 21
151.3024507315338951
 31
0.0
  0
LINE
  5
1143B
  8
0
 10
3571.8091014083997834
 20
151.3024507315338951
 30
0.0
 11
3573.2894163690998539
 21
151.3024507315338951
 31
0.0
  0
ARC
  5
1143C
  8
0
 10
3573.2894163690998539
 20
151.3969389205338132
 30
0.0
 40
0.0944881890000034
 50
270.0
 51
0.0
  0
LINE
  5
1143D
  8
0
 10
3573.3044994719430179
 20
151.4520570308339131
 30
0.0
 11
3553.2146132194998245
 21
151.4520570308339131
 31
0.0
  0
LINE
  5
1143E
  8
0
 10
3571.7380274806000671
 20
151.3496948260338115
 30
0.0
 11
3567.409495109198815
 21
151.3496948260338115
 31
0.0
  0
LINE
  5
1143F
  8
0
 10
3573.3366604634998112
 20
151.3969389205338132
 30
0.0
 11
3573.3366604634998112
 21
154.8300128606288126
 31
0.0
  0
LINE
  5
11440
  8
0
 10
3571.8091014083997834
 20
151.3496948260338115
 30
0.0
 11
3573.2894163690998539
 21
151.3496948260338115
 31
0.0
  0
ARC
  5
11441
  8
0
 10
3573.2864652298549117
 20
151.3998900596724866
 30
0.0
 40
0.0502819122834167
 50
273.3647298545390072
 51
356.6352702667211929
  0
ARC
  5
11442
  8
0
 10
3571.7380274806000671
 20
151.4914271095337881
 30
0.0
 40
0.1417322834999339
 50
270.0
 51
307.3017902922023836
  0
ARC
  5
11443
  8
0
 10
3571.8779990462608112
 20
151.3077000753677908
 30
0.0
 40
0.089238845166015
 50
90.0000000321780647
 51
127.3017902922022984
  0
LINE
  5
11444
  8
0
 10
3571.8779990462107889
 20
151.3969389205338132
 30
0.0
 11
3573.3366604634998112
 21
151.3969389213530121
 31
0.0
  0
ARC
  5
11445
  8
0
 10
3571.7380274806000671
 20
151.4441830150339001
 30
0.0
 40
0.1417322834999979
 50
270.0000000036998244
 51
300.0970403153461916
  0
ARC
  5
11446
  8
0
 10
3579.1871173515819464
 20
153.4419425157074954
 30
0.0
 40
6.2100593685375518
 50
197.3952530362851121
 51
198.6888940614728938
  0
ARC
  5
11447
  8
0
 10
3573.8581219556122051
 20
151.7724214428669995
 30
0.0
 40
0.6256621277486235
 50
176.7482850237572904
 51
197.3952530362851121
  0
ARC
  5
11448
  8
0
 10
3616.4372852296260135
 20
152.1959904705080078
 30
0.0
 40
43.2055610039624369
 50
176.4420354107915898
 51
180.5146474934909122
  0
LINE
  5
11449
  8
0
 10
3571.9429596761001449
 20
151.3024507315338951
 30
0.0
 11
3571.9429596761001449
 21
151.2926082119338957
 31
0.0
  0
ARC
  5
1144A
  8
0
 10
3571.9724872352571765
 20
151.2926082119338957
 30
0.0
 40
0.0295275591578523
 50
180.0000000000032117
 51
270.0035865546283276
  0
LINE
  5
1144B
  8
0
 10
3571.9724890836000668
 20
151.2630806528339065
 30
0.0
 11
3572.2756368409059178
 21
151.2630996290307905
 31
0.0
  0
ARC
  5
1144C
  8
0
 10
3572.2756349924470669
 20
151.2926290444736992
 30
0.0
 40
0.0295294155007983
 50
270.0035865546283276
 51
359.9595787220653733
  0
LINE
  5
1144D
  8
0
 10
3572.305164400600006
 20
151.2926082119338957
 30
0.0
 11
3572.3051713443428525
 21
151.3024507290845122
 31
0.0
  0
LINE
  5
1144E
  8
0
 10
3572.0295738494000943
 20
151.3969389206189931
 30
0.0
 11
3572.0295738494000943
 21
151.4520570308339131
 31
0.0
  0
LINE
  5
1144F
  8
0
 10
3572.2185502273000566
 20
151.3969389205338132
 30
0.0
 11
3572.2185502273000566
 21
151.4520570308339131
 31
0.0
  0
LINE
  5
11450
  8
0
 10
3571.7402037706001465
 20
151.349711535414599
 30
0.0
 11
3571.7402037706001465
 21
151.4205609678338078
 31
0.0
  0
LINE
  5
11451
  8
0
 10
3571.7402037706001465
 20
151.4205609678338078
 30
0.0
 11
3572.0295738494000943
 21
151.4205609678338078
 31
0.0
  0
LINE
  5
11452
  8
0
 10
3572.2185502273000566
 20
151.4205609678338931
 30
0.0
 11
3572.8169754241998817
 21
151.4205609678338931
 31
0.0
  0
LINE
  5
11453
  8
0
 10
3573.0059518020998439
 20
151.4205609678338931
 30
0.0
 11
3573.3366604634998112
 21
151.4205609678338931
 31
0.0
  0
LINE
  5
11454
  8
0
 10
3572.7303612508999322
 20
151.3024507315338951
 30
0.0
 11
3572.7303612508999322
 21
151.2926082119338957
 31
0.0
  0
ARC
  5
11455
  8
0
 10
3572.7598888100578733
 20
151.2926082119338957
 30
0.0
 40
0.0295275591578523
 50
180.0000000000032117
 51
270.0035865546283276
  0
LINE
  5
11456
  8
0
 10
3572.7598906583989447
 20
151.2630806528339065
 30
0.0
 11
3573.0630384157061599
 21
151.2630996290307905
 31
0.0
  0
ARC
  5
11457
  8
0
 10
3573.0630365672482185
 20
151.2926290444736992
 30
0.0
 40
0.0295294155007983
 50
270.0035865546283276
 51
359.9595787220653733
  0
LINE
  5
11458
  8
0
 10
3573.0925659753988839
 20
151.2926082119338957
 30
0.0
 11
3573.0925729191430946
 21
151.3024507290845122
 31
0.0
  0
LINE
  5
11459
  8
0
 10
3572.8169754241998817
 20
151.3969389206189931
 30
0.0
 11
3572.8169754241998817
 21
151.4520570308339131
 31
0.0
  0
LINE
  5
1145A
  8
0
 10
3573.0059518020998439
 20
151.3969389205338132
 30
0.0
 11
3573.0059518020998439
 21
151.4520570308339131
 31
0.0
  0
ARC
  5
1145B
  8
0
 10
3571.1433518638168607
 20
151.6667284793404917
 30
0.0
 40
2.1717833259578172
 50
354.3272952216266276
 51
359.3649718596158209
  0
ARC
  5
1145C
  8
0
 10
3570.9586740272397947
 20
152.0364280127211885
 30
0.0
 40
0.6022155247800612
 50
283.9827516308573081
 51
359.2095838051312739
  0
LINE
  5
1145D
  8
0
 10
3568.2900681943988275
 20
151.4520570308339131
 30
0.0
 11
3568.2900681924570563
 21
151.4133410259377968
 31
0.0
  0
ARC
  5
1145E
  8
0
 10
3568.250702926323811
 20
151.4133410279137024
 30
0.0
 40
0.039365266132128
 50
269.9923347679144854
 51
359.999997124078277
  0
LINE
  5
1145F
  8
0
 10
3568.2506976598988331
 20
151.3739757621339095
 30
0.0
 11
3567.409495109198815
 21
151.3740883011876974
 31
0.0
  0
LINE
  5
11460
  8
0
 10
3571.738032805030798
 20
154.9244979756338978
 30
0.0
 11
3566.1741028842711785
 21
154.9244979756338978
 31
0.0
  0
LINE
  5
11461
  8
0
 10
3565.8889818223287875
 20
154.9244979756338978
 30
0.0
 11
3564.7961501283712096
 21
154.9244979756338978
 31
0.0
  0
LINE
  5
11462
  8
0
 10
3564.5110290664288186
 20
154.9244979756338978
 30
0.0
 11
3562.040244616570817
 21
154.9244979756338978
 31
0.0
  0
LINE
  5
11463
  8
0
 10
3571.8091014083997834
 20
154.9244979756338978
 30
0.0
 11
3573.2894207163622013
 21
154.9244979756338978
 31
0.0
  0
LINE
  5
11464
  8
0
 10
3571.8091014083997834
 20
154.9244979756338978
 30
0.0
 11
3571.8091014083997834
 21
154.8772538811338109
 31
0.0
  0
ARC
  5
11465
  8
0
 10
3571.7380274805991576
 20
154.7827656922337098
 30
0.0
 40
0.1417322835001566
 50
59.9029596846804324
 51
89.9978475795505517
  0
ARC
  5
11466
  8
0
 10
3573.2894163691707945
 20
154.8300097869044976
 30
0.0
 40
0.0944881888292884
 50
359.9999998964863153
 51
89.9973639486188688
  0
ARC
  5
11467
  8
0
 10
3573.2894163690998539
 20
154.8300097867339105
 30
0.0
 40
0.0472440944999538
 50
0.0037278988401104
 51
57.2057331608762709
  0
LINE
  5
11468
  8
0
 10
3571.9429596761001449
 20
154.924512242297908
 30
0.0
 11
3571.9429596761001449
 21
154.9343547618979073
 31
0.0
  0
ARC
  5
11469
  8
0
 10
3571.9724872352571765
 20
154.9343547618979073
 30
0.0
 40
0.0295275591578523
 50
89.9964134453717435
 51
179.9999999999967031
  0
LINE
  5
1146A
  8
0
 10
3571.9724890836000668
 20
154.9638823209978966
 30
0.0
 11
3572.2756368409059178
 21
154.9638633448010125
 31
0.0
  0
ARC
  5
1146B
  8
0
 10
3572.2756349924470669
 20
154.9343339293579902
 30
0.0
 40
0.0295294155007983
 50
0.0404212779346206
 51
89.9964134453717435
  0
LINE
  5
1146C
  8
0
 10
3572.305164400600006
 20
154.9343547618979073
 30
0.0
 11
3572.3051713443428525
 21
154.9245122447472056
 31
0.0
  0
LINE
  5
1146D
  8
0
 10
3572.5827253040001779
 20
154.924512242297908
 30
0.0
 11
3572.5827253040001779
 21
154.9343547618979073
 31
0.0
  0
ARC
  5
1146E
  8
0
 10
3572.6122528631572095
 20
154.9343547618979073
 30
0.0
 40
0.0295275591578523
 50
89.9964134453717435
 51
179.9999999999967031
  0
LINE
  5
1146F
  8
0
 10
3572.6122547115000998
 20
154.9638823209978966
 30
0.0
 11
3573.0637771386141139
 21
154.9638540569638963
 31
0.0
  0
ARC
  5
11470
  8
0
 10
3572.9154006203480094
 20
154.9343339293579902
 30
0.0
 40
0.0295294155008016
 50
0.0404212779606757
 51
89.9964134453717435
  0
LINE
  5
11471
  8
0
 10
3572.944930028500039
 20
154.9343547618979073
 30
0.0
 11
3572.9449369722428855
 21
154.9245122447472056
 31
0.0
  0
ARC
  5
11472
  8
0
 10
3573.0630365672482185
 20
154.9343339293579902
 30
0.0
 40
0.029529415500798
 50
0.0404212779329922
 51
88.5629223536116541
  0
LINE
  5
11473
  8
0
 10
3573.0925659753988839
 20
154.9343547618979073
 30
0.0
 11
3573.0925729191430946
 21
154.9245122447472056
 31
0.0
  0
ARC
  5
11474
  8
0
 10
3569.5388494993349013
 20
151.6512401042014062
 30
0.0
 40
1.643165312680138
 50
167.3988964530011003
 51
184.203509722825288
  0
LINE
  5
11475
  8
0
 10
3567.9001043193247824
 20
151.5307972555582978
 30
0.0
 11
3567.2441572919988175
 21
151.5307924420339134
 31
0.0
  0
ARC
  5
11476
  8
0
 10
3567.3150961355531763
 20
152.1742888830777929
 30
0.0
 40
0.6473915110980226
 50
251.1966036555872961
 51
263.7079245671885133
  0
ARC
  5
11477
  8
0
 10
3566.4297094482321882
 20
150.7250094475483877
 30
0.0
 40
1.075907997257568
 50
51.0255246628700974
 51
81.2666761663940065
  0
LINE
  5
11478
  8
0
 10
3566.2087077075998423
 20
154.8772538811338109
 30
0.0
 11
3566.2087077075998423
 21
154.8850209891965051
 31
0.0
  0
ARC
  5
11479
  8
0
 10
3566.1969984894249137
 20
154.8849849655649109
 30
0.0
 40
0.0117092735879119
 50
0.1762709953552059
 51
39.1485454889143867
  0
ARC
  5
1147A
  8
0
 10
3566.029824339013885
 20
154.7488908660776019
 30
0.0
 40
0.227275505825544
 50
39.1485454888992379
 51
67.0780278581245994
  0
ARC
  5
1147B
  8
0
 10
3566.1137863795938756
 20
154.9474444011343905
 30
0.0
 40
0.0116992303636617
 50
67.0780278581239742
 51
101.3675363046783957
  0
ARC
  5
1147C
  8
0
 10
3566.0344209675199636
 20
154.7426724199993089
 30
0.0
 40
0.2295618399710006
 50
70.3860657089183803
 51
82.4214662801891365
  0
ARC
  5
1147D
  8
0
 10
3566.0640252768080245
 20
154.9574543745100073
 30
0.0
 40
0.0127923020009826
 50
86.9912090680103347
 51
175.341224501810899
  0
LINE
  5
1147E
  8
0
 10
3566.0118094670988285
 20
154.9584933832339004
 30
0.0
 11
3566.0512752394988638
 21
154.9584933832339004
 31
0.0
  0
LINE
  5
1147F
  8
0
 10
3565.8543769989992143
 20
154.8772538811338109
 30
0.0
 11
3565.8543769989992143
 21
154.8850209891965051
 31
0.0
  0
ARC
  5
11480
  8
0
 10
3565.8660862171741428
 20
154.8849849655649109
 30
0.0
 40
0.0117092735879119
 50
140.851454511085592
 51
179.8237290046448038
  0
ARC
  5
11481
  8
0
 10
3566.033260367586081
 20
154.7488908660776019
 30
0.0
 40
0.227275505825544
 50
112.9219721418754006
 51
140.8514545111007124
  0
ARC
  5
11482
  8
0
 10
3565.9492983270051809
 20
154.9474444011343905
 30
0.0
 40
0.0116992303636617
 50
78.6324636953215617
 51
112.9219721418759974
  0
ARC
  5
11483
  8
0
 10
3566.0286637390800024
 20
154.7426724199993089
 30
0.0
 40
0.2295618399710006
 50
97.5785337198109062
 51
109.6139342910816055
  0
ARC
  5
11484
  8
0
 10
3565.9990594297919415
 20
154.9574543745100073
 30
0.0
 40
0.0127923020009826
 50
4.6587754981890761
 51
93.0087909319896653
  0
LINE
  5
11485
  8
0
 10
3564.8307549516989639
 20
154.8772538811338109
 30
0.0
 11
3564.8307549516989639
 21
154.8850209891965051
 31
0.0
  0
ARC
  5
11486
  8
0
 10
3564.8190457335249448
 20
154.8849849655649109
 30
0.0
 40
0.0117092735879119
 50
0.1762709953552059
 51
39.1485454889143867
  0
ARC
  5
11487
  8
0
 10
3564.6518715831139161
 20
154.7488908660776019
 30
0.0
 40
0.227275505825544
 50
39.1485454888992379
 51
67.0780278581245994
  0
ARC
  5
11488
  8
0
 10
3564.7358336236939067
 20
154.9474444011343905
 30
0.0
 40
0.0116992303636617
 50
67.0780278581239742
 51
101.3675363046783957
  0
ARC
  5
11489
  8
0
 10
3564.6564682116199947
 20
154.7426724199993089
 30
0.0
 40
0.2295618399710006
 50
70.3860657089183803
 51
82.4214662801891365
  0
ARC
  5
1148A
  8
0
 10
3564.6860725209071461
 20
154.9574543745100073
 30
0.0
 40
0.0127923020009826
 50
86.9912090680103347
 51
175.341224501810899
  0
LINE
  5
1148B
  8
0
 10
3564.6338567112002238
 20
154.9584933832339004
 30
0.0
 11
3564.6733224835988949
 21
154.9584933832339004
 31
0.0
  0
LINE
  5
1148C
  8
0
 10
3564.4764242431001549
 20
154.8772538811338109
 30
0.0
 11
3564.4764242431001549
 21
154.8850209891965051
 31
0.0
  0
ARC
  5
1148D
  8
0
 10
3564.4881334612741739
 20
154.8849849655649109
 30
0.0
 40
0.0117092735879119
 50
140.851454511085592
 51
179.8237290046448038
  0
ARC
  5
1148E
  8
0
 10
3564.6553076116861121
 20
154.7488908660776019
 30
0.0
 40
0.227275505825544
 50
112.9219721418754006
 51
140.8514545111007124
  0
ARC
  5
1148F
  8
0
 10
3564.571345571105212
 20
154.9474444011343905
 30
0.0
 40
0.0116992303636617
 50
78.6324636953215617
 51
112.9219721418759974
  0
ARC
  5
11490
  8
0
 10
3564.6507109831800335
 20
154.7426724199993089
 30
0.0
 40
0.2295618399710006
 50
97.5785337198109062
 51
109.6139342910816055
  0
ARC
  5
11491
  8
0
 10
3564.6211066738919726
 20
154.9574543745100073
 30
0.0
 40
0.0127923020009826
 50
4.6587754981890761
 51
93.0087909319896653
  0
LINE
  5
11492
  8
0
 10
3565.049333522399138
 20
155.3552079814386957
 30
0.0
 11
3565.049333522399138
 21
154.9244979756338978
 31
0.0
  0
LINE
  5
11493
  8
0
 10
3568.0886289674999716
 20
151.3024507315338951
 30
0.0
 11
3568.0886289674999716
 21
151.2433956134337905
 31
0.0
  0
LINE
  5
11494
  8
0
 10
3568.0886289674999716
 20
151.2433956134337905
 30
0.0
 11
3567.5177628257988545
 21
151.2433956134337905
 31
0.0
  0
LINE
  5
11495
  8
0
 10
3567.5177628257988545
 20
151.2433956134337905
 30
0.0
 11
3567.5177628257988545
 21
151.3024507315338951
 31
0.0
  0
LINE
  5
11496
  8
0
 10
3553.1673691249989133
 20
151.3969389205338132
 30
0.0
 11
3553.1673691249989133
 21
154.8300097867339105
 31
0.0
  0
LINE
  5
11497
  8
0
 10
3554.7421722745989427
 20
151.3024507315338951
 30
0.0
 11
3554.7421722745989427
 21
151.3496948260338115
 31
0.0
  0
LINE
  5
11498
  8
0
 10
3554.8132462024000233
 20
151.3024507315338951
 30
0.0
 11
3559.1483521849040699
 21
151.3024507315338951
 31
0.0
  0
LINE
  5
11499
  8
0
 10
3554.7421722745989427
 20
151.3024507315338951
 30
0.0
 11
3553.2618573138997817
 21
151.3024507315338951
 31
0.0
  0
ARC
  5
1149A
  8
0
 10
3553.2618573138997817
 20
151.3969389205338132
 30
0.0
 40
0.0944881890000034
 50
180.0
 51
270.0
  0
LINE
  5
1149B
  8
0
 10
3554.8132462024000233
 20
151.3496948260338115
 30
0.0
 11
3559.1417785737990016
 21
151.3496948260338115
 31
0.0
  0
LINE
  5
1149C
  8
0
 10
3553.2146132194998245
 20
151.3969389205338132
 30
0.0
 11
3553.2146132194998245
 21
154.8300128606288126
 31
0.0
  0
LINE
  5
1149D
  8
0
 10
3554.7421722745989427
 20
151.3496948260338115
 30
0.0
 11
3553.2618573138997817
 21
151.3496948260338115
 31
0.0
  0
ARC
  5
1149E
  8
0
 10
3553.2648084531451786
 20
151.3998900596724866
 30
0.0
 40
0.0502819122834167
 50
183.3647297332786934
 51
266.6352701454608791
  0
ARC
  5
1149F
  8
0
 10
3554.8132462024000233
 20
151.4914271095337881
 30
0.0
 40
0.1417322834999339
 50
232.698209707797588
 51
270.0
  0
ARC
  5
114A0
  8
0
 10
3554.6732746367370055
 20
151.3077000753677908
 30
0.0
 40
0.089238845166015
 50
52.6982097077976377
 51
89.9999999678219496
  0
LINE
  5
114A1
  8
0
 10
3554.6732746367879372
 20
151.3969389205338132
 30
0.0
 11
3553.2146132194998245
 21
151.3969389213530121
 31
0.0
  0
ARC
  5
114A2
  8
0
 10
3554.8132462024000233
 20
151.4441830150339001
 30
0.0
 40
0.1417322834999979
 50
239.9029596846538084
 51
269.9999999963001756
  0
ARC
  5
114A3
  8
0
 10
3547.3641563314167797
 20
153.4419425157074954
 30
0.0
 40
6.2100593685375518
 50
341.311105938527021
 51
342.6047469637148879
  0
ARC
  5
114A4
  8
0
 10
3552.6931517273878853
 20
151.7724214428669995
 30
0.0
 40
0.6256621277486235
 50
342.6047469637148879
 51
3.2517149762426438
  0
LINE
  5
114A5
  8
0
 10
3554.6083140068999455
 20
151.3024507315338951
 30
0.0
 11
3554.6083140068999455
 21
151.2926082119338957
 31
0.0
  0
ARC
  5
114A6
  8
0
 10
3554.5787864477420044
 20
151.2926082119338957
 30
0.0
 40
0.0295275591578523
 50
269.9964134453716724
 51
359.9999999999968168
  0
LINE
  5
114A7
  8
0
 10
3554.5787845994000236
 20
151.2630806528339065
 30
0.0
 11
3554.2756368420928084
 21
151.2630996290307905
 31
0.0
  0
ARC
  5
114A8
  8
0
 10
3554.275638690552114
 20
151.2926290444736992
 30
0.0
 40
0.0295294155007983
 50
180.0404212779330066
 51
269.9964134453716724
  0
LINE
  5
114A9
  8
0
 10
3554.2461092824000843
 20
151.2926082119338957
 30
0.0
 11
3554.2461023386558736
 21
151.3024507290845122
 31
0.0
  0
LINE
  5
114AA
  8
0
 10
3554.5216998335999961
 20
151.3969389206189931
 30
0.0
 11
3554.5216998335999961
 21
151.4520570308339131
 31
0.0
  0
LINE
  5
114AB
  8
0
 10
3554.3327234557000338
 20
151.3969389205338132
 30
0.0
 11
3554.3327234557000338
 21
151.4520570308339131
 31
0.0
  0
LINE
  5
114AC
  8
0
 10
3554.8110699123999439
 20
151.349711535414599
 30
0.0
 11
3554.8110699123999439
 21
151.4205609678338078
 31
0.0
  0
LINE
  5
114AD
  8
0
 10
3554.8110699123999439
 20
151.4205609678338078
 30
0.0
 11
3554.5216998335999961
 21
151.4205609678338078
 31
0.0
  0
LINE
  5
114AE
  8
0
 10
3554.3327234557000338
 20
151.4205609678338931
 30
0.0
 11
3553.7342982587988445
 21
151.4205609678338931
 31
0.0
  0
LINE
  5
114AF
  8
0
 10
3553.5453218808997917
 20
151.4205609678338931
 30
0.0
 11
3553.2146132194998245
 21
151.4205609678338931
 31
0.0
  0
LINE
  5
114B0
  8
0
 10
3553.8209124321001582
 20
151.3024507315338951
 30
0.0
 11
3553.8209124321001582
 21
151.2926082119338957
 31
0.0
  0
ARC
  5
114B1
  8
0
 10
3553.791384872942217
 20
151.2926082119338957
 30
0.0
 40
0.0295275591578523
 50
269.9964134453716724
 51
359.9999999999968168
  0
LINE
  5
114B2
  8
0
 10
3553.791383024598872
 20
151.2630806528339065
 30
0.0
 11
3553.4882352672939305
 21
151.2630996290307905
 31
0.0
  0
ARC
  5
114B3
  8
0
 10
3553.4882371157527814
 20
151.2926290444736992
 30
0.0
 40
0.0295294155007983
 50
180.0404212779330066
 51
269.9964134453716724
  0
LINE
  5
114B4
  8
0
 10
3553.4587077075998423
 20
151.2926082119338957
 30
0.0
 11
3553.4587007638569958
 21
151.3024507290845122
 31
0.0
  0
LINE
  5
114B5
  8
0
 10
3553.7342982587988445
 20
151.3969389206189931
 30
0.0
 11
3553.7342982587988445
 21
151.4520570308339131
 31
0.0
  0
LINE
  5
114B6
  8
0
 10
3553.5453218808997917
 20
151.3969389205338132
 30
0.0
 11
3553.5453218808997917
 21
151.4520570308339131
 31
0.0
  0
LINE
  5
114B7
  8
0
 10
3558.2612054885989892
 20
151.4520570308339131
 30
0.0
 11
3558.2612054905430341
 21
151.4133410259377968
 31
0.0
  0
ARC
  5
114B8
  8
0
 10
3558.3005707566749152
 20
151.4133410279137024
 30
0.0
 40
0.039365266132128
 50
180.0000028759216093
 51
270.0076652320855146
  0
LINE
  5
114B9
  8
0
 10
3558.3005760230998931
 20
151.3739757621339095
 30
0.0
 11
3559.1417785737990016
 21
151.3740883011876974
 31
0.0
  0
LINE
  5
114BA
  8
0
 10
3554.8132408779679281
 20
154.9244979756338978
 30
0.0
 11
3560.3771707987280024
 21
154.9244979756338978
 31
0.0
  0
LINE
  5
114BB
  8
0
 10
3560.6622918606708481
 20
154.9244979756338978
 30
0.0
 11
3561.7551235546279713
 21
154.9244979756338978
 31
0.0
  0
LINE
  5
114BC
  8
0
 10
3554.7421722745989427
 20
154.9244979756338978
 30
0.0
 11
3554.7421722745989427
 21
154.8772538811338109
 31
0.0
  0
ARC
  5
114BD
  8
0
 10
3554.8132462024000233
 20
154.7827656922337098
 30
0.0
 40
0.1417322835001566
 50
90.0021524204494341
 51
120.0970403153195036
  0
ARC
  5
114BE
  8
0
 10
3553.2618573138288411
 20
154.8300097869044976
 30
0.0
 40
0.0944881888292884
 50
90.002636051381117
 51
180.0000001035135995
  0
LINE
  5
114BF
  8
0
 10
3554.6083140068999455
 20
154.924512242297908
 30
0.0
 11
3554.6083140068999455
 21
154.9343547618979073
 31
0.0
  0
ARC
  5
114C0
  8
0
 10
3554.5787864477420044
 20
154.9343547618979073
 30
0.0
 40
0.0295275591578523
 50
0.0000000000032569
 51
90.0035865546282565
  0
LINE
  5
114C1
  8
0
 10
3554.5787845994000236
 20
154.9638823209978966
 30
0.0
 11
3554.2756368420928084
 21
154.9638633448010125
 31
0.0
  0
ARC
  5
114C2
  8
0
 10
3554.275638690552114
 20
154.9343339293579902
 30
0.0
 40
0.0295294155007983
 50
90.0035865546282565
 51
179.9595787220669934
  0
LINE
  5
114C3
  8
0
 10
3554.2461092824000843
 20
154.9343547618979073
 30
0.0
 11
3554.2461023386558736
 21
154.9245122447472056
 31
0.0
  0
LINE
  5
114C4
  8
0
 10
3553.9685483789999125
 20
154.924512242297908
 30
0.0
 11
3553.9685483789999125
 21
154.9343547618979073
 31
0.0
  0
ARC
  5
114C5
  8
0
 10
3553.9390208198419714
 20
154.9343547618979073
 30
0.0
 40
0.0295275591578523
 50
0.0000000000032569
 51
90.0035865546282565
  0
LINE
  5
114C6
  8
0
 10
3553.9390189714999906
 20
154.9638823209978966
 30
0.0
 11
3553.4874965443868859
 21
154.9638540569638963
 31
0.0
  0
ARC
  5
114C7
  8
0
 10
3553.635873062652081
 20
154.9343339293579902
 30
0.0
 40
0.0295294155008016
 50
90.0035865546282565
 51
179.9595787220393106
  0
LINE
  5
114C8
  8
0
 10
3553.6063436545000513
 20
154.9343547618979073
 30
0.0
 11
3553.6063367107572049
 21
154.9245122447472056
 31
0.0
  0
ARC
  5
114C9
  8
0
 10
3553.4882371157527814
 20
154.9343339293579902
 30
0.0
 40
0.029529415500798
 50
91.4370776463883459
 51
179.9595787220669934
  0
LINE
  5
114CA
  8
0
 10
3553.4587077075998423
 20
154.9343547618979073
 30
0.0
 11
3553.4587007638569958
 21
154.9245122447472056
 31
0.0
  0
LINE
  5
114CB
  8
0
 10
3560.3425659753997934
 20
154.8772538811338109
 30
0.0
 11
3560.3425659753997934
 21
154.8850209891965051
 31
0.0
  0
ARC
  5
114CC
  8
0
 10
3560.3542751935738124
 20
154.8849849655649109
 30
0.0
 40
0.0117092735879119
 50
140.851454511085592
 51
179.8237290046448038
  0
ARC
  5
114CD
  8
0
 10
3560.5214493439862053
 20
154.7488908660776019
 30
0.0
 40
0.227275505825544
 50
112.9219721418754006
 51
140.8514545111007124
  0
ARC
  5
114CE
  8
0
 10
3560.4374873034048505
 20
154.9474444011343905
 30
0.0
 40
0.0116992303636617
 50
78.6324636953215617
 51
112.9219721418759974
  0
ARC
  5
114CF
  8
0
 10
3560.5168527154801268
 20
154.7426724199993089
 30
0.0
 40
0.2295618399710006
 50
97.5785337198109062
 51
109.6139342910816055
  0
ARC
  5
114D0
  8
0
 10
3560.4872484061920659
 20
154.9574543745100073
 30
0.0
 40
0.0127923020009826
 50
4.6587754981890761
 51
93.0087909319896653
  0
LINE
  5
114D1
  8
0
 10
3560.5394642158998977
 20
154.9584933832339004
 30
0.0
 11
3560.4999984434998623
 21
154.9584933832339004
 31
0.0
  0
LINE
  5
114D2
  8
0
 10
3560.6968966839999666
 20
154.8772538811338109
 30
0.0
 11
3560.6968966839999666
 21
154.8850209891965051
 31
0.0
  0
ARC
  5
114D3
  8
0
 10
3560.6851874658250381
 20
154.8849849655649109
 30
0.0
 40
0.0117092735879119
 50
0.1762709953552059
 51
39.1485454889143867
  0
ARC
  5
114D4
  8
0
 10
3560.5180133154140094
 20
154.7488908660776019
 30
0.0
 40
0.227275505825544
 50
39.1485454888992379
 51
67.0780278581245994
  0
ARC
  5
114D5
  8
0
 10
3560.601975355994
 20
154.9474444011343905
 30
0.0
 40
0.0116992303636617
 50
67.0780278581239742
 51
101.3675363046783957
  0
ARC
  5
114D6
  8
0
 10
3560.522609943920088
 20
154.7426724199993089
 30
0.0
 40
0.2295618399710006
 50
70.3860657089183803
 51
82.4214662801891365
  0
ARC
  5
114D7
  8
0
 10
3560.5522142532081489
 20
154.9574543745100073
 30
0.0
 40
0.0127923020009826
 50
86.9912090680103347
 51
175.341224501810899
  0
LINE
  5
114D8
  8
0
 10
3561.720518731300217
 20
154.8772538811338109
 30
0.0
 11
3561.720518731300217
 21
154.8850209891965051
 31
0.0
  0
ARC
  5
114D9
  8
0
 10
3561.7322279494737813
 20
154.8849849655649109
 30
0.0
 40
0.0117092735879119
 50
140.851454511085592
 51
179.8237290046448038
  0
ARC
  5
114DA
  8
0
 10
3561.8994020998861743
 20
154.7488908660776019
 30
0.0
 40
0.227275505825544
 50
112.9219721418754006
 51
140.8514545111007124
  0
ARC
  5
114DB
  8
0
 10
3561.8154400593048194
 20
154.9474444011343905
 30
0.0
 40
0.0116992303636617
 50
78.6324636953215617
 51
112.9219721418759974
  0
ARC
  5
114DC
  8
0
 10
3561.8948054713791862
 20
154.7426724199993089
 30
0.0
 40
0.2295618399710006
 50
97.5785337198109062
 51
109.6139342910816055
  0
ARC
  5
114DD
  8
0
 10
3561.8652011620920348
 20
154.9574543745100073
 30
0.0
 40
0.0127923020009826
 50
4.6587754981890761
 51
93.0087909319896653
  0
LINE
  5
114DE
  8
0
 10
3561.9174169717989571
 20
154.9584933832339004
 30
0.0
 11
3561.8779511993989217
 21
154.9584933832339004
 31
0.0
  0
LINE
  5
114DF
  8
0
 10
3562.0748494398999355
 20
154.8772538811338109
 30
0.0
 11
3562.0748494398999355
 21
154.8850209891965051
 31
0.0
  0
ARC
  5
114E0
  8
0
 10
3562.063140221725007
 20
154.8849849655649109
 30
0.0
 40
0.0117092735879119
 50
0.1762709953552059
 51
39.1485454889143867
  0
ARC
  5
114E1
  8
0
 10
3561.8959660713139783
 20
154.7488908660776019
 30
0.0
 40
0.227275505825544
 50
39.1485454888992379
 51
67.0780278581245994
  0
ARC
  5
114E2
  8
0
 10
3561.9799281118939689
 20
154.9474444011343905
 30
0.0
 40
0.0116992303636617
 50
67.0780278581239742
 51
101.3675363046783957
  0
ARC
  5
114E3
  8
0
 10
3561.9005626998200569
 20
154.7426724199993089
 30
0.0
 40
0.2295618399710006
 50
70.3860657089183803
 51
82.4214662801891365
  0
ARC
  5
114E4
  8
0
 10
3561.9301670091081178
 20
154.9574543745100073
 30
0.0
 40
0.0127923020009826
 50
86.9912090680103347
 51
175.341224501810899
  0
LINE
  5
114E5
  8
0
 10
3561.5019401606000429
 20
155.3552079814386957
 30
0.0
 11
3561.5019401606000429
 21
154.9244979756338978
 31
0.0
  0
LINE
  5
114E6
  8
0
 10
3558.4626447155001188
 20
151.3024507315338951
 30
0.0
 11
3558.4626447155001188
 21
151.2433956134337905
 31
0.0
  0
LINE
  5
114E7
  8
0
 10
3558.4626447155001188
 20
151.2433956134337905
 30
0.0
 11
3559.0335108571989622
 21
151.2433956134337905
 31
0.0
  0
LINE
  5
114E8
  8
0
 10
3559.0335108571989622
 20
151.2433956134337905
 30
0.0
 11
3559.0335108571989622
 21
151.3024507315338951
 31
0.0
  0
ARC
  5
114E9
  8
0
 10
3554.9743490712598941
 20
154.4253065642118941
 30
0.0
 40
0.2373655565860977
 50
1.203739630021919
 51
82.6438088161748254
  0
LINE
  5
114EA
  8
0
 10
3555.2116622447001646
 20
154.4302930625339059
 30
0.0
 11
3554.9904414345201076
 21
152.0281204932205128
 31
0.0
  0
ARC
  5
114EB
  8
0
 10
3555.592599655759841
 20
152.0364280127211885
 30
0.0
 40
0.6022155247800612
 50
180.7904161948669923
 51
256.0172483691426919
  0
ARC
  5
114EC
  8
0
 10
3557.0124241836638248
 20
151.6512401042014062
 30
0.0
 40
1.643165312680138
 50
355.796490277174712
 51
12.6011035469988695
  0
ARC
  5
114ED
  8
0
 10
3559.2361775474460046
 20
152.1742888830777929
 30
0.0
 40
0.6473915110980226
 50
276.2920754328114867
 51
288.8033963444128176
  0
ARC
  5
114EE
  8
0
 10
3560.1215642347679022
 20
150.7250094475483877
 30
0.0
 40
1.075907997257568
 50
98.7333238336060077
 51
128.9744753371298884
  0
LINE
  5
114EF
  8
0
 10
3558.6511693636739437
 20
151.5307972555582978
 30
0.0
 11
3559.3071296083999187
 21
151.5307971786338044
 31
0.0
  0
LINE
  5
114F0
  8
0
 10
3559.9582029766988853
 20
151.788443092833802
 30
0.0
 11
3566.5930707062998408
 21
151.788443092833802
 31
0.0
  0
LINE
  5
114F1
  8
0
 10
3567.9352638321988707
 20
152.0097163976338095
 30
0.0
 11
3558.6160098507998555
 21
152.0097163976338095
 31
0.0
  0
ARC
  5
114F2
  8
0
 10
3558.1181565264992059
 20
153.0859152984338891
 30
0.0
 40
0.5118110244642545
 50
277.441950835803425
 51
82.558049164196575
  0
ARC
  5
114F3
  8
0
 10
3558.1181565264992059
 20
153.0859152984338891
 30
0.0
 40
0.5118110244642545
 50
97.4419496971401173
 51
262.552491367949699
  0
LINE
  5
114F4
  8
0
 10
3558.0692989232770742
 20
152.5589037423017089
 30
0.0
 11
3558.0692989232770742
 21
152.4266819062484046
 31
0.0
  0
LINE
  5
114F5
  8
0
 10
3558.4966164470988588
 20
152.4107184481337924
 30
0.0
 11
3557.7396966060000523
 21
152.4107184481337924
 31
0.0
  0
LINE
  5
114F6
  8
0
 10
3557.7226488617998257
 20
153.7512696292338887
 30
0.0
 11
3557.3441889413002173
 21
153.0957578182338921
 31
0.0
  0
LINE
  5
114F7
  8
0
 10
3557.3441889413002173
 20
153.0760727788338045
 30
0.0
 11
3557.7226488617998257
 21
152.4205609678338931
 31
0.0
  0
ARC
  5
114F8
  8
0
 10
3557.3612366845109136
 20
153.0859152985339051
 30
0.0
 40
0.0196850385487062
 50
149.9999985694180964
 51
210.0000014305508103
  0
ARC
  5
114F9
  8
0
 10
3557.7394944306588513
 20
152.4300533095805861
 30
0.0
 40
0.0193359184429688
 50
209.4009074579807077
 51
270.5990925568913781
  0
ARC
  5
114FA
  8
0
 10
3558.0492420997029512
 20
152.5585274457249056
 30
0.0
 40
0.0200603532112857
 50
1.0748300427226949
 51
82.6261849641288251
  0
ARC
  5
114FB
  8
0
 10
3558.0893853676948311
 20
152.4297450852045017
 30
0.0
 40
0.0203186691165606
 50
188.6707908116268015
 51
249.4574054504057017
  0
LINE
  5
114FC
  8
0
 10
3558.0692989232770742
 20
153.6129268545660125
 30
0.0
 11
3558.0692989232770742
 21
153.7451486906192883
 31
0.0
  0
LINE
  5
114FD
  8
0
 10
3558.4966164470988588
 20
153.7611121487339005
 30
0.0
 11
3557.7396966060000523
 21
153.7611121487339005
 31
0.0
  0
LINE
  5
114FE
  8
0
 10
3557.3441889413002173
 20
153.0957578180338885
 30
0.0
 11
3557.7226488617998257
 21
153.7512696290339136
 31
0.0
  0
ARC
  5
114FF
  8
0
 10
3557.7394944306588513
 20
153.7417772872871069
 30
0.0
 40
0.0193359184429688
 50
89.4009074431085651
 51
150.5990925420192923
  0
ARC
  5
11500
  8
0
 10
3558.0492420997029512
 20
153.6133031511427873
 30
0.0
 40
0.0200603532112895
 50
277.5156432917073062
 51
358.9251699572773191
  0
ARC
  5
11501
  8
0
 10
3558.0893853676948311
 20
153.7420855116631913
 30
0.0
 40
0.0203186691165606
 50
110.5425945495941988
 51
171.3292091883714932
  0
LINE
  5
11502
  8
0
 10
3558.1670141298232011
 20
152.5589037423017089
 30
0.0
 11
3558.1670141298232011
 21
152.4266819062484046
 31
0.0
  0
LINE
  5
11503
  8
0
 10
3558.5136641912999949
 20
153.7512696292338887
 30
0.0
 11
3558.892124111800058
 21
153.0957578182338921
 31
0.0
  0
LINE
  5
11504
  8
0
 10
3558.892124111800058
 20
153.0760727788338045
 30
0.0
 11
3558.5136641912999949
 21
152.4205609678338931
 31
0.0
  0
ARC
  5
11505
  8
0
 10
3558.8750763685870879
 20
153.0859152985339051
 30
0.0
 40
0.0196850385487062
 50
329.9999985694478255
 51
30.000001430581861
  0
ARC
  5
11506
  8
0
 10
3558.4968186224400597
 20
152.4300533095805861
 30
0.0
 40
0.0193359184429688
 50
269.4009074431086219
 51
330.5990925420193207
  0
ARC
  5
11507
  8
0
 10
3558.1870709533959598
 20
152.5585274457249056
 30
0.0
 40
0.0200603532112857
 50
97.3738150358711891
 51
178.9251699572772907
  0
ARC
  5
11508
  8
0
 10
3558.1469276854049895
 20
152.4297450852045017
 30
0.0
 40
0.0203186691165606
 50
290.5425945495942983
 51
351.3292091883715784
  0
LINE
  5
11509
  8
0
 10
3558.1670141298232011
 20
153.6129268545660125
 30
0.0
 11
3558.1670141298232011
 21
153.7451486906192883
 31
0.0
  0
LINE
  5
1150A
  8
0
 10
3558.892124111800058
 20
153.0957578180338885
 30
0.0
 11
3558.5136641912999949
 21
153.7512696290339136
 31
0.0
  0
ARC
  5
1150B
  8
0
 10
3558.4968186224400597
 20
153.7417772872871069
 30
0.0
 40
0.0193359184429688
 50
29.4009074579806615
 51
90.5990925568914349
  0
ARC
  5
1150C
  8
0
 10
3558.1870709533959598
 20
153.6133031511427873
 30
0.0
 40
0.0200603532112871
 50
181.0748300427227093
 51
262.4843854766812115
  0
ARC
  5
1150D
  8
0
 10
3558.1469276854049895
 20
153.7420855116631913
 30
0.0
 40
0.0203186691165606
 50
8.6707908116284536
 51
69.4574054504057443
  0
ARC
  5
1150E
  8
0
 10
3557.4820827283010658
 20
152.4430635711325124
 30
0.0
 40
0.1768712837258584
 50
186.0865505152972901
 51
268.7385365856442832
  0
LINE
  5
1150F
  8
0
 10
3557.4781889226778731
 20
152.2662351534939091
 30
0.0
 11
3558.393951738600208
 21
152.2548268122338868
 31
0.0
  0
ARC
  5
11510
  8
0
 10
3558.3965525709049871
 20
152.4382878622166118
 30
0.0
 40
0.1834794843829812
 50
269.1878018099770884
 51
311.9961088719002191
  0
LINE
  5
11511
  8
0
 10
3558.5193150492000314
 20
152.3019276953338021
 30
0.0
 11
3558.9070549879988903
 21
152.6614316563338889
 31
0.0
  0
ARC
  5
11512
  8
0
 10
3558.7780025514789486
 20
152.8025311628053089
 30
0.0
 40
0.191216113595207
 50
312.4466618276561007
 51
355.7921844911389258
  0
LINE
  5
11513
  8
0
 10
3554.7421722745989427
 20
154.9244979756338978
 30
0.0
 11
3553.2618529666369795
 21
154.9244979756338978
 31
0.0
  0
ARC
  5
11514
  8
0
 10
3563.2756368414989083
 20
155.3550871174163888
 30
0.0
 40
1.7736966850174749
 50
0.0039042742956511
 51
179.9960957257044072
  0
ARC
  5
11515
  8
0
 10
3563.2756368414989083
 20
154.9633964413804961
 30
0.0
 40
2.1653873610533019
 50
358.9706978803158108
 51
181.0293021196841892
  0
ARC
  5
11516
  8
0
 10
3556.9454671038661218
 20
154.6404363538183873
 30
0.0
 40
0.2371285607893433
 50
22.0925539608925412
 51
87.0650767735993014
  0
ARC
  5
11517
  8
0
 10
3557.2382809047589944
 20
154.7592913831892076
 30
0.0
 40
0.0788879577659393
 50
202.0925539608925021
 51
269.9281601812147073
  0
LINE
  5
11518
  8
0
 10
3557.2381819918000474
 20
154.6804034874338072
 30
0.0
 11
3558.9981310612988636
 21
154.6804034874338072
 31
0.0
  0
ARC
  5
11519
  8
0
 10
3558.9981310901662255
 20
154.7591435504818946
 30
0.0
 40
0.078740063048043
 50
269.9999789955737128
 51
337.9755899051299934
  0
ARC
  5
1151A
  8
0
 10
3559.2903074358191589
 20
154.6408733691039004
 30
0.0
 40
0.2364659878522259
 50
91.5405933384873691
 51
157.9579679244243096
  0
LINE
  5
1151B
  8
0
 10
3558.6890226682999128
 20
154.6804034874338072
 30
0.0
 11
3558.6890226682999128
 21
154.7473326213338964
 31
0.0
  0
ARC
  5
1151C
  8
0
 10
3558.6299675502000355
 20
154.7473326213338112
 30
0.0
 40
0.059055118099999
 50
0.0000000000016284
 51
90.0
  0
LINE
  5
1151D
  8
0
 10
3558.6299675502000355
 20
154.8063877394338874
 30
0.0
 11
3557.6063455028988756
 21
154.8063877394338022
 31
0.0
  0
ARC
  5
1151E
  8
0
 10
3557.6063455028988756
 20
154.7473326213338112
 30
0.0
 40
0.0590551180999981
 50
90.0
 51
179.999999999985306
  0
LINE
  5
1151F
  8
0
 10
3557.5472903847999078
 20
154.7473326213338964
 30
0.0
 11
3557.5472903847999078
 21
154.6804034874338072
 31
0.0
  0
LINE
  5
11520
  8
0
 10
3553.2362718830568156
 20
151.6426583767434977
 30
0.0
 11
3553.2362718830568156
 21
154.8772538811338109
 31
0.0
  0
ARC
  5
11521
  8
0
 10
3510.1139884533731674
 20
152.1959904705080078
 30
0.0
 40
43.2055610039624369
 50
359.4853525065090025
 51
3.5579645892084009
  0
ARC
  5
11522
  8
0
 10
3555.4079218191818654
 20
151.6667284793404917
 30
0.0
 40
2.1717833259578172
 50
180.6350281403842075
 51
185.6727047783734008
  0
ARC
  5
11523
  8
0
 10
3553.2618573138997817
 20
154.8300097867339105
 30
0.0
 40
0.0472440944999538
 50
122.7942668391236936
 51
179.9962721011598887
  0
ENDSEC
  0
EOF
