  0
SECTION
  2
HEADER
  9
$ACADVER
  1
AC1009
  9
$INSBASE
 10
2902.0636692588359438
 20
199.7636006096659003
 30
0.0
  9
$EXTMIN
 10
2893.7464635520809679
 20
187.2806352978957136
 30
-0.0000000000000058
  9
$EXTMAX
 10
2910.1760911029009549
 20
199.7786103056425873
 30
0.0000000000000104
  9
$LIMMIN
 10
0.0
 20
0.0
  9
$LIMMAX
 10
11.6929133858000007
 20
8.2677165353999982
  9
$ORTHOMODE
 70
     1
  9
$REGENMODE
 70
     1
  9
$FILLMODE
 70
     1
  9
$QTEXTMODE
 70
     0
  9
$MIRRTEXT
 70
     0
  9
$DRAGMODE
 70
     2
  9
$LTSCALE
 40
0.6431102362
  9
$OSMODE
 70
  2039
  9
$ATTMODE
 70
     1
  9
$TEXTSIZE
 40
0.2
  9
$TRACEWID
 40
0.05
  9
$TEXTSTYLE
  7
STANDARD
  9
$CLAYER
  8
0
  9
$CELTYPE
  6
BYLAYER
  9
$CECOLOR
 62
   256
  9
$DIMSCALE
 40
1.0
  9
$DIMASZ
 40
0.1875
  9
$DIMEXO
 40
0.0625
  9
$DIMDLI
 40
0.4443307087
  9
$DIMRND
 40
0.0
  9
$DIMDLE
 40
0.0
  9
$DIMEXE
 40
0.125
  9
$DIMTP
 40
0.01
  9
$DIMTM
 40
0.01
  9
$DIMTXT
 40
2.0
  9
$DIMCEN
 40
0.1052362205
  9
$DIMTSZ
 40
0.0
  9
$DIMTOL
 70
     1
  9
$DIMLIM
 70
     0
  9
$DIMTIH
 70
     1
  9
$DIMTOH
 70
     1
  9
$DIMSE1
 70
     0
  9
$DIMSE2
 70
     0
  9
$DIMTAD
 70
     0
  9
$DIMZIN
 70
     0
  9
$DIMBLK
  1

  9
$DIMASO
 70
     1
  9
$DIMSHO
 70
     1
  9
$DIMPOST
  1
\X
  9
$DIMAPOST
  1

  9
$DIMALT
 70
     1
  9
$DIMALTD
 70
     2
  9
$DIMALTF
 40
25.3999999999999986
  9
$DIMLFAC
 40
1.0
  9
$DIMTOFL
 70
     0
  9
$DIMTVP
 40
0.0
  9
$DIMTIX
 70
     0
  9
$DIMSOXD
 70
     0
  9
$DIMSAH
 70
     0
  9
$DIMBLK1
  1

  9
$DIMBLK2
  1

  9
$DIMSTYLE
  2
STANDARD
  9
$DIMCLRD
 70
     0
  9
$DIMCLRE
 70
     0
  9
$DIMCLRT
 70
     0
  9
$DIMTFAC
 40
1.0
  9
$DIMGAP
 40
0.09
  9
$LUNITS
 70
     2
  9
$LUPREC
 70
     4
  9
$SKETCHINC
 40
0.1
  9
$FILLETRAD
 40
0.0
  9
$AUNITS
 70
     0
  9
$AUPREC
 70
     0
  9
$MENU
  1
.
  9
$ELEVATION
 40
0.0
  9
$PELEVATION
 40
0.0
  9
$THICKNESS
 40
0.0
  9
$LIMCHECK
 70
     0
  9
$BLIPMODE
 70
     0
  9
$CHAMFERA
 40
0.0
  9
$CHAMFERB
 40
0.0
  9
$SKPOLY
 70
     0
  9
$TDCREATE
 40
2458060.468368056230247
  9
$TDUPDATE
 40
2459300.4306018520146608
  9
$TDINDWG
 40
0.6565232639
  9
$TDUSRTIMER
 40
0.6565232639
  9
$USRTIMER
 70
     1
  9
$ANGBASE
 50
0.0
  9
$ANGDIR
 70
     0
  9
$PDMODE
 70
     0
  9
$PDSIZE
 40
0.3125
  9
$PLINEWID
 40
0.0
  9
$COORDS
 70
     1
  9
$SPLFRAME
 70
     0
  9
$SPLINETYPE
 70
     6
  9
$SPLINESEGS
 70
     8
  9
$ATTDIA
 70
     1
  9
$ATTREQ
 70
     1
  9
$HANDLING
 70
     1
  9
$HANDSEED
  5
2F64A
  9
$SURFTAB1
 70
     6
  9
$SURFTAB2
 70
     6
  9
$SURFTYPE
 70
     6
  9
$SURFU
 70
     6
  9
$SURFV
 70
     6
  9
$UCSNAME
  2

  9
$UCSORG
 10
0.0
 20
0.0
 30
0.0
  9
$UCSXDIR
 10
1.0
 20
0.0
 30
0.0
  9
$UCSYDIR
 10
0.0
 20
1.0
 30
0.0
  9
$PUCSNAME
  2

  9
$PUCSORG
 10
0.0
 20
0.0
 30
0.0
  9
$PUCSXDIR
 10
1.0
 20
0.0
 30
0.0
  9
$PUCSYDIR
 10
0.0
 20
1.0
 30
0.0
  9
$USERI1
 70
     0
  9
$USERI2
 70
     0
  9
$USERI3
 70
     0
  9
$USERI4
 70
     0
  9
$USERI5
 70
     0
  9
$USERR1
 40
0.0
  9
$USERR2
 40
0.0
  9
$USERR3
 40
0.0
  9
$USERR4
 40
0.0
  9
$USERR5
 40
0.0
  9
$WORLDVIEW
 70
     1
  9
$SHADEDGE
 70
     3
  9
$SHADEDIF
 70
    70
  9
$TILEMODE
 70
     1
  9
$MAXACTVP
 70
    64
  9
$PLIMCHECK
 70
     0
  9
$PEXTMIN
 10
1.0000000000000000E+20
 20
1.0000000000000000E+20
 30
1.0000000000000000E+20
  9
$PEXTMAX
 10
-1.0000000000000000E+20
 20
-1.0000000000000000E+20
 30
-1.0000000000000000E+20
  9
$PLIMMIN
 10
0.0
 20
0.0
  9
$PLIMMAX
 10
12.0
 20
9.0
  9
$UNITMODE
 70
     0
  9
$VISRETAIN
 70
     1
  9
$PLINEGEN
 70
     0
  9
$PSLTSCALE
 70
     1
  0
ENDSEC
  0
SECTION
  2
TABLES
  0
TABLE
  2
VPORT
 70
     1
  0
VPORT
  2
*ACTIVE
 70
     0
 10
0.0
 20
0.0
 11
1.0
 21
1.0
 12
-401.7318379068838112
 22
-1.7318887741186011
 13
0.0
 23
0.0
 14
1.0
 24
1.0
 15
0.0
 25
0.0
 16
0.0
 26
0.0
 36
96.5995694866707311
 17
3303.693115234375
 27
195.2615115758877096
 37
0.0
 40
12.6019803476171397
 41
2.6486111111111099
 42
50.0
 43
0.0
 44
0.0
 50
0.0
 51
0.0
 71
     0
 72
   100
 73
     1
 74
     1
 75
     0
 76
     0
 77
     0
 78
     0
  0
ENDTAB
  0
TABLE
  2
LTYPE
 70
     2
  0
LTYPE
  2
CONTINUOUS
 70
     0
  3
Solid line
 72
    65
 73
     0
 40
0.0
  0
LTYPE
  2
PHANTOM2
 70
     0
  3
___ _ _ ___ _ _ ___ _ _ ___ _ _
 72
    65
 73
     6
 40
1.25
 49
0.625
 49
-0.125
 49
0.125
 49
-0.125
 49
0.125
 49
-0.125
  0
ENDTAB
  0
TABLE
  2
LAYER
 70
     2
  0
LAYER
  2
0
 70
     0
 62
   255
  6
CONTINUOUS
  0
LAYER
  2
DEFPOINTS
 70
     0
 62
     7
  6
CONTINUOUS
  0
ENDTAB
  0
TABLE
  2
STYLE
 70
     1
  0
STYLE
  2
STANDARD
 70
     0
 40
0.0
 41
0.8
 50
0.0
 71
     0
 42
0.2
  3
txt
  4

  0
ENDTAB
  0
TABLE
  2
VIEW
 70
     0
  0
ENDTAB
  0
TABLE
  2
UCS
 70
     0
  0
ENDTAB
  0
TABLE
  2
APPID
 70
     9
  0
APPID
  2
ACAD
 70
     0
  0
APPID
  2
ACAD_MLEADERVER
 70
     0
  0
APPID
  2
ACAD_EXEMPT_FROM_CAD_STANDARDS
 70
     0
  0
APPID
  2
ACAD_NAV_VCDISPLAY
 70
     0
  0
APPID
  2
ACAECLAYERSTANDARD
 70
     0
  0
APPID
  2
ACCMTRANSPARENCY
 70
     0
  0
APPID
  2
ACAD_DSTYLE_DIMJAG
 70
     0
  0
APPID
  2
ACAD_DSTYLE_DIMTALN
 70
     0
  0
APPID
  2
ACDBATTR
 70
     0
  0
ENDTAB
  0
TABLE
  2
DIMSTYLE
 70
     1
  0
DIMSTYLE
  2
STANDARD
 70
     0
  3

  4

  5

  6

  7

 40
1.0
 41
0.1875
 42
0.0625
 43
0.38
 44
0.125
 45
0.0
 46
0.0
 47
0.01
 48
0.01
140
0.15625
141
0.09
142
0.0
143
25.3999999999999986
144
1.0
145
0.0
146
1.0
147
0.09
 71
     1
 72
     0
 73
     1
 74
     1
 75
     0
 76
     0
 77
     0
 78
     4
170
     0
171
     2
172
     0
173
     0
174
     0
175
     0
176
     0
177
     0
178
     0
  0
ENDTAB
  0
ENDSEC
  0
SECTION
  2
BLOCKS
  0
BLOCK
  8
0
  2
$MODEL_SPACE
 70
     0
 10
0.0
 20
0.0
 30
0.0
  3
$MODEL_SPACE
  1

  0
ENDBLK
  5
21
  8
0
  0
BLOCK
 67
     1
  8
0
  2
$PAPER_SPACE
 70
     0
 10
0.0
 20
0.0
 30
0.0
  3
$PAPER_SPACE
  1

  0
ENDBLK
  5
1D
 67
     1
  8
0
  0
BLOCK
  8
0
  2
_FILLED
 70
     0
 10
0.0
 20
0.0
 30
0.0
  3
_FILLED
  1

  0
SOLID
  5
2ABDA
  8
0
  6
BYBLOCK
 62
     0
 10
0.0
 20
0.0
 30
0.0
 11
-1.0
 21
0.1666666667
 31
0.0
 12
-1.0
 22
-0.1666666667
 32
0.0
 13
-1.0
 23
-0.1666666667
 33
0.0
  0
ENDBLK
  5
2ABDB
  8
0
  6
BYBLOCK
 62
     0
  0
ENDSEC
  0
SECTION
  2
ENTITIES
  0
ATTDEF
  5
2F186
  8
DEFPOINTS
 10
2902.063980221921156
 20
199.7677379933082875
 30
0.0
 40
0.001
  1
K-20099T-W
  3

  2
MODELNUMBER
 70
     0
1001
ACDBATTR
1070
     0
1070
     1
  0
ATTDEF
  5
2F187
  8
DEFPOINTS
 10
2902.063980221921156
 20
199.7660713266415939
 30
0.0
 40
0.001
  1

  3

  2
TRADENAME
 70
     0
1001
ACDBATTR
1070
     0
1070
     1
  0
ATTDEF
  5
2F188
  8
DEFPOINTS
 10
2902.063980221921156
 20
199.7644046599749004
 30
0.0
 40
0.001
  1
URINAL
  3

  2
PRODUCT
 70
     0
1001
ACDBATTR
1070
     0
1070
     1
  0
LINE
  5
2F368
  8
0
 10
2894.2084712994360416
 20
199.7636006096659003
 30
0.0
 11
2909.9188672182358459
 21
199.7636006096659003
 31
0.0
  0
ARC
  5
2F369
  8
0
 10
2909.9188672182358459
 20
199.6454903733659023
 30
0.0
 40
0.1181102362999979
 50
0.0000000485080898
 51
90.0
  0
LINE
  5
2F36A
  8
0
 10
2910.0369774545360997
 20
199.6454903734658046
 30
0.0
 11
2910.0369774575328847
 21
196.1057197881355876
 31
0.0
  0
ARC
  5
2F36B
  8
0
 10
2909.7614418859279795
 20
196.1057197879023875
 30
0.0
 40
0.2755355716051255
 50
283.151974000197697
 51
0.0000000485080898
  0
ARC
  5
2F36C
  8
0
 10
2915.4722843328891031
 20
175.0416726496218018
 30
0.0
 40
21.5491145339195107
 50
105.1950513727825012
 51
113.4187204492824037
  0
ARC
  5
2F36D
  8
0
 10
2915.5649084746069093
 20
174.5108536607966983
 30
0.0
 40
22.0733799647863513
 50
113.0917165739664938
 51
119.3721457870868932
  0
ARC
  5
2F36E
  8
0
 10
2915.5649084746069093
 20
174.5108536607966983
 30
0.0
 40
22.0733799647863513
 50
123.358467637660695
 51
132.385684150900488
  0
ARC
  5
2F36F
  8
0
 10
2915.8028059185221537
 20
174.1332659403180116
 30
0.0
 40
22.5127841423384787
 50
132.1850793719910939
 51
137.0012463901180979
  0
ARC
  5
2F370
  8
0
 10
2903.1893664213821467
 20
186.1584531207344924
 30
0.0
 40
5.0903933930415359
 50
139.1707228591101
 51
141.5965787697813028
  0
ARC
  5
2F371
  8
0
 10
2898.987837743910859
 20
189.5036196419542875
 30
0.0
 40
0.280396286472871
 50
204.9871817909074139
 51
319.2472079616352971
  0
ARC
  5
2F372
  8
0
 10
2894.2292243673609846
 20
199.6237626244731018
 30
0.0
 40
0.1413695580068203
 50
98.4415340158221142
 51
169.1952202420941092
  0
ARC
  5
2F373
  8
0
 10
2894.2327286135941904
 20
199.6504809206435027
 30
0.0
 40
0.1423677152765469
 50
180.0872100327086969
 51
202.1980555447482004
  0
LINE
  5
2F374
  8
0
 10
2898.7336859012862078
 20
189.3851759069667082
 30
0.0
 11
2894.1009127082761552
 21
199.5966930644943034
 31
0.0
  0
LINE
  5
2F375
  8
0
 10
2896.0919247197989534
 20
195.2081222302491881
 30
0.0
 11
2893.9658499008701256
 21
194.2435620893814132
 31
0.0
  0
ARC
  5
2F376
  8
0
 10
2893.9816993480280871
 20
194.2154013634126102
 30
0.0
 40
0.0323145704336965
 50
119.3717217316159065
 51
172.2903675954202924
  0
ARC
  5
2F377
  8
0
 10
2893.9928163739750744
 20
194.2215595732903068
 30
0.0
 40
0.0431780003035864
 50
182.4199397552062862
 51
199.5949282537669944
  0
LINE
  5
2F378
  8
0
 10
2893.952138935036146
 20
194.2070790459657985
 30
0.0
 11
2894.5474661063649364
 21
192.894864234495401
 31
0.0
  0
ARC
  5
2F379
  8
0
 10
2894.5725631110481118
 20
192.9062502733330007
 30
0.0
 40
0.0275590552172493
 50
204.402901729216012
 51
294.4028972027189752
  0
LINE
  5
2F37A
  8
0
 10
2894.5839491479018761
 20
192.8811532677505056
 30
0.0
 11
2896.710023966836161
 21
193.8457134087483951
 31
0.0
  0
ARC
  5
2F37B
  8
0
 10
2894.1284620104729584
 20
194.0762828642210138
 30
0.0
 40
0.2195416604877549
 50
92.1797772697004234
 51
115.2398209417830941
  0
ARC
  5
2F37C
  8
0
 10
2894.1234248341511375
 20
194.1632844028706018
 30
0.0
 40
0.132422714516559
 50
40.4707102438931514
 51
91.433646455830214
  0
ARC
  5
2F37D
  8
0
 10
2893.997837649380017
 20
194.0611709208803006
 30
0.0
 40
0.2942642915373046
 50
24.8210022372520811
 51
39.724579430017819
  0
LINE
  5
2F37E
  8
0
 10
2894.2649188838358896
 20
194.1846985998658965
 30
0.0
 11
2894.7366262473360621
 21
193.1449654562659077
 31
0.0
  0
ARC
  5
2F37F
  8
0
 10
2894.5146963901911477
 20
193.0397717974591956
 30
0.0
 40
0.2455983862848216
 50
5.854439628794565
 51
25.3607212668305486
  0
ARC
  5
2F380
  8
0
 10
2894.6302444208449742
 20
193.051619669956608
 30
0.0
 40
0.1294445250888099
 50
323.6352067632925014
 51
5.854439628794565
  0
ARC
  5
2F381
  8
0
 10
2894.5708884436758126
 20
193.1036843183771907
 30
0.0
 40
0.2082206584138743
 50
296.7445883406160192
 51
321.7824780364387038
  0
ARC
  5
2F382
  8
0
 10
2900.2045539748610281
 20
190.2171568820675986
 30
0.0
 40
0.1347412880319379
 50
84.5674173128806927
 51
96.9369873591876683
  0
ARC
  5
2F383
  8
0
 10
2900.2140726515967799
 20
189.7281031203027055
 30
0.0
 40
0.6231982419447898
 50
68.012636798792613
 51
89.7023134681222558
  0
ARC
  5
2F384
  8
0
 10
2270.177103897732195
 20
-958.2884711983366515
 30
0.0
 40
1310.1564199641459254
 50
61.0462679757577718
 51
61.2450231560553675
  0
ARC
  5
2F385
  8
0
 10
2908.0126205068331728
 20
193.9030852534974088
 30
0.0
 40
6.8101444702245146
 50
238.2397881470394054
 51
253.594167800681106
  0
ARC
  5
2F386
  8
0
 10
2906.6495777541231291
 20
189.4415276167069067
 30
0.0
 40
2.1457857733663488
 50
254.860683064079609
 51
281.475451310374126
  0
ARC
  5
2F387
  8
0
 10
2906.6816475386981438
 20
189.0893999803541021
 30
0.0
 40
1.794732643268089
 50
282.7086715359696996
 51
341.0840640230418899
  0
ARC
  5
2F388
  8
0
 10
2909.1346971284760912
 20
195.1085580176460894
 30
0.0
 40
0.6923188366402299
 50
151.3006847342788035
 51
162.0047665433604038
  0
ARC
  5
2F389
  8
0
 10
2909.0677600510462071
 20
195.1303010361617964
 30
0.0
 40
0.6219389304950242
 50
162.0047665433619954
 51
181.6114907165635941
  0
ARC
  5
2F38A
  8
0
 10
2939.705699572929916
 20
194.5180506695363931
 30
0.0
 40
31.2652900503648006
 50
178.9099956885183076
 51
180.1292970413099113
  0
ARC
  5
2F38B
  8
0
 10
3044.0205458460209229
 20
196.8993086514892923
 30
0.0
 40
135.6022240440535995
 50
181.0360168845481894
 51
182.934317864748607
  0
ARC
  5
2F38C
  8
0
 10
2903.4989303897950776
 20
189.9780097203270941
 30
0.0
 40
5.0972234388311284
 50
343.2332555696957002
 51
359.7714638171689217
  0
LINE
  5
2F38D
  8
0
 10
2903.4236983642531413
 20
192.9534698024492911
 30
0.0
 11
2903.444210554538131
 21
192.9198654381175118
 31
0.0
  0
LINE
  5
2F38E
  8
0
 10
2903.444210554538131
 20
192.9198654381175118
 30
0.0
 11
2903.738482211597784
 21
193.0452576405928937
 31
0.0
  0
LINE
  5
2F38F
  8
0
 10
2903.738482211597784
 20
193.0452576405928937
 30
0.0
 11
2904.5111775954919722
 21
193.5173689533675088
 31
0.0
  0
LINE
  5
2F390
  8
0
 10
2904.5111775954919722
 20
193.5173689533675088
 30
0.0
 11
2904.7553756414458803
 21
193.7201874560178112
 31
0.0
  0
LINE
  5
2F391
  8
0
 10
2904.7553756414458803
 20
193.7201874560178112
 30
0.0
 11
2904.7342684861359885
 21
193.7534452191659113
 31
0.0
  0
LINE
  5
2F392
  8
0
 10
2904.7342684861359885
 20
193.7534452191659113
 30
0.0
 11
2903.4236983642531413
 21
192.9534698024492911
 31
0.0
  0
ARC
  5
2F393
  8
0
 10
2903.7218699363252199
 20
193.7660725201455989
 30
0.0
 40
0.7210062817162834
 50
271.3202346759238139
 51
296.801258342394874
  0
ARC
  5
2F394
  8
0
 10
2903.5665603639308756
 20
194.1934966330877899
 30
0.0
 40
1.1737907316935949
 50
294.1596229001497136
 51
311.8583961920235765
  0
ARC
  5
2F395
  8
0
 10
2903.9742890955531038
 20
193.7898935736135968
 30
0.0
 40
0.6020954492501817
 50
308.5874923680877941
 51
333.0876490367681981
  0
LINE
  5
2F396
  8
0
 10
2903.4442105542930221
 20
192.9198654380174958
 30
0.0
 11
2903.5237882586930027
 21
192.9684398762362036
 31
0.0
  0
LINE
  5
2F397
  8
0
 10
2903.540589058803107
 20
192.978695128421208
 30
0.0
 11
2904.0826948153048761
 21
193.309597895417312
 31
0.0
  0
LINE
  5
2F398
  8
0
 10
2904.1162964155960253
 20
193.3301083998318006
 30
0.0
 11
2904.6587128780361127
 21
193.661200822542213
 31
0.0
  0
LINE
  5
2F399
  8
0
 10
2904.6752029722738371
 20
193.6712664190532962
 30
0.0
 11
2904.7553756413740302
 21
193.7201874559559087
 31
0.0
  0
LINE
  5
2F39A
  8
0
 10
2904.6546907820538763
 20
193.7048707811364068
 30
0.0
 11
2904.6752029722738371
 21
193.6712664190532962
 31
0.0
  0
LINE
  5
2F39B
  8
0
 10
2904.6378899818719219
 20
193.6946155289062119
 30
0.0
 11
2904.6584021720900637
 21
193.6610111668375112
 31
0.0
  0
ARC
  5
2F39C
  8
0
 10
2904.7386806875979346
 20
193.5789847242573956
 30
0.0
 40
0.1147735916249466
 50
134.3829826652365114
 51
135.8922719955436946
  0
ARC
  5
2F39D
  8
0
 10
2904.6938133729890978
 20
193.6219873283467905
 30
0.0
 40
0.0526283466678176
 50
135.5103363566464054
 51
140.6298777885006928
  0
ARC
  5
2F39E
  8
0
 10
2904.5500113717521344
 20
193.8000160003512065
 30
0.0
 40
0.1795811558143079
 50
310.4310905720819846
 51
314.1972788954557245
  0
ARC
  5
2F39F
  8
0
 10
2904.5506492648928543
 20
193.7992673019521987
 30
0.0
 40
0.1785975619186493
 50
306.4791886796178915
 51
310.4310905720819846
  0
ARC
  5
2F3A0
  8
0
 10
2904.639600265442823
 20
193.6789655618676136
 30
0.0
 40
0.0289820909063271
 50
298.4305608877843952
 51
306.479188679618801
  0
ARC
  5
2F3A1
  8
0
 10
2904.6509742493090016
 20
193.6579566104391006
 30
0.0
 40
0.0050918512860751
 50
287.0228030769974907
 51
298.4305608877867257
  0
ARC
  5
2F3A2
  8
0
 10
2904.6523465803829822
 20
193.6534742988295079
 30
0.0
 40
0.0004041642291387
 50
162.1036184837722089
 51
287.0228030766426173
  0
ARC
  5
2F3A3
  8
0
 10
2904.6597362253510255
 20
193.6497528359101068
 30
0.0
 40
0.0086734147383675
 50
139.6287420059908868
 51
153.6799482481056032
  0
ARC
  5
2F3A4
  8
0
 10
2904.0836352993019318
 20
193.3103574009271028
 30
0.0
 40
0.0012088667328286
 50
218.9232598267101082
 51
266.8385088752236243
  0
ARC
  5
2F3A5
  8
0
 10
2904.0840498954012219
 20
193.317863508846699
 30
0.0
 40
0.0087264159362771
 50
266.8385088752236243
 51
282.9516715877513207
  0
ARC
  5
2F3A6
  8
0
 10
2904.0630011719090362
 20
193.3792051493755935
 30
0.0
 40
0.0735369367071393
 50
288.2298685066626263
 51
315.5980653546009194
  0
ARC
  5
2F3A7
  8
0
 10
2904.1123662163540757
 20
193.330333372270502
 30
0.0
 40
0.0040905021946641
 50
320.8762622735687273
 51
349.7978529741370721
  0
ARC
  5
2F3A8
  8
0
 10
2904.1154407644539788
 20
193.3296856771733871
 30
0.0
 40
0.0009543758881014
 50
355.3830537390992959
 51
26.2910355818376793
  0
LINE
  5
2F3A9
  8
0
 10
2904.0826948153357989
 20
193.3095978953658971
 30
0.0
 11
2904.0621826246151613
 21
193.3432022583643004
 31
0.0
  0
LINE
  5
2F3AA
  8
0
 10
2904.1162964156360431
 20
193.3301083997658907
 30
0.0
 11
2904.0957842253901617
 21
193.3637127618885074
 31
0.0
  0
LINE
  5
2F3AB
  8
0
 10
2903.5032760674871497
 20
193.002044239820691
 30
0.0
 11
2903.5237882586561682
 21
192.9684398761164914
 31
0.0
  0
LINE
  5
2F3AC
  8
0
 10
2903.520076867681837
 20
193.0122994920293138
 30
0.0
 11
2903.540589058803107
 21
192.978695128421208
 31
0.0
  0
ARC
  5
2F3AD
  8
0
 10
2903.57521021527009
 20
192.8748682842629023
 30
0.0
 40
0.1094469645218407
 50
106.5147048611053009
 51
108.4410119889567028
  0
ARC
  5
2F3AE
  8
0
 10
2903.5602006099429673
 20
192.9254921484202043
 30
0.0
 40
0.0566448445428574
 50
102.6214331730243998
 51
106.5147048611053009
  0
ARC
  5
2F3AF
  8
0
 10
2903.5504836737450205
 20
192.9688869643960061
 30
0.0
 40
0.0121754291806784
 50
92.8878812851949505
 51
102.6214331730243998
  0
ARC
  5
2F3B0
  8
0
 10
2903.5499405813598059
 20
192.9796528316703927
 30
0.0
 40
0.0013958722552518
 50
70.7110348159935427
 51
92.8878812852471754
  0
ARC
  5
2F3B1
  8
0
 10
2903.5503102638040218
 20
192.9807091311409124
 30
0.0
 40
0.0002767504207098
 50
298.4014865896126025
 51
70.7110348159940685
  0
ARC
  5
2F3B2
  8
0
 10
2903.50221603864793
 20
193.0557061906177125
 30
0.0
 40
0.0893692696264673
 50
289.6801628016866061
 51
302.6580906713709851
  0
ARC
  5
2F3B3
  8
0
 10
2903.4645168004772131
 20
193.1437356865974948
 30
0.0
 40
0.1850452023071727
 50
288.6815522647661965
 51
291.492269202091677
  0
ENDSEC
  0
EOF
