  0
SECTION
  2
HEADER
  9
$ACADVER
  1
AC1009
  9
$INSBASE
 10
2929.723544513023171
 20
135.0080091422937869
 30
0.0
  9
$EXTMIN
 10
2917.1274109733321893
 20
134.9996330415690977
 30
-0.0000000000000058
  9
$EXTMAX
 10
2929.868297792697831
 20
175.554703238034989
 30
0.0000000000000104
  9
$LIMMIN
 10
0.0
 20
0.0
  9
$LIMMAX
 10
11.6929133858000007
 20
8.2677165353999982
  9
$ORTHOMODE
 70
     1
  9
$REGENMODE
 70
     1
  9
$FILLMODE
 70
     1
  9
$QTEXTMODE
 70
     0
  9
$MIRRTEXT
 70
     0
  9
$DRAGMODE
 70
     2
  9
$LTSCALE
 40
0.6431102362
  9
$OSMODE
 70
  2039
  9
$ATTMODE
 70
     1
  9
$TEXTSIZE
 40
0.2
  9
$TRACEWID
 40
0.05
  9
$TEXTSTYLE
  7
STANDARD
  9
$CLAYER
  8
0
  9
$CELTYPE
  6
BYLAYER
  9
$CECOLOR
 62
   256
  9
$DIMSCALE
 40
1.0
  9
$DIMASZ
 40
0.1875
  9
$DIMEXO
 40
0.0625
  9
$DIMDLI
 40
0.4443307087
  9
$DIMRND
 40
0.0
  9
$DIMDLE
 40
0.0
  9
$DIMEXE
 40
0.125
  9
$DIMTP
 40
0.01
  9
$DIMTM
 40
0.01
  9
$DIMTXT
 40
2.0
  9
$DIMCEN
 40
0.1052362205
  9
$DIMTSZ
 40
0.0
  9
$DIMTOL
 70
     1
  9
$DIMLIM
 70
     0
  9
$DIMTIH
 70
     1
  9
$DIMTOH
 70
     1
  9
$DIMSE1
 70
     0
  9
$DIMSE2
 70
     0
  9
$DIMTAD
 70
     0
  9
$DIMZIN
 70
     0
  9
$DIMBLK
  1

  9
$DIMASO
 70
     1
  9
$DIMSHO
 70
     1
  9
$DIMPOST
  1
\X
  9
$DIMAPOST
  1

  9
$DIMALT
 70
     1
  9
$DIMALTD
 70
     2
  9
$DIMALTF
 40
25.3999999999999986
  9
$DIMLFAC
 40
1.0
  9
$DIMTOFL
 70
     0
  9
$DIMTVP
 40
0.0
  9
$DIMTIX
 70
     0
  9
$DIMSOXD
 70
     0
  9
$DIMSAH
 70
     0
  9
$DIMBLK1
  1

  9
$DIMBLK2
  1

  9
$DIMSTYLE
  2
STANDARD
  9
$DIMCLRD
 70
     0
  9
$DIMCLRE
 70
     0
  9
$DIMCLRT
 70
     0
  9
$DIMTFAC
 40
1.0
  9
$DIMGAP
 40
0.09
  9
$LUNITS
 70
     2
  9
$LUPREC
 70
     4
  9
$SKETCHINC
 40
0.1
  9
$FILLETRAD
 40
0.0
  9
$AUNITS
 70
     0
  9
$AUPREC
 70
     0
  9
$MENU
  1
.
  9
$ELEVATION
 40
0.0
  9
$PELEVATION
 40
0.0
  9
$THICKNESS
 40
0.0
  9
$LIMCHECK
 70
     0
  9
$BLIPMODE
 70
     0
  9
$CHAMFERA
 40
0.0
  9
$CHAMFERB
 40
0.0
  9
$SKPOLY
 70
     0
  9
$TDCREATE
 40
2458060.468368056230247
  9
$TDUPDATE
 40
2459300.4341782410629094
  9
$TDINDWG
 40
0.6551806713
  9
$TDUSRTIMER
 40
0.6551806713
  9
$USRTIMER
 70
     1
  9
$ANGBASE
 50
0.0
  9
$ANGDIR
 70
     0
  9
$PDMODE
 70
     0
  9
$PDSIZE
 40
0.3125
  9
$PLINEWID
 40
0.0
  9
$COORDS
 70
     1
  9
$SPLFRAME
 70
     0
  9
$SPLINETYPE
 70
     6
  9
$SPLINESEGS
 70
     8
  9
$ATTDIA
 70
     1
  9
$ATTREQ
 70
     1
  9
$HANDLING
 70
     1
  9
$HANDSEED
  5
2F6C4
  9
$SURFTAB1
 70
     6
  9
$SURFTAB2
 70
     6
  9
$SURFTYPE
 70
     6
  9
$SURFU
 70
     6
  9
$SURFV
 70
     6
  9
$UCSNAME
  2

  9
$UCSORG
 10
0.0
 20
0.0
 30
0.0
  9
$UCSXDIR
 10
1.0
 20
0.0
 30
0.0
  9
$UCSYDIR
 10
0.0
 20
1.0
 30
0.0
  9
$PUCSNAME
  2

  9
$PUCSORG
 10
0.0
 20
0.0
 30
0.0
  9
$PUCSXDIR
 10
1.0
 20
0.0
 30
0.0
  9
$PUCSYDIR
 10
0.0
 20
1.0
 30
0.0
  9
$USERI1
 70
     0
  9
$USERI2
 70
     0
  9
$USERI3
 70
     0
  9
$USERI4
 70
     0
  9
$USERI5
 70
     0
  9
$USERR1
 40
0.0
  9
$USERR2
 40
0.0
  9
$USERR3
 40
0.0
  9
$USERR4
 40
0.0
  9
$USERR5
 40
0.0
  9
$WORLDVIEW
 70
     1
  9
$SHADEDGE
 70
     3
  9
$SHADEDIF
 70
    70
  9
$TILEMODE
 70
     1
  9
$MAXACTVP
 70
    64
  9
$PLIMCHECK
 70
     0
  9
$PEXTMIN
 10
1.0000000000000000E+20
 20
1.0000000000000000E+20
 30
1.0000000000000000E+20
  9
$PEXTMAX
 10
-1.0000000000000000E+20
 20
-1.0000000000000000E+20
 30
-1.0000000000000000E+20
  9
$PLIMMIN
 10
0.0
 20
0.0
  9
$PLIMMAX
 10
12.0
 20
9.0
  9
$UNITMODE
 70
     0
  9
$VISRETAIN
 70
     1
  9
$PLINEGEN
 70
     0
  9
$PSLTSCALE
 70
     1
  0
ENDSEC
  0
SECTION
  2
TABLES
  0
TABLE
  2
VPORT
 70
     1
  0
VPORT
  2
*ACTIVE
 70
     0
 10
0.0
 20
0.0
 11
1.0
 21
1.0
 12
-380.1952608513602172
 22
-39.9843434360857088
 13
0.0
 23
0.0
 14
1.0
 24
1.0
 15
0.0
 25
0.0
 16
0.0
 26
0.0
 36
96.5995694866707311
 17
3303.693115234375
 27
195.2615115758877096
 37
0.0
 40
40.892560378406003
 41
2.6486111111111108
 42
50.0
 43
0.0
 44
0.0
 50
0.0
 51
0.0
 71
     0
 72
   100
 73
     1
 74
     1
 75
     0
 76
     0
 77
     0
 78
     0
  0
ENDTAB
  0
TABLE
  2
LTYPE
 70
     2
  0
LTYPE
  2
CONTINUOUS
 70
     0
  3
Solid line
 72
    65
 73
     0
 40
0.0
  0
LTYPE
  2
PHANTOM2
 70
     0
  3
___ _ _ ___ _ _ ___ _ _ ___ _ _
 72
    65
 73
     6
 40
1.25
 49
0.625
 49
-0.125
 49
0.125
 49
-0.125
 49
0.125
 49
-0.125
  0
ENDTAB
  0
TABLE
  2
LAYER
 70
     2
  0
LAYER
  2
0
 70
     0
 62
   255
  6
CONTINUOUS
  0
LAYER
  2
DEFPOINTS
 70
     0
 62
     7
  6
CONTINUOUS
  0
ENDTAB
  0
TABLE
  2
STYLE
 70
     1
  0
STYLE
  2
STANDARD
 70
     0
 40
0.0
 41
0.8
 50
0.0
 71
     0
 42
0.2
  3
txt
  4

  0
ENDTAB
  0
TABLE
  2
VIEW
 70
     0
  0
ENDTAB
  0
TABLE
  2
UCS
 70
     0
  0
ENDTAB
  0
TABLE
  2
APPID
 70
     9
  0
APPID
  2
ACAD
 70
     0
  0
APPID
  2
ACAD_MLEADERVER
 70
     0
  0
APPID
  2
ACAD_EXEMPT_FROM_CAD_STANDARDS
 70
     0
  0
APPID
  2
ACAD_NAV_VCDISPLAY
 70
     0
  0
APPID
  2
ACAECLAYERSTANDARD
 70
     0
  0
APPID
  2
ACCMTRANSPARENCY
 70
     0
  0
APPID
  2
ACAD_DSTYLE_DIMJAG
 70
     0
  0
APPID
  2
ACAD_DSTYLE_DIMTALN
 70
     0
  0
APPID
  2
ACDBATTR
 70
     0
  0
ENDTAB
  0
TABLE
  2
DIMSTYLE
 70
     1
  0
DIMSTYLE
  2
STANDARD
 70
     0
  3

  4

  5

  6

  7

 40
1.0
 41
0.1875
 42
0.0625
 43
0.38
 44
0.125
 45
0.0
 46
0.0
 47
0.01
 48
0.01
140
0.15625
141
0.09
142
0.0
143
25.3999999999999986
144
1.0
145
0.0
146
1.0
147
0.09
 71
     1
 72
     0
 73
     1
 74
     1
 75
     0
 76
     0
 77
     0
 78
     4
170
     0
171
     2
172
     0
173
     0
174
     0
175
     0
176
     0
177
     0
178
     0
  0
ENDTAB
  0
ENDSEC
  0
SECTION
  2
BLOCKS
  0
BLOCK
  8
0
  2
$MODEL_SPACE
 70
     0
 10
0.0
 20
0.0
 30
0.0
  3
$MODEL_SPACE
  1

  0
ENDBLK
  5
21
  8
0
  0
BLOCK
 67
     1
  8
0
  2
$PAPER_SPACE
 70
     0
 10
0.0
 20
0.0
 30
0.0
  3
$PAPER_SPACE
  1

  0
ENDBLK
  5
1D
 67
     1
  8
0
  0
BLOCK
  8
0
  2
_FILLED
 70
     0
 10
0.0
 20
0.0
 30
0.0
  3
_FILLED
  1

  0
SOLID
  5
2ABDA
  8
0
  6
BYBLOCK
 62
     0
 10
0.0
 20
0.0
 30
0.0
 11
-1.0
 21
0.1666666667
 31
0.0
 12
-1.0
 22
-0.1666666667
 32
0.0
 13
-1.0
 23
-0.1666666667
 33
0.0
  0
ENDBLK
  5
2ABDB
  8
0
  6
BYBLOCK
 62
     0
  0
ENDSEC
  0
SECTION
  2
ENTITIES
  0
ATTDEF
  5
2EC55
  8
DEFPOINTS
 10
2929.723495345981064
 20
135.0121469984582063
 30
0.0
 40
0.001
  1
K-20099T-Y
  3

  2
MODELNUMBER
 70
     0
1001
ACDBATTR
1070
     0
1070
     1
  0
ATTDEF
  5
2EC56
  8
DEFPOINTS
 10
2929.723495345981064
 20
135.0104803317915128
 30
0.0
 40
0.001
  1

  3

  2
TRADENAME
 70
     0
1001
ACDBATTR
1070
     0
1070
     1
  0
ATTDEF
  5
2EC57
  8
DEFPOINTS
 10
2929.723495345981064
 20
135.0088136651247908
 30
0.0
 40
0.001
  1
URINAL
  3

  2
PRODUCT
 70
     0
1001
ACDBATTR
1070
     0
1070
     1
  0
LINE
  5
2F322
  8
0
 10
2929.6054342768229617
 20
148.7752698310812889
 30
0.0
 11
2917.3942054424228445
 21
148.7752698310812889
 31
0.0
  0
ARC
  5
2F323
  8
0
 10
2929.6048682815571738
 20
148.8939460625475988
 30
0.0
 40
0.1186775811414221
 50
270.2732551241170995
 51
359.7267448273806849
  0
LINE
  5
2F324
  8
0
 10
2929.723544513023171
 20
148.8933800672805035
 30
0.0
 11
2929.723544513023171
 21
175.4288131381813116
 31
0.0
  0
ARC
  5
2F325
  8
0
 10
2929.6054342765851288
 20
175.4288131379433082
 30
0.0
 40
0.1181102364379853
 50
0.0000001154501656
 51
89.9999998918713118
  0
LINE
  5
2F326
  8
0
 10
2929.605434276807955
 20
175.5469233743812936
 30
0.0
 11
2919.4589699955890865
 21
175.5469233935315003
 31
0.0
  0
ARC
  5
2F327
  8
0
 10
2919.4589699950688555
 20
175.2713430446958967
 30
0.0
 40
0.2755803488355504
 50
89.9999998918713118
 51
180.0021251502591895
  0
LINE
  5
2F328
  8
0
 10
2919.1833896464231657
 20
175.2713328231812966
 30
0.0
 11
2919.1835123565228969
 21
158.6908681874812999
 31
0.0
  0
ARC
  5
2F329
  8
0
 10
2917.4161306123892246
 20
148.9369086152312889
 30
0.0
 40
0.1631190044707592
 50
181.2655156749632965
 51
262.2753734178298828
  0
LINE
  5
2F32A
  8
0
 10
2917.2530513954229718
 20
148.9333060309812993
 30
0.0
 11
2917.2582377512230778
 21
158.420939124781313
 31
0.0
  0
ARC
  5
2F32B
  8
0
 10
2917.5376706443380499
 20
158.4212549127583998
 30
0.0
 40
0.2793302473436698
 50
149.7398252033233916
 51
180.0647744747265051
  0
ARC
  5
2F32C
  8
0
 10
2917.449068071360216
 20
158.4729474939626073
 30
0.0
 40
0.1767508201184978
 50
114.116264388327707
 51
149.7398252033233916
  0
ARC
  5
2F32D
  8
0
 10
2917.4156458836268939
 20
158.5476068646757142
 30
0.0
 40
0.0949518942811365
 50
99.5671011097534233
 51
114.116264388327707
  0
ARC
  5
2F32E
  8
0
 10
2919.541780775909956
 20
113.6113710745838006
 30
0.0
 40
45.0807800737755571
 50
90.4603082196704946
 51
92.7233108109249287
  0
ARC
  5
2F32F
  8
0
 10
2919.160049190258178
 20
160.9801322038321132
 30
0.0
 40
2.2895194479037571
 50
270.4895315514435197
 51
284.7286204250304991
  0
ARC
  5
2F330
  8
0
 10
2919.6160229451829764
 20
159.2145442104456095
 30
0.0
 40
0.4660867268617496
 50
285.6990899547104164
 51
329.7551899068114949
  0
ARC
  5
2F331
  8
0
 10
2907.4478496223568982
 20
163.8182809141088967
 30
0.0
 40
13.4698382963687795
 50
338.9483036141079992
 51
356.8876450796162203
  0
LINE
  5
2F332
  8
0
 10
2920.8978197170231397
 20
163.0869477595813066
 30
0.0
 11
2920.8978197170231397
 21
172.0429863664813013
 31
0.0
  0
LINE
  5
2F333
  8
0
 10
2919.4454798597230365
 20
172.549548658007609
 30
0.0
 11
2925.7632395623240882
 21
172.549548658007609
 31
0.0
  0
LINE
  5
2F334
  8
0
 10
2925.7632395623231787
 20
175.2713317525812897
 30
0.0
 11
2925.7632395623231787
 21
148.9318279177489046
 31
0.0
  0
ARC
  5
2F335
  8
0
 10
2926.0438482834729257
 20
175.2721323602490031
 30
0.0
 40
0.2806098632590683
 50
136.7182485051062031
 51
180.1634707422815893
  0
ARC
  5
2F336
  8
0
 10
2926.0341396525909659
 20
175.2812754748266002
 30
0.0
 40
0.2672736697323703
 50
96.3228009200834236
 51
136.7182485051050094
  0
ARC
  5
2F337
  8
0
 10
2925.9204837985339509
 20
148.9314554906297019
 30
0.0
 40
0.1572446772502925
 50
179.8642973331295991
 51
263.3465743706137232
  0
ARC
  5
2F338
  8
0
 10
2920.6938536963580191
 20
173.7832472595740114
 30
0.0
 40
1.7551209290251339
 50
224.6612430715941002
 51
262.5389331125599028
  0
LINE
  5
2F339
  8
0
 10
2920.4659469183229703
 20
172.0429863664813013
 30
0.0
 11
2921.2608488009232133
 21
172.0429863664813013
 31
0.0
  0
ARC
  5
2F33A
  8
0
 10
2921.5771085961619065
 20
172.052579711218101
 30
0.0
 40
0.3164052628325496
 50
106.1704787540080019
 51
181.7374629318086932
  0
LINE
  5
2F33B
  8
0
 10
2921.4889909060721038
 20
172.3564671295843027
 30
0.0
 11
2925.5854815180391597
 21
172.3564671295843027
 31
0.0
  0
ARC
  5
2F33C
  8
0
 10
2925.1087526708579389
 20
172.8715598034231959
 30
0.0
 40
0.7018481718840553
 50
312.7848936890594018
 51
327.0352754400208255
  0
ARC
  5
2F33D
  8
0
 10
2925.8445011577741752
 20
172.3945727529259102
 30
0.0
 40
0.1749885083398939
 50
117.6702637870713062
 51
147.0819340319756066
  0
ARC
  5
2F33E
  8
0
 10
2923.403862031780136
 20
161.2168160979180982
 30
0.0
 40
2.3818158909679821
 50
320.0629868175727779
 51
352.1291681818261736
  0
ARC
  5
2F33F
  8
0
 10
2923.0601101781271609
 20
161.5046147769587037
 30
0.0
 40
2.8301387841466692
 50
294.0332048868615971
 51
320.0629868175727779
  0
ARC
  5
2F340
  8
0
 10
2923.0623183139268804
 20
162.182791110083997
 30
0.0
 40
3.459828606962069
 50
273.0839771663132183
 51
289.420904822044804
  0
ARC
  5
2F341
  8
0
 10
2921.2371094340028321
 20
198.8296427468214915
 30
0.0
 40
40.1520785900348613
 50
269.785628673533779
 51
272.8713307409706204
  0
ARC
  5
2F342
  8
0
 10
2927.3897910252790098
 20
-437.2477092487675918
 30
0.0
 40
595.9588854187021525
 50
90.6059761228245719
 51
90.8299279906934629
  0
ARC
  5
2F343
  8
0
 10
2920.5933985282331378
 20
34.1469973319293274
 30
0.0
 40
124.5151927323846053
 50
90.8447553037677409
 51
91.3456608322849064
  0
ARC
  5
2F344
  8
0
 10
2917.6338482176929574
 20
159.8953622848507052
 30
0.0
 40
1.268007116571457
 50
261.0104020129709852
 51
271.6010887457825902
  0
ARC
  5
2F345
  8
0
 10
2923.5463898934917779
 20
173.8081311411681895
 30
0.0
 40
0.5358743373745132
 50
148.0946964357596016
 51
166.0496779678209123
  0
ARC
  5
2F346
  8
0
 10
2923.2672250126129256
 20
173.9861841839945953
 30
0.0
 40
0.2048126840547087
 50
98.7909236585228001
 51
149.1046138105054126
  0
ARC
  5
2F347
  8
0
 10
2923.2256962503638533
 20
174.0216315614291034
 30
0.0
 40
0.1672722458497619
 50
46.8092403081553883
 51
86.4946261305821906
  0
ARC
  5
2F348
  8
0
 10
2922.8523703989490059
 20
173.7538128917821894
 30
0.0
 40
0.624406705365082
 50
352.0268773729895884
 51
38.6256886956145209
  0
ARC
  5
2F349
  8
0
 10
2922.8227990862019396
 20
173.7054179480001892
 30
0.0
 40
0.649068031318352
 50
331.4439036300564112
 51
356.6246065246027115
  0
ARC
  5
2F34A
  8
0
 10
2923.1740657642430961
 20
173.5146238454499041
 30
0.0
 40
0.2493301319070788
 50
299.6823559168086035
 51
331.3684789048040216
  0
ARC
  5
2F34B
  8
0
 10
2923.2370584537948162
 20
173.4119904516115014
 30
0.0
 40
0.1287757146115345
 50
237.6694110376581079
 51
269.9200378914881071
  0
ARC
  5
2F34C
  8
0
 10
2923.2312166891701963
 20
173.4381506107743007
 30
0.0
 40
0.1550391720681624
 50
272.0929126150439856
 51
295.3236865550404104
  0
ARC
  5
2F34D
  8
0
 10
2923.4143674212677979
 20
173.6150751575221989
 30
0.0
 40
0.3973459103277887
 50
189.1999049787953027
 51
231.716165286840095
  0
ARC
  5
2F34E
  8
0
 10
2923.846270966289012
 20
173.7364662599472069
 30
0.0
 40
0.8446293095011989
 50
172.7919340584996917
 51
192.6464651963609924
  0
ARC
  5
2F34F
  8
0
 10
2923.7613789715301209
 20
173.7486832229351137
 30
0.0
 40
0.7588767357482775
 50
165.6068742794988111
 51
172.9028272596605973
  0
ARC
  5
2F350
  8
0
 10
2923.6505570585009082
 20
173.9214360731618001
 30
0.0
 40
0.7437448756852133
 50
137.5827131949606041
 51
163.177773619801286
  0
ARC
  5
2F351
  8
0
 10
2923.2845498977440002
 20
174.2558490972465108
 30
0.0
 40
0.2479694099723724
 50
93.4698900612597328
 51
137.5827131949606041
  0
ARC
  5
2F352
  8
0
 10
2923.3035315988340699
 20
174.4976487765956961
 30
0.0
 40
0.0344669308770806
 50
170.4554092680473047
 51
186.0117563633559996
  0
ARC
  5
2F353
  8
0
 10
2923.2853176637599972
 20
174.4957306362445024
 30
0.0
 40
0.0161522729961675
 50
186.0117563633592113
 51
220.3486633413126867
  0
ARC
  5
2F354
  8
0
 10
2923.2769190117860489
 20
174.4910705822784109
 30
0.0
 40
0.0069935401983618
 50
235.9944708897650116
 51
327.3710263891828731
  0
ARC
  5
2F355
  8
0
 10
2923.2576243968751442
 20
174.5083207059770984
 30
0.0
 40
0.0328045557149817
 50
320.1488227346652025
 51
351.309282315179189
  0
ARC
  5
2F356
  8
0
 10
2923.316511670132968
 20
174.2667098058535089
 30
0.0
 40
0.2335326817001262
 50
47.0153418532416012
 51
83.183272847818543
  0
ARC
  5
2F357
  8
0
 10
2923.071445425580805
 20
173.9936763561055102
 30
0.0
 40
0.6003927593796436
 50
13.7791742188692101
 51
47.6719216775947672
  0
ARC
  5
2F358
  8
0
 10
2923.6702414611909262
 20
174.1228066515708122
 30
0.0
 40
0.0209366962475386
 50
138.5056606393935112
 51
254.9774439377264912
  0
ARC
  5
2F359
  8
0
 10
2922.3557030384449718
 20
173.7358997523313064
 30
0.0
 40
1.359496867380265
 50
344.352295909447605
 51
15.6477040905524696
  0
ARC
  5
2F35A
  8
0
 10
2923.6702916425551848
 20
173.3489777582840929
 30
0.0
 40
0.0209643294902301
 50
105.1443222439834955
 51
221.3725731788692883
  0
ARC
  5
2F35B
  8
0
 10
2923.0289481159147726
 20
173.5009322370873122
 30
0.0
 40
0.6472115394291019
 50
316.108779215782306
 51
345.1557268318617275
  0
ARC
  5
2F35C
  8
0
 10
2923.3016071485058092
 20
173.2389453003225128
 30
0.0
 40
0.2690846076125623
 50
277.9639049791421144
 51
316.0599431683281182
  0
ARC
  5
2F35D
  8
0
 10
2923.2797970506408092
 20
172.967430275357799
 30
0.0
 40
0.0103044091424282
 50
5.5987691843084457
 51
174.4012308156817994
  0
ARC
  5
2F35E
  8
0
 10
2923.2940238469650467
 20
173.2369460828554111
 30
0.0
 40
0.2696242865530115
 50
222.4863016246081884
 51
264.790333049844719
  0
ARC
  5
2F35F
  8
0
 10
2923.6152153452057973
 20
173.5291624996883115
 30
0.0
 40
0.703851890954946
 50
196.0028198083255973
 51
222.3686353747235103
  0
ARC
  5
2F360
  8
0
 10
2922.9180050191312148
 20
173.3475032714069073
 30
0.0
 40
0.0240639773531384
 50
329.033107112631285
 51
64.4499974645159597
  0
ARC
  5
2F361
  8
0
 10
2924.1844473464470866
 20
173.7187030757839921
 30
0.0
 40
1.303778466053223
 50
184.5546385808187893
 51
195.5487762821913975
  0
ARC
  5
2F362
  8
0
 10
2924.2805024058161507
 20
173.7359856285964099
 30
0.0
 40
1.4009354869235091
 50
164.8300993868315913
 51
184.9472756046793052
  0
ARC
  5
2F363
  8
0
 10
2922.9324962880709791
 20
174.1045899905898011
 30
0.0
 40
0.0045750132294007
 50
205.9853148774203078
 51
260.8709047027525116
  0
ARC
  5
2F364
  8
0
 10
2922.9310170267840476
 20
174.1053620743925876
 30
0.0
 40
0.0053425345878282
 50
278.1067425908366886
 51
328.4249404637586736
  0
ARC
  5
2F365
  8
0
 10
2922.8998653885259955
 20
174.1230319917650036
 30
0.0
 40
0.0411537788626684
 50
330.1759429495073164
 51
2.222187219163156
  0
ARC
  5
2F366
  8
0
 10
2922.9127783920230286
 20
174.1253825409081912
 30
0.0
 40
0.0282199234573474
 50
358.4672804518544922
 51
23.5951633851230298
  0
ARC
  5
2F368
  8
0
 10
2923.2856899598177733
 20
174.1439196946390098
 30
0.0
 40
0.3594706913169609
 50
80.6275111132139557
 51
89.3046721158879109
  0
ARC
  5
2F369
  8
0
 10
2923.2657975510260258
 20
173.5616997953869998
 30
0.0
 40
0.5937598094656565
 50
272.3411515162704859
 51
277.0709714542574034
  0
ENDSEC
  0
EOF
