  0
SECTION
  2
HEADER
  9
$ACADVER
  1
AC1009
  9
$INSBASE
 10
4132.6651484555213756
 20
143.5018959889555958
 30
0.0
  9
$EXTMIN
 10
4124.3843825231524534
 20
134.4410439982837033
 30
-0.0015258207003583
  9
$EXTMAX
 10
4141.0408113103976575
 20
152.5660591901792031
 30
0.0000000349246037
  9
$LIMMIN
 10
0.0
 20
0.0
  9
$LIMMAX
 10
11.6929133858000007
 20
8.2677165353999982
  9
$ORTHOMODE
 70
     0
  9
$REGENMODE
 70
     1
  9
$FILLMODE
 70
     1
  9
$QTEXTMODE
 70
     0
  9
$MIRRTEXT
 70
     0
  9
$DRAGMODE
 70
     2
  9
$LTSCALE
 40
0.6431102362
  9
$OSMODE
 70
  4095
  9
$ATTMODE
 70
     1
  9
$TEXTSIZE
 40
0.2
  9
$TRACEWID
 40
0.05
  9
$TEXTSTYLE
  7
STANDARD
  9
$CLAYER
  8
0
  9
$CELTYPE
  6
BYLAYER
  9
$CECOLOR
 62
   256
  9
$DIMSCALE
 40
1.0
  9
$DIMASZ
 40
0.1875
  9
$DIMEXO
 40
0.0625
  9
$DIMDLI
 40
0.4443307087
  9
$DIMRND
 40
0.0
  9
$DIMDLE
 40
0.0
  9
$DIMEXE
 40
0.125
  9
$DIMTP
 40
0.01
  9
$DIMTM
 40
0.01
  9
$DIMTXT
 40
2.0
  9
$DIMCEN
 40
0.1052362205
  9
$DIMTSZ
 40
0.0
  9
$DIMTOL
 70
     1
  9
$DIMLIM
 70
     0
  9
$DIMTIH
 70
     1
  9
$DIMTOH
 70
     1
  9
$DIMSE1
 70
     0
  9
$DIMSE2
 70
     0
  9
$DIMTAD
 70
     0
  9
$DIMZIN
 70
     0
  9
$DIMBLK
  1

  9
$DIMASO
 70
     1
  9
$DIMSHO
 70
     1
  9
$DIMPOST
  1
\X
  9
$DIMAPOST
  1

  9
$DIMALT
 70
     1
  9
$DIMALTD
 70
     2
  9
$DIMALTF
 40
25.3999999999999986
  9
$DIMLFAC
 40
1.0
  9
$DIMTOFL
 70
     0
  9
$DIMTVP
 40
0.0
  9
$DIMTIX
 70
     0
  9
$DIMSOXD
 70
     0
  9
$DIMSAH
 70
     0
  9
$DIMBLK1
  1

  9
$DIMBLK2
  1

  9
$DIMSTYLE
  2
STANDARD
  9
$DIMCLRD
 70
     0
  9
$DIMCLRE
 70
     0
  9
$DIMCLRT
 70
     0
  9
$DIMTFAC
 40
1.0
  9
$DIMGAP
 40
0.09
  9
$LUNITS
 70
     2
  9
$LUPREC
 70
     4
  9
$SKETCHINC
 40
0.1
  9
$FILLETRAD
 40
0.0
  9
$AUNITS
 70
     0
  9
$AUPREC
 70
     0
  9
$MENU
  1
.
  9
$ELEVATION
 40
0.0
  9
$PELEVATION
 40
0.0
  9
$THICKNESS
 40
0.0
  9
$LIMCHECK
 70
     0
  9
$BLIPMODE
 70
     0
  9
$CHAMFERA
 40
0.0
  9
$CHAMFERB
 40
0.0
  9
$SKPOLY
 70
     0
  9
$TDCREATE
 40
2458060.468368056230247
  9
$TDUPDATE
 40
2459132.5051851850003004
  9
$TDINDWG
 40
0.4248913194
  9
$TDUSRTIMER
 40
0.4248913194
  9
$USRTIMER
 70
     1
  9
$ANGBASE
 50
0.0
  9
$ANGDIR
 70
     0
  9
$PDMODE
 70
     0
  9
$PDSIZE
 40
0.3125
  9
$PLINEWID
 40
0.0
  9
$COORDS
 70
     1
  9
$SPLFRAME
 70
     0
  9
$SPLINETYPE
 70
     6
  9
$SPLINESEGS
 70
     8
  9
$ATTDIA
 70
     1
  9
$ATTREQ
 70
     1
  9
$HANDLING
 70
     1
  9
$HANDSEED
  5
16B12
  9
$SURFTAB1
 70
     6
  9
$SURFTAB2
 70
     6
  9
$SURFTYPE
 70
     6
  9
$SURFU
 70
     6
  9
$SURFV
 70
     6
  9
$UCSNAME
  2

  9
$UCSORG
 10
0.0
 20
0.0
 30
0.0
  9
$UCSXDIR
 10
1.0
 20
0.0
 30
0.0
  9
$UCSYDIR
 10
0.0
 20
1.0
 30
0.0
  9
$PUCSNAME
  2

  9
$PUCSORG
 10
0.0
 20
0.0
 30
0.0
  9
$PUCSXDIR
 10
1.0
 20
0.0
 30
0.0
  9
$PUCSYDIR
 10
0.0
 20
1.0
 30
0.0
  9
$USERI1
 70
     0
  9
$USERI2
 70
     0
  9
$USERI3
 70
     0
  9
$USERI4
 70
     0
  9
$USERI5
 70
     0
  9
$USERR1
 40
0.0
  9
$USERR2
 40
0.0
  9
$USERR3
 40
0.0
  9
$USERR4
 40
0.0
  9
$USERR5
 40
0.0
  9
$WORLDVIEW
 70
     1
  9
$SHADEDGE
 70
     3
  9
$SHADEDIF
 70
    70
  9
$TILEMODE
 70
     1
  9
$MAXACTVP
 70
    64
  9
$PLIMCHECK
 70
     0
  9
$PEXTMIN
 10
1.0000000000000000E+20
 20
1.0000000000000000E+20
 30
1.0000000000000000E+20
  9
$PEXTMAX
 10
-1.0000000000000000E+20
 20
-1.0000000000000000E+20
 30
-1.0000000000000000E+20
  9
$PLIMMIN
 10
0.0
 20
0.0
  9
$PLIMMAX
 10
12.0
 20
9.0
  9
$UNITMODE
 70
     0
  9
$VISRETAIN
 70
     1
  9
$PLINEGEN
 70
     0
  9
$PSLTSCALE
 70
     1
  0
ENDSEC
  0
SECTION
  2
TABLES
  0
TABLE
  2
VPORT
 70
     1
  0
VPORT
  2
*ACTIVE
 70
     0
 10
0.0
 20
0.0
 11
1.0
 21
1.0
 12
221.3472404899777075
 22
10.9239464668353801
 13
0.0
 23
0.0
 14
1.0
 24
1.0
 15
0.0
 25
0.0
 16
0.0
 26
0.0
 36
60.4960186965801583
 17
3911.3653564453120453
 27
132.5796051025390057
 37
0.0
 40
20.2524464131831294
 41
1.8525498891352541
 42
50.0
 43
0.0
 44
0.0
 50
0.0
 51
0.0
 71
     0
 72
   100
 73
     1
 74
     1
 75
     0
 76
     0
 77
     0
 78
     0
  0
ENDTAB
  0
TABLE
  2
LTYPE
 70
     2
  0
LTYPE
  2
CONTINUOUS
 70
     0
  3
Solid line
 72
    65
 73
     0
 40
0.0
  0
LTYPE
  2
PHANTOM2
 70
     0
  3
___ _ _ ___ _ _ ___ _ _ ___ _ _
 72
    65
 73
     6
 40
1.25
 49
0.625
 49
-0.125
 49
0.125
 49
-0.125
 49
0.125
 49
-0.125
  0
ENDTAB
  0
TABLE
  2
LAYER
 70
     2
  0
LAYER
  2
0
 70
     0
 62
   255
  6
CONTINUOUS
  0
LAYER
  2
DEFPOINTS
 70
     0
 62
     7
  6
CONTINUOUS
  0
ENDTAB
  0
TABLE
  2
STYLE
 70
     1
  0
STYLE
  2
STANDARD
 70
     0
 40
0.0
 41
0.8
 50
0.0
 71
     0
 42
0.2
  3
txt
  4

  0
ENDTAB
  0
TABLE
  2
VIEW
 70
     0
  0
ENDTAB
  0
TABLE
  2
UCS
 70
     0
  0
ENDTAB
  0
TABLE
  2
APPID
 70
    11
  0
APPID
  2
ACAD
 70
     0
  0
APPID
  2
ACAD_MLEADERVER
 70
     0
  0
APPID
  2
ACAD_EXEMPT_FROM_CAD_STANDARDS
 70
     0
  0
APPID
  2
ACAD_NAV_VCDISPLAY
 70
     0
  0
APPID
  2
ACAECLAYERSTANDARD
 70
     0
  0
APPID
  2
ACCMTRANSPARENCY
 70
     0
  0
APPID
  2
ACAD_DSTYLE_DIMJAG
 70
     0
  0
APPID
  2
ACAD_DSTYLE_DIMTALN
 70
     0
  0
APPID
  2
ACDBATTR
 70
     0
  0
APPID
  2
ACADANNOTATIVE
 70
     0
  0
APPID
  2
DCO15
 70
     0
  0
ENDTAB
  0
TABLE
  2
DIMSTYLE
 70
     1
  0
DIMSTYLE
  2
STANDARD
 70
     0
  3

  4

  5

  6

  7

 40
1.0
 41
0.1875
 42
0.0625
 43
0.38
 44
0.125
 45
0.0
 46
0.0
 47
0.01
 48
0.01
140
0.15625
141
0.09
142
0.0
143
25.3999999999999986
144
1.0
145
0.0
146
1.0
147
0.09
 71
     1
 72
     0
 73
     1
 74
     1
 75
     0
 76
     0
 77
     0
 78
     4
170
     0
171
     2
172
     0
173
     0
174
     0
175
     0
176
     0
177
     0
178
     0
  0
ENDTAB
  0
ENDSEC
  0
SECTION
  2
BLOCKS
  0
BLOCK
  8
0
  2
$MODEL_SPACE
 70
     0
 10
0.0
 20
0.0
 30
0.0
  3
$MODEL_SPACE
  1

  0
ENDBLK
  5
21
  8
0
  0
BLOCK
 67
     1
  8
0
  2
$PAPER_SPACE
 70
     0
 10
0.0
 20
0.0
 30
0.0
  3
$PAPER_SPACE
  1

  0
ENDBLK
  5
1D
 67
     1
  8
0
  0
ENDSEC
  0
SECTION
  2
ENTITIES
  0
LINE
  5
169A4
  8
0
  6
CONTINUOUS
 62
     7
 10
4138.8371697153716013
 20
134.4467778787555972
 30
0.0
 11
4126.4931271956711498
 21
134.4467778787555972
 31
0.0
  0
LINE
  5
169A5
  8
0
  6
CONTINUOUS
 62
     7
 10
4138.7302356364707521
 20
134.5516119575555933
 30
0.0
 11
4126.6000612745710896
 21
134.5516119575555933
 31
0.0
  0
ARC
  5
169A6
  8
0
  6
CONTINUOUS
 62
     7
 10
4138.7302356364707521
 20
136.5116119575556013
 30
0.0
 40
1.9599999999999991
 50
270.0
 51
0.0
  0
LINE
  5
169A7
  8
0
  6
CONTINUOUS
 62
     7
 10
4124.5352271956708137
 20
136.4046778787555922
 30
0.0
 11
4124.5352271956708137
 21
150.5991140991555994
 31
0.0
  0
ARC
  5
169A8
  8
0
  6
CONTINUOUS
 62
     7
 10
4126.4931271956711498
 20
136.4046778787555922
 30
0.0
 40
1.9579
 50
180.0
 51
270.0
  0
LINE
  5
169A9
  8
0
  6
CONTINUOUS
 62
     7
 10
4124.6400612745710532
 20
136.5116119575556013
 30
0.0
 11
4124.6400612745710532
 21
150.4921800203555904
 31
0.0
  0
ARC
  5
169AA
  8
0
  6
CONTINUOUS
 62
     7
 10
4126.6000612745710896
 20
136.5116119575556013
 30
0.0
 40
1.9599999999999991
 50
180.0
 51
270.0
  0
LINE
  5
169AB
  8
0
  6
CONTINUOUS
 62
     7
 10
4140.6902356364716979
 20
150.4921800203555904
 30
0.0
 11
4140.6902356364716979
 21
136.5116119575556013
 31
0.0
  0
ARC
  5
169AC
  8
0
  6
CONTINUOUS
 62
     7
 10
4138.7302356364707521
 20
150.4921800203555904
 30
0.0
 40
1.9599999999999991
 50
0.0
 51
90.0
  0
LINE
  5
169AD
  8
0
  6
CONTINUOUS
 62
     7
 10
4140.795069715371028
 20
150.5991140991555994
 30
0.0
 11
4140.795069715371028
 21
136.4046778787555922
 31
0.0
  0
ARC
  5
169AE
  8
0
  6
CONTINUOUS
 62
     7
 10
4138.8371697153716013
 20
136.4046778787555922
 30
0.0
 40
1.9579
 50
270.0
 51
0.0
  0
ARC
  5
169AF
  8
0
  6
CONTINUOUS
 62
     7
 10
4138.8371697153716013
 20
150.5991140991555994
 30
0.0
 40
1.9579
 50
0.0
 51
90.0
  0
LINE
  5
169B0
  8
0
  6
CONTINUOUS
 62
     7
 10
4126.6000612745710896
 20
152.4521800203555983
 30
0.0
 11
4138.7302356364707521
 21
152.4521800203555983
 31
0.0
  0
ARC
  5
169B1
  8
0
  6
CONTINUOUS
 62
     7
 10
4126.6000612745710896
 20
150.4921800203555904
 30
0.0
 40
1.9599999999999991
 50
90.0
 51
180.0
  0
LINE
  5
169B2
  8
0
  6
CONTINUOUS
 62
     7
 10
4126.4931271956711498
 20
152.5570140991555945
 30
0.0
 11
4138.8371697153716013
 21
152.5570140991555945
 31
0.0
  0
ARC
  5
169B3
  8
0
  6
CONTINUOUS
 62
     7
 10
4126.4931271956711498
 20
150.5991140991555994
 30
0.0
 40
1.9579
 50
90.0
 51
180.0
  0
CIRCLE
  5
169B4
  8
0
  6
CONTINUOUS
 62
     7
 10
4132.6651484555713978
 20
142.2420534692556089
 30
0.0
 40
1.3385826772
  0
CIRCLE
  5
169B5
  8
0
  6
CONTINUOUS
 62
     7
 10
4132.6651484555713978
 20
150.7066203984556125
 30
0.0
 40
0.688976378
  0
LINE
  5
169B6
  8
0
  6
CONTINUOUS
 62
     7
 10
4125.5627858359221136
 20
137.0861701660126073
 30
0.0
 11
4125.5627876618191294
 21
147.397937330863499
 31
0.0
  0
LINE
  5
169B7
  8
0
  6
CONTINUOUS
 62
     7
 10
4138.1911111873732807
 20
135.5097707040307
 30
0.0
 11
4127.1391859524774191
 21
135.5097698868804912
 31
0.0
  0
ARC
  5
169B8
  8
0
  6
CONTINUOUS
 62
     7
 10
4127.139185835922035
 20
137.0861698868804979
 30
0.0
 40
1.5764
 50
179.9999898546734016
 51
270.0000042362992758
  0
LINE
  5
169B9
  8
0
  6
CONTINUOUS
 62
     7
 10
4127.1391877784026292
 20
148.974337051731311
 30
0.0
 11
4138.1911093609087402
 21
148.9743362343797912
 31
0.0
  0
ARC
  5
169BA
  8
0
  6
CONTINUOUS
 62
     7
 10
4138.1911092443251619
 20
147.397936234379813
 30
0.0
 40
1.5764
 50
0.0000101486307185
 51
89.9999957626584433
  0
ARC
  5
169BB
  8
0
  6
CONTINUOUS
 62
     7
 10
4127.1391876618199603
 20
147.3979370517313896
 30
0.0
 40
1.5764
 50
89.9999957626584433
 51
179.9999898546734016
  0
LINE
  5
169BC
  8
0
  6
CONTINUOUS
 62
     7
 10
4139.7675110708169086
 20
137.0861709832537088
 30
0.0
 11
4139.7675092443241738
 21
147.3979365136029003
 31
0.0
  0
ARC
  5
169BD
  8
0
  6
CONTINUOUS
 62
     7
 10
4138.1911110708169872
 20
137.0861707040307067
 30
0.0
 40
1.5764
 50
270.0000042362992758
 51
0.0000101486307185
  0
LINE
  5
169BF
  8
0
  6
CONTINUOUS
 62
     7
 10
4133.6384000357411423
 20
143.1610664971269102
 30
0.0
 11
4139.3057923166861656
 21
148.5126194217440059
 31
0.0
  0
LINE
  5
169C0
  8
0
  6
CONTINUOUS
 62
     7
 10
4131.6918969465750706
 20
143.1610665725006868
 30
0.0
 11
4126.0245046718637241
 21
148.5126203215004921
 31
0.0
  0
LINE
  5
169C1
  8
0
  6
CONTINUOUS
 62
     7
 10
4133.6384001899950817
 20
141.3230406047422889
 30
0.0
 11
4139.3057943406083723
 21
135.9714877140968099
 31
0.0
  0
LINE
  5
169C2
  8
0
  6
CONTINUOUS
 62
     7
 10
4131.6918967930459985
 20
141.3230405286005862
 30
0.0
 11
4126.0245026485790731
 21
135.9714868144978084
 31
0.0
  0
POINT
  5
169C3
  8
DEFPOINTS
 10
4132.6651484555713978
 20
150.7066203984556125
 30
0.0
  0
ATTDEF
  5
169C4
  8
DEFPOINTS
 10
4132.6654931706389107
 20
143.5008665216188888
 30
0.0
 40
0.001
  1
K-20159IN-1
  3

  2
MODELNUMBER
 70
     0
1001
ACDBATTR
1070
     0
1070
     1
  0
ATTDEF
  5
169C5
  8
DEFPOINTS
 10
4132.6653673609807811
 20
143.4991996812397872
 30
0.0
 40
0.001
  1
FOREFRONT
  3

  2
TRADENAME
 70
     0
1001
ACDBATTR
1070
     0
1070
     1
  0
ATTDEF
  5
169C6
  8
DEFPOINTS
 10
4132.6654931706389107
 20
143.4975331882855869
 30
0.0
 40
0.001
  1
BATHROOM SINK
  3

  2
PRODUCT
 70
     0
1001
ACDBATTR
1070
     0
1070
     1
  0
ENDSEC
  0
EOF
