  0
SECTION
  2
HEADER
  9
$ACADVER
  1
AC1009
  9
$INSBASE
 10
2212.7342391962938564
 20
166.4223834502608099
 30
0.0
  9
$EXTMIN
 10
2203.1581295673558998
 20
166.4223171302357969
 30
-0.0015258207003583
  9
$EXTMAX
 10
2222.3166134328780572
 20
193.4617369055038978
 30
0.0000000349246037
  9
$LIMMIN
 10
0.0
 20
0.0
  9
$LIMMAX
 10
11.6929133858000007
 20
8.2677165353999982
  9
$ORTHOMODE
 70
     0
  9
$REGENMODE
 70
     1
  9
$FILLMODE
 70
     1
  9
$QTEXTMODE
 70
     0
  9
$MIRRTEXT
 70
     0
  9
$DRAGMODE
 70
     2
  9
$LTSCALE
 40
0.6431102362
  9
$OSMODE
 70
  4095
  9
$ATTMODE
 70
     1
  9
$TEXTSIZE
 40
0.2
  9
$TRACEWID
 40
0.05
  9
$TEXTSTYLE
  7
STANDARD
  9
$CLAYER
  8
0
  9
$CELTYPE
  6
BYLAYER
  9
$CECOLOR
 62
   256
  9
$DIMSCALE
 40
1.0
  9
$DIMASZ
 40
0.1875
  9
$DIMEXO
 40
0.0625
  9
$DIMDLI
 40
0.4443307087
  9
$DIMRND
 40
0.0
  9
$DIMDLE
 40
0.0
  9
$DIMEXE
 40
0.125
  9
$DIMTP
 40
0.01
  9
$DIMTM
 40
0.01
  9
$DIMTXT
 40
2.0
  9
$DIMCEN
 40
0.1052362205
  9
$DIMTSZ
 40
0.0
  9
$DIMTOL
 70
     1
  9
$DIMLIM
 70
     0
  9
$DIMTIH
 70
     1
  9
$DIMTOH
 70
     1
  9
$DIMSE1
 70
     0
  9
$DIMSE2
 70
     0
  9
$DIMTAD
 70
     0
  9
$DIMZIN
 70
     0
  9
$DIMBLK
  1

  9
$DIMASO
 70
     1
  9
$DIMSHO
 70
     1
  9
$DIMPOST
  1
\X
  9
$DIMAPOST
  1

  9
$DIMALT
 70
     1
  9
$DIMALTD
 70
     2
  9
$DIMALTF
 40
25.3999999999999986
  9
$DIMLFAC
 40
1.0
  9
$DIMTOFL
 70
     0
  9
$DIMTVP
 40
0.0
  9
$DIMTIX
 70
     0
  9
$DIMSOXD
 70
     0
  9
$DIMSAH
 70
     0
  9
$DIMBLK1
  1

  9
$DIMBLK2
  1

  9
$DIMSTYLE
  2
STANDARD
  9
$DIMCLRD
 70
     0
  9
$DIMCLRE
 70
     0
  9
$DIMCLRT
 70
     0
  9
$DIMTFAC
 40
1.0
  9
$DIMGAP
 40
0.09
  9
$LUNITS
 70
     2
  9
$LUPREC
 70
     4
  9
$SKETCHINC
 40
0.1
  9
$FILLETRAD
 40
0.0
  9
$AUNITS
 70
     0
  9
$AUPREC
 70
     0
  9
$MENU
  1
.
  9
$ELEVATION
 40
0.0
  9
$PELEVATION
 40
0.0
  9
$THICKNESS
 40
0.0
  9
$LIMCHECK
 70
     0
  9
$BLIPMODE
 70
     0
  9
$CHAMFERA
 40
0.0
  9
$CHAMFERB
 40
0.0
  9
$SKPOLY
 70
     0
  9
$TDCREATE
 40
2458060.468368056230247
  9
$TDUPDATE
 40
2460048.3781365738250315
  9
$TDINDWG
 40
0.3415704051
  9
$TDUSRTIMER
 40
0.3415704051
  9
$USRTIMER
 70
     1
  9
$ANGBASE
 50
0.0
  9
$ANGDIR
 70
     0
  9
$PDMODE
 70
     0
  9
$PDSIZE
 40
0.3125
  9
$PLINEWID
 40
0.0
  9
$COORDS
 70
     1
  9
$SPLFRAME
 70
     0
  9
$SPLINETYPE
 70
     6
  9
$SPLINESEGS
 70
     8
  9
$ATTDIA
 70
     1
  9
$ATTREQ
 70
     1
  9
$HANDLING
 70
     1
  9
$HANDSEED
  5
961E
  9
$SURFTAB1
 70
     6
  9
$SURFTAB2
 70
     6
  9
$SURFTYPE
 70
     6
  9
$SURFU
 70
     6
  9
$SURFV
 70
     6
  9
$UCSNAME
  2

  9
$UCSORG
 10
0.0
 20
0.0
 30
0.0
  9
$UCSXDIR
 10
1.0
 20
0.0
 30
0.0
  9
$UCSYDIR
 10
0.0
 20
1.0
 30
0.0
  9
$PUCSNAME
  2

  9
$PUCSORG
 10
0.0
 20
0.0
 30
0.0
  9
$PUCSXDIR
 10
1.0
 20
0.0
 30
0.0
  9
$PUCSYDIR
 10
0.0
 20
1.0
 30
0.0
  9
$USERI1
 70
     0
  9
$USERI2
 70
     0
  9
$USERI3
 70
     0
  9
$USERI4
 70
     0
  9
$USERI5
 70
     0
  9
$USERR1
 40
0.0
  9
$USERR2
 40
0.0
  9
$USERR3
 40
0.0
  9
$USERR4
 40
0.0
  9
$USERR5
 40
0.0
  9
$WORLDVIEW
 70
     1
  9
$SHADEDGE
 70
     3
  9
$SHADEDIF
 70
    70
  9
$TILEMODE
 70
     1
  9
$MAXACTVP
 70
    64
  9
$PLIMCHECK
 70
     0
  9
$PEXTMIN
 10
1.0000000000000000E+20
 20
1.0000000000000000E+20
 30
1.0000000000000000E+20
  9
$PEXTMAX
 10
-1.0000000000000000E+20
 20
-1.0000000000000000E+20
 30
-1.0000000000000000E+20
  9
$PLIMMIN
 10
0.0
 20
0.0
  9
$PLIMMAX
 10
12.0
 20
9.0
  9
$UNITMODE
 70
     0
  9
$VISRETAIN
 70
     1
  9
$PLINEGEN
 70
     0
  9
$PSLTSCALE
 70
     1
  0
ENDSEC
  0
SECTION
  2
TABLES
  0
TABLE
  2
VPORT
 70
     1
  0
VPORT
  2
*ACTIVE
 70
     0
 10
0.0
 20
0.0
 11
1.0
 21
1.0
 12
1252.230275279388934
 22
102.9359578345201953
 13
0.0
 23
0.0
 14
1.0
 24
1.0
 15
0.0
 25
0.0
 16
0.0
 26
0.0
 36
82.6066804857415349
 17
960.5070962207281582
 27
77.0060691833496094
 37
0.0
 40
27.2244101044032583
 41
2.1792237442922371
 42
50.0
 43
0.0
 44
0.0
 50
0.0
 51
0.0
 71
     0
 72
   100
 73
     1
 74
     1
 75
     0
 76
     0
 77
     0
 78
     1
  0
ENDTAB
  0
TABLE
  2
LTYPE
 70
     2
  0
LTYPE
  2
CONTINUOUS
 70
     0
  3
Solid line
 72
    65
 73
     0
 40
0.0
  0
LTYPE
  2
PHANTOM2
 70
     0
  3
___ _ _ ___ _ _ ___ _ _ ___ _ _
 72
    65
 73
     6
 40
1.25
 49
0.625
 49
-0.125
 49
0.125
 49
-0.125
 49
0.125
 49
-0.125
  0
ENDTAB
  0
TABLE
  2
LAYER
 70
     2
  0
LAYER
  2
0
 70
     0
 62
   255
  6
CONTINUOUS
  0
LAYER
  2
DEFPOINTS
 70
     0
 62
     7
  6
CONTINUOUS
  0
ENDTAB
  0
TABLE
  2
STYLE
 70
     1
  0
STYLE
  2
STANDARD
 70
     0
 40
0.0
 41
0.8
 50
0.0
 71
     0
 42
0.2
  3
txt
  4

  0
ENDTAB
  0
TABLE
  2
VIEW
 70
     0
  0
ENDTAB
  0
TABLE
  2
UCS
 70
     0
  0
ENDTAB
  0
TABLE
  2
APPID
 70
     9
  0
APPID
  2
ACAD
 70
     0
  0
APPID
  2
ACAD_MLEADERVER
 70
     0
  0
APPID
  2
ACAD_EXEMPT_FROM_CAD_STANDARDS
 70
     0
  0
APPID
  2
ACAD_NAV_VCDISPLAY
 70
     0
  0
APPID
  2
ACAECLAYERSTANDARD
 70
     0
  0
APPID
  2
ACCMTRANSPARENCY
 70
     0
  0
APPID
  2
ACAD_DSTYLE_DIMJAG
 70
     0
  0
APPID
  2
ACAD_DSTYLE_DIMTALN
 70
     0
  0
APPID
  2
ACDBATTR
 70
     0
  0
ENDTAB
  0
TABLE
  2
DIMSTYLE
 70
     1
  0
DIMSTYLE
  2
STANDARD
 70
     0
  3

  4

  5

  6

  7

 40
1.0
 41
0.1875
 42
0.0625
 43
0.38
 44
0.125
 45
0.0
 46
0.0
 47
0.01
 48
0.01
140
0.15625
141
0.09
142
0.0
143
25.3999999999999986
144
1.0
145
0.0
146
1.0
147
0.09
 71
     1
 72
     0
 73
     1
 74
     1
 75
     0
 76
     0
 77
     0
 78
     4
170
     0
171
     2
172
     0
173
     0
174
     0
175
     0
176
     0
177
     0
178
     0
  0
ENDTAB
  0
ENDSEC
  0
SECTION
  2
BLOCKS
  0
BLOCK
  8
0
  2
$MODEL_SPACE
 70
     0
 10
0.0
 20
0.0
 30
0.0
  3
$MODEL_SPACE
  1

  0
ENDBLK
  5
21
  8
0
  0
BLOCK
 67
     1
  8
0
  2
$PAPER_SPACE
 70
     0
 10
0.0
 20
0.0
 30
0.0
  3
$PAPER_SPACE
  1

  0
ENDBLK
  5
1D
 67
     1
  8
0
  0
ENDSEC
  0
SECTION
  2
ENTITIES
  0
ATTDEF
  5
90AB
  8
DEFPOINTS
 10
2212.7348717301752004
 20
166.4268711128030986
 30
0.0
 40
0.001
  1
K-20169T-S
  3

  2
MODELNUMBER
 70
     0
1001
ACDBATTR
1070
     0
1070
     1
  0
ATTDEF
  5
90AC
  8
DEFPOINTS
 10
2212.7348717301752004
 20
166.4252044461364051
 30
0.0
 40
0.001
  1
SANTA ROSA
  3

  2
TRADENAME
 70
     0
1001
ACDBATTR
1070
     0
1070
     1
  0
ATTDEF
  5
90AD
  8
DEFPOINTS
 10
2212.7348717301752004
 20
166.4235377794697968
 30
0.0
 40
0.001
  1
TOILET
  3

  2
PRODUCT
 70
     0
1001
ACDBATTR
1070
     0
1070
     1
  0
LINE
  5
93AF
  8
0
 10
2205.8960779661829292
 20
181.5780656627607925
 30
0.0
 11
2219.5724004264047835
 21
181.5780656627607925
 31
0.0
  0
ARC
  5
93B0
  8
0
 10
2212.9246205347781142
 20
39.3116087682118831
 30
0.0
 40
144.1312373735376866
 50
90.0756813759695234
 51
91.3690754463825101
  0
ARC
  5
93B1
  8
0
 10
2211.1544596095818633
 20
113.419909783460696
 30
0.0
 40
70.001798234471778
 50
91.3698811904465344
 51
92.4725372778890744
  0
ARC
  5
93B2
  8
0
 10
2208.3348361859989382
 20
178.71810637123329
 30
0.0
 40
4.6427533067326872
 50
92.4725372778890744
 51
98.7779818090702122
  0
ARC
  5
93B3
  8
0
 10
2207.9846998322800573
 20
180.9856129444632984
 30
0.0
 40
2.3483728836474609
 50
98.7779818090702122
 51
106.629323067624199
  0
ARC
  5
93B4
  8
0
 10
2194.4972339348591959
 20
229.0976695524022944
 30
0.0
 40
47.6187859956555499
 50
283.971520603430406
 51
285.6122129170806829
  0
ARC
  5
93B5
  8
0
 10
2206.226254331545988
 20
181.8792505813927107
 30
0.0
 40
1.0347291545557831
 50
102.9544104528899027
 51
116.125086240339499
  0
ARC
  5
93B6
  8
0
 10
2205.8814201676427729
 20
182.5823653050769053
 30
0.0
 40
0.251606612895808
 50
116.125086240339499
 51
170.4801101944333084
  0
LINE
  5
93B7
  8
0
 10
2205.6332786188590944
 20
182.6239785171607934
 30
0.0
 11
2205.5049904448587768
 21
181.775019593960792
 31
0.0
  0
ARC
  5
93B8
  8
0
 10
2205.5645021832019665
 20
181.7721141874972091
 30
0.0
 40
0.0595826181633957
 50
177.2049974483549022
 51
269.4650136128524878
  0
LINE
  5
93B9
  8
0
 10
2205.5639458520590779
 20
181.7125341666607881
 30
0.0
 11
2219.9045324383591833
 21
181.7125341666607881
 31
0.0
  0
LINE
  5
93BA
  8
0
 10
2203.227911431920802
 20
179.7079382199607949
 30
0.0
 11
2222.235996910169888
 21
179.7079382199607949
 31
0.0
  0
LINE
  5
93BB
  8
0
 10
2203.227911431920802
 20
179.7079382199607949
 30
0.0
 11
2203.2691675769601716
 21
181.5937664623608043
 31
0.0
  0
ARC
  5
93BC
  8
0
 10
2247.5694451230961022
 20
180.4901416484096046
 30
0.0
 40
44.3140223675830995
 50
175.536910733117395
 51
178.5729216380221089
  0
ARC
  5
93BD
  8
0
 10
2257.4112699850638819
 20
180.9170688249521959
 30
0.0
 40
54.1059022610519094
 50
173.3108453147160049
 51
176.7987509920297953
  0
ARC
  5
93BE
  8
0
 10
2238.9142040639680999
 20
182.5667598744493034
 30
0.0
 40
35.5463378353559918
 50
167.8966454024385087
 51
172.4788894456241053
  0
LINE
  5
93BF
  8
0
 10
2204.5797939101589691
 20
191.7194556782191057
 30
0.0
 11
2220.8886843802588373
 21
191.7194556782191057
 31
0.0
  0
LINE
  5
93C0
  8
0
 10
2204.8503268859599302
 20
191.719455690060812
 30
0.0
 11
2204.8502189623591221
 21
191.7038771492607907
 31
0.0
  0
ARC
  5
93C1
  8
0
 10
2204.7709516438840183
 20
191.7044262901900993
 30
0.0
 40
0.07926922059729
 50
282.8306481411797222
 51
359.6030778524677771
  0
ARC
  5
93C2
  8
0
 10
2201.1119005966797886
 20
207.7700172155782923
 30
0.0
 40
16.5562794575291186
 50
282.2245825203373784
 51
282.8306481411797222
  0
ARC
  5
93C3
  8
0
 10
2204.6590362211918546
 20
191.3978762086491088
 30
0.0
 40
0.1957106418429156
 50
102.2245825203374068
 51
167.3239668571806078
  0
ARC
  5
93C4
  8
0
 10
2389.6932223745411648
 20
149.7799445754934027
 30
0.0
 40
189.8525119405410919
 50
167.3239668571806078
 51
167.4912431031883955
  0
LINE
  5
93C5
  8
0
 10
2204.1293386056590862
 20
190.0261012595607895
 30
0.0
 11
2204.1607107396589527
 21
190.0194089055607947
 31
0.0
  0
LINE
  5
93C6
  8
0
 10
2204.1607107396589527
 20
190.0194089055607947
 30
0.0
 11
2204.3484746855979211
 21
190.8996047666281868
 31
0.0
  0
LINE
  5
93C7
  8
0
 10
2204.3484746855979211
 20
190.8996047666281868
 30
0.0
 11
2204.3169910822598467
 21
190.9056905609315038
 31
0.0
  0
ARC
  5
93C8
  8
0
 10
2207.2952549143838041
 20
190.8465114621033081
 30
0.0
 40
2.9539762149792499
 50
174.0457525151497009
 51
175.0695368911790979
  0
LINE
  5
93C9
  8
0
 10
2204.3572152604601797
 20
191.1529400355607891
 30
0.0
 11
2204.3198929113591475
 21
191.1609487055607985
 31
0.0
  0
ARC
  5
93CA
  8
0
 10
2204.3148646153458685
 20
191.1375156237627948
 30
0.0
 40
0.0239664991885481
 50
77.8890636315228164
 51
126.9105696577776001
  0
ARC
  5
93CB
  8
0
 10
2202.4950123031630937
 20
193.5604003178360131
 30
0.0
 40
3.0062534068466382
 50
298.112808096625713
 51
306.9105696577776143
  0
ARC
  5
93CC
  8
0
 10
2201.131637150107963
 20
196.1124018878574873
 30
0.0
 40
5.8996085218227661
 50
297.1666962938897996
 51
298.112808096625713
  0
ARC
  5
93CD
  8
0
 10
2203.6446815892600171
 20
191.2474511325733886
 30
0.0
 40
0.4241919879537753
 50
282.5075009786161218
 51
295.1987726918115982
  0
ARC
  5
93CE
  8
0
 10
2203.5660151305210093
 20
191.7499040543474109
 30
0.0
 40
0.93230698694283
 50
267.144390536162291
 51
280.5395773765526997
  0
ARC
  5
93CF
  8
0
 10
2203.4360390142542201
 20
189.1441851082049084
 30
0.0
 40
1.6766516208326561
 50
87.1443905361622342
 51
91.5679414041801465
  0
ARC
  5
93D0
  8
0
 10
2203.3954423689610849
 20
190.6272990586865888
 30
0.0
 40
0.1929821570630521
 50
91.5679414041801465
 51
124.2777457664288931
  0
LINE
  5
93D1
  8
0
 10
2203.2867538258087734
 20
190.786763517210801
 30
0.0
 11
2203.2587519455591973
 21
190.7925590350608047
 31
0.0
  0
ARC
  5
93D2
  8
0
 10
2203.2554441417760245
 20
190.7700566350715121
 30
0.0
 40
0.0227442206098614
 50
81.6375350610021968
 51
96.0590877101503651
  0
ARC
  5
93D3
  8
0
 10
2203.2541721983911884
 20
190.7820394814229985
 30
0.0
 40
0.0106940568491805
 50
96.0590877101503651
 51
123.6667737196163017
  0
ARC
  5
93D4
  8
0
 10
2203.2539842787628004
 20
190.7823216093150052
 30
0.0
 40
0.0103550731709451
 50
123.6667737196154064
 51
149.3344988832641036
  0
ARC
  5
93D5
  8
0
 10
2203.2644453935331512
 20
190.7761187703329995
 30
0.0
 40
0.0225169041873513
 50
149.3344988832627109
 51
162.6602572454993094
  0
ARC
  5
93D6
  8
0
 10
2203.3200251865760038
 20
190.7587652909116116
 30
0.0
 40
0.080742814594282
 50
162.6602572454976894
 51
170.6565728944850093
  0
ARC
  5
93D7
  8
0
 10
1945.0747852885790508
 20
245.7640350770548991
 30
0.0
 40
263.9575693815302202
 50
347.9333275882244152
 51
347.9750787165173165
  0
ARC
  5
93D8
  8
0
 10
2203.2374111953131433
 20
190.573972465061189
 30
0.0
 40
0.03846593207166
 50
165.251833410256495
 51
175.7654545640037043
  0
ARC
  5
93D9
  8
0
 10
2203.2218481918771431
 20
190.5751247750409902
 30
0.0
 40
0.0228603274943186
 50
175.7654545640052959
 51
194.4739278446486139
  0
ARC
  5
93DA
  8
0
 10
2203.2114385632330595
 20
190.5746013348872054
 30
0.0
 40
0.0128225508729722
 50
203.8770721437846021
 51
257.9132304749755917
  0
LINE
  5
93DB
  8
0
 10
2203.2087536137591997
 20
190.5620630392608064
 30
0.0
 11
2203.2386840139588458
 21
190.5554482829107883
 31
0.0
  0
ARC
  5
93DC
  8
0
 10
2203.4018435533021147
 20
190.654017588745802
 30
0.0
 40
0.1906225152789193
 50
211.1373647455652076
 51
229.6123343104245862
  0
ARC
  5
93DD
  8
0
 10
2203.407776133471998
 20
190.6609913879946987
 30
0.0
 40
0.199778354041104
 50
229.6123343104245862
 51
246.2876744591987119
  0
ARC
  5
93DE
  8
0
 10
2204.1991296865471668
 20
192.3528422711630128
 30
0.0
 40
2.0675072608274592
 50
245.0633691847166915
 51
248.9818033191876907
  0
ARC
  5
93DF
  8
0
 10
2203.2352400712361487
 20
189.8236653144221862
 30
0.0
 40
0.6391502421953096
 50
42.2857364196204628
 51
69.6422302358977561
  0
ARC
  5
93E0
  8
0
 10
2200.90916858993387
 20
188.0335543429532947
 30
0.0
 40
3.5725316739534239
 50
29.7130739283316707
 51
38.4220899345287208
  0
ARC
  5
93E1
  8
0
 10
2204.033235916338981
 20
189.816331982428494
 30
0.0
 40
0.0244245338353406
 50
209.501570435463492
 51
256.1932624983962796
  0
LINE
  5
93E2
  8
0
 10
2204.0274070586601738
 20
189.7926131656107884
 30
0.0
 11
2204.0653114938590988
 21
189.7845597493607954
 31
0.0
  0
ARC
  5
93E3
  8
0
 10
2202.0482560327827741
 20
190.4407431049019976
 30
0.0
 40
2.1211060668533261
 50
341.9793768351020731
 51
347.8205476019331854
  0
ARC
  5
93E4
  8
0
 10
2179.8612569881847776
 20
195.6511716430356955
 30
0.0
 40
24.9113895133127308
 50
346.8723027591029222
 51
349.3078196643277238
  0
ARC
  5
93E5
  8
0
 10
2201.0338391280579344
 20
191.6272273472835082
 30
0.0
 40
3.359930243420723
 50
349.7491270867055277
 51
350.9788902752832769
  0
LINE
  5
93E6
  8
0
 10
2204.3006121467042249
 20
191.1567697764438947
 30
0.0
 11
2204.0123384062630976
 21
189.8039782555960926
 31
0.0
  0
ARC
  5
93E7
  8
0
 10
2204.6210949812220861
 20
191.8892947206344104
 30
0.0
 40
0.1747886689675087
 50
183.7479919514642006
 51
256.3322374212415866
  0
LINE
  5
93E8
  8
0
 10
2204.4466801476701221
 20
191.8778691074498113
 30
0.0
 11
2204.6692297277700163
 21
192.8736142690484883
 31
0.0
  0
ARC
  5
93E9
  8
0
 10
2205.0970177572007742
 20
192.7695489923241041
 30
0.0
 40
0.4402637617881586
 50
129.1046840973550047
 51
166.3275890607839926
  0
ARC
  5
93EA
  8
0
 10
2205.0984129656690129
 20
192.7678324754278094
 30
0.0
 40
0.4424757827927433
 50
99.0805854621640378
 51
129.1046840973550047
  0
ARC
  5
93EB
  8
0
 10
2205.0888067550558844
 20
192.8150177436278909
 30
0.0
 40
0.3943710563720968
 50
91.3911877621496842
 51
98.7843681760273142
  0
ARC
  5
93EC
  8
0
 10
2212.6521811672569129
 20
73.9217256538363756
 30
0.0
 40
119.5276888578234065
 50
89.9606653833350549
 51
93.6325377073370078
  0
LINE
  5
93ED
  8
0
 10
2204.6294963121040382
 20
191.5917322030531977
 30
0.0
 11
2220.8389815244031524
 21
191.5917322030531977
 31
0.0
  0
ARC
  5
93EE
  8
0
 10
2205.9000717081657967
 20
181.2279499837657966
 30
0.0
 40
0.3501384564042978
 50
90.653540100711524
 51
119.5551818424958981
  0
ARC
  5
93EF
  8
0
 10
2205.8953139177788216
 20
181.2363404845480943
 30
0.0
 40
0.3404928837030528
 50
119.5551818424958981
 51
170.3988416514795858
  0
LINE
  5
93F0
  8
0
 10
2205.5595904318588509
 20
181.2931308433608137
 30
0.0
 11
2205.2984128304601654
 21
179.70793969076081
 31
0.0
  0
ARC
  5
93F1
  8
0
 10
2208.2916180002221154
 20
180.0029934068562909
 30
0.0
 40
3.0077124004256488
 50
185.629715555354494
 51
198.9561544811919021
  0
ARC
  5
93F2
  8
0
 10
2211.951514239412063
 20
181.2112516629910033
 30
0.0
 40
6.8617744498417581
 50
198.5706669284633961
 51
235.1571365441527917
  0
ARC
  5
93F3
  8
0
 10
2207.3172268978150896
 20
174.5540187380944133
 30
0.0
 40
1.249660033701623
 50
12.8843373364687093
 51
55.1571365441527774
  0
ARC
  5
93F4
  8
0
 10
2108.3662809142560945
 20
186.2201255886479885
 30
0.0
 40
100.814340048174401
 50
351.2424439744495999
 51
353.5143309536452989
  0
ARC
  5
93F5
  8
0
 10
2251.0025436515629735
 20
165.682006162592586
 30
0.0
 40
43.3092218091884718
 50
173.1190193038158895
 51
179.0204728111345958
  0
LINE
  5
93F6
  8
0
 10
2207.6996507321591707
 20
166.4223834502608099
 30
0.0
 11
2217.7688275582599999
 21
166.4223834502608099
 31
0.0
  0
LINE
  5
93F7
  8
0
 10
2207.709397954959968
 20
167.2515751841607994
 30
0.0
 11
2207.8005027454591982
 21
168.7427947914607955
 31
0.0
  0
LINE
  5
93F8
  8
0
 10
2207.8005027454591982
 20
168.7427947914607955
 30
0.0
 11
2207.7910029541621952
 21
168.7394896054082096
 31
0.0
  0
ARC
  5
93F9
  8
0
 10
2207.7975749482188803
 20
168.7206003292992023
 30
0.0
 40
0.0199998964446147
 50
109.1839083930896948
 51
169.544178749621409
  0
ARC
  5
93FA
  8
0
 10
2213.6787769920520077
 20
167.6352738495671986
 30
0.0
 40
6.000507487610931
 50
169.544178749621409
 51
183.4636384421355899
  0
ARC
  5
93FB
  8
0
 10
2207.7091937500440508
 20
167.273960992434894
 30
0.0
 40
0.0199998951073698
 50
183.4636384421339983
 51
243.8239111510295913
  0
LINE
  5
93FC
  8
0
 10
2207.7003711690549608
 20
167.25601223568151
 30
0.0
 11
2207.709397954959968
 21
167.2515751841607994
 31
0.0
  0
LINE
  5
93FD
  8
0
 10
2207.7414169619041786
 20
167.7224990586180979
 30
0.0
 11
2207.7381807267920522
 21
167.7226967736299059
 31
0.0
  0
LINE
  5
93FE
  8
0
 10
2207.7779071474219563
 20
168.7242298567618093
 30
0.0
 11
2207.6892303879330939
 21
167.272752697130187
 31
0.0
  0
LINE
  5
93FF
  8
0
 10
2205.5174593696360716
 20
181.7355483280232136
 30
0.0
 11
2204.4533952982269511
 21
181.715012863121899
 31
0.0
  0
LINE
  5
9400
  8
0
 10
2204.4533952982269511
 20
181.715012863121899
 30
0.0
 11
2204.3440099154590825
 21
181.5937552669608124
 31
0.0
  0
LINE
  5
9401
  8
0
 10
2204.3440099154590825
 20
181.5937552669608124
 30
0.0
 11
2203.2691558164251546
 21
181.5937552669608124
 31
0.0
  0
ARC
  5
9402
  8
0
 10
2212.5085713482430947
 20
340.1832912367905806
 30
0.0
 40
157.8447357521424976
 50
268.7255460661825737
 51
270.0819135901161872
  0
ARC
  5
9403
  8
0
 10
2210.7553478778090721
 20
261.3764114649101202
 30
0.0
 40
79.0183563356241763
 50
267.2655385642622718
 51
268.7255460661825737
  0
ARC
  5
9404
  8
0
 10
2207.9018011989228398
 20
201.6308147323040885
 30
0.0
 40
19.2046534107612601
 50
264.6683114630416185
 51
267.2655385642622718
  0
ARC
  5
9405
  8
0
 10
2206.2851635472170528
 20
184.3081601631922126
 30
0.0
 40
1.806725987712156
 50
248.8474820942105907
 51
264.6683114630416185
  0
ARC
  5
9406
  8
0
 10
2206.4999186893642218
 20
183.1232366799991098
 30
0.0
 40
2.4842206642908109
 50
181.3872493818838052
 51
214.5320706606458998
  0
ARC
  5
9407
  8
0
 10
2247.1252279051727783
 20
184.928813280811795
 30
0.0
 40
43.1491563768617183
 50
177.5217963013369911
 51
182.4781748246429913
  0
ARC
  5
9408
  8
0
 10
2227.6124285061709998
 20
186.22312226922989
 30
0.0
 40
23.6029196736914315
 50
172.8100012910564942
 51
178.612721744095893
  0
ARC
  5
9409
  8
0
 10
2250.4863952391478961
 20
184.4711114364521904
 30
0.0
 40
46.5298944019209273
 50
171.3988415925923903
 51
174.1950309801530068
  0
ARC
  5
940A
  8
0
 10
2205.6388744626701737
 20
182.5456391635241005
 30
0.0
 40
1.4475154231462419
 50
215.0176662088707076
 51
241.0467187940647023
  0
ARC
  5
940B
  8
0
 10
2205.8652250943277977
 20
183.1730262850747977
 30
0.0
 40
2.108712464131083
 50
243.9186885096065964
 51
260.753833138340724
  0
ARC
  5
940C
  8
0
 10
2205.8530671320459078
 20
180.9190664477974053
 30
0.0
 40
0.7935944602542654
 50
73.0786788921191146
 51
88.8416578753854225
  0
ARC
  5
940D
  8
0
 10
2205.5618862609208009
 20
180.1235090102105971
 30
0.0
 40
1.6401332519168661
 50
65.8505986014637728
 51
71.435848864827733
  0
ARC
  5
940E
  8
0
 10
2206.579708170927006
 20
182.479280034959487
 30
0.0
 40
0.9265364047097744
 50
248.0181224654359937
 51
256.5739036846645718
  0
ARC
  5
940F
  8
0
 10
2207.7736092239588288
 20
181.8061577887607996
 30
0.0
 40
0.2952755905999905
 50
309.4236057731300775
 51
323.7427574713884155
  0
ARC
  5
9410
  8
0
 10
2207.7346914611439388
 20
181.8347010380362008
 30
0.0
 40
0.3435385095102752
 50
323.7427574713884155
 51
335.1002256219405808
  0
ARC
  5
9411
  8
0
 10
2208.1148539083528703
 20
181.6582373249040074
 30
0.0
 40
0.0755831056810189
 50
134.0797073045164041
 51
155.1002256219406092
  0
LINE
  5
9412
  8
0
 10
2220.3886396262291782
 20
193.2092725534870965
 30
0.0
 11
2205.0792320484360971
 21
193.2092725534870965
 31
0.0
  0
ARC
  5
9413
  8
0
 10
2212.5438578578109627
 20
39.3116087682526683
 30
0.0
 40
144.1312373734969015
 50
88.6309245536175041
 51
89.9243186240304624
  0
ARC
  5
9414
  8
0
 10
2214.3140187830049399
 20
113.419909783460696
 30
0.0
 40
70.001798234471778
 50
87.5274627221109398
 51
88.6301188095534656
  0
ARC
  5
9415
  8
0
 10
2217.1336422065878651
 20
178.71810637123329
 30
0.0
 40
4.6427533067326872
 50
81.222018190929802
 51
87.5274627221109398
  0
ARC
  5
9416
  8
0
 10
2217.4837785603081102
 20
180.9856129444632984
 30
0.0
 40
2.3483728836474609
 50
73.3706769323758152
 51
81.222018190929802
  0
ARC
  5
9417
  8
0
 10
2230.9712444577280621
 20
229.0976695524022944
 30
0.0
 40
47.6187859956555499
 50
254.3877870829192887
 51
256.028479396569594
  0
ARC
  5
9418
  8
0
 10
2219.2422240610421795
 20
181.8792505813927107
 30
0.0
 40
1.0347291545557831
 50
63.8749137596605365
 51
77.0455895471101115
  0
ARC
  5
9419
  8
0
 10
2219.5870582249449399
 20
182.5823653050769053
 30
0.0
 40
0.251606612895808
 50
9.5198898055666916
 51
63.8749137596605365
  0
LINE
  5
941A
  8
0
 10
2219.8351997737290731
 20
182.6239785171607934
 30
0.0
 11
2219.9634879477280265
 21
181.775019593960792
 31
0.0
  0
ARC
  5
941B
  8
0
 10
2219.9039762093862009
 20
181.7721141874972091
 30
0.0
 40
0.0595826181633957
 50
270.5349863871475122
 51
2.7950025516451178
  0
LINE
  5
941C
  8
0
 10
2222.2359969101689785
 20
179.7079382199607949
 30
0.0
 11
2222.1993108156289054
 21
181.5937664623608043
 31
0.0
  0
ARC
  5
941D
  8
0
 10
2177.8990332694920653
 20
180.4901416484096046
 30
0.0
 40
44.3140223675830995
 50
1.4270783619778991
 51
4.4630892668825899
  0
ARC
  5
941E
  8
0
 10
2168.0572084075229213
 20
180.9170688249521959
 30
0.0
 40
54.1059022610519094
 50
3.201249007970151
 51
6.6891546852839561
  0
LINE
  5
941F
  8
0
 10
2220.6181515066291468
 20
191.719455690060812
 30
0.0
 11
2220.6182594302290454
 21
191.7038771492607907
 31
0.0
  0
ARC
  5
9420
  8
0
 10
2220.6975267487041492
 20
191.7044262901900993
 30
0.0
 40
0.07926922059729
 50
180.3969221475321945
 51
257.1693518588202778
  0
ARC
  5
9421
  8
0
 10
2224.3565777959079242
 20
207.7700172155782923
 30
0.0
 40
16.5562794575291186
 50
257.1693518588202778
 51
257.7754174796626216
  0
ARC
  5
9422
  8
0
 10
2220.8094421713949487
 20
191.3978762086491088
 30
0.0
 40
0.1957106418429156
 50
12.67603314281933
 51
77.775417479662579
  0
ARC
  5
9423
  8
0
 10
2035.7752560180470027
 20
149.7799445754934027
 30
0.0
 40
189.8525119405410919
 50
12.5087568968115708
 51
12.67603314281933
  0
LINE
  5
9424
  8
0
 10
2221.3077676529292148
 20
190.0194089055607947
 30
0.0
 11
2221.1200037069897917
 21
190.8996047666281868
 31
0.0
  0
ARC
  5
9425
  8
0
 10
2220.8490723541490297
 20
191.8878755386726027
 30
0.0
 40
0.1730154964382471
 50
283.2353053615952945
 51
356.6844219468106871
  0
LINE
  5
9426
  8
0
 10
2221.0217982449180454
 20
191.8778691074498113
 30
0.0
 11
2220.7992486648181512
 21
192.8736142690484883
 31
0.0
  0
ARC
  5
9427
  8
0
 10
2220.3714606353869385
 20
192.7695489923241041
 30
0.0
 40
0.4402637617881586
 50
13.6724109392159701
 51
50.8953159026450024
  0
ARC
  5
9428
  8
0
 10
2220.3700654269191546
 20
192.7678324754278094
 30
0.0
 40
0.4424757827927433
 50
50.8953159026450024
 51
80.919414537835948
  0
ARC
  5
9429
  8
0
 10
2220.3800713807040665
 20
192.8183140408903
 30
0.0
 40
0.3910523921462717
 50
81.1997576237712337
 51
88.7445068609044654
  0
ARC
  5
942A
  8
0
 10
2212.8168712790870813
 20
73.9591600162510474
 30
0.0
 40
119.4902548999132961
 50
86.3668900841348659
 51
90.0396222542419338
  0
ARC
  5
942B
  8
0
 10
2219.568406684421916
 20
181.2279499837657966
 30
0.0
 40
0.3501384564042978
 50
60.444818157504109
 51
89.346459899288476
  0
ARC
  5
942C
  8
0
 10
2219.5731644748088911
 20
181.2363404845480943
 30
0.0
 40
0.3404928837030528
 50
9.601158348520423
 51
60.444818157504109
  0
LINE
  5
942D
  8
0
 10
2219.9088879607288618
 20
181.2931308433608137
 30
0.0
 11
2220.1700655621289116
 21
179.70793969076081
 31
0.0
  0
ARC
  5
942E
  8
0
 10
2217.1768603923660521
 20
180.0029934068562909
 30
0.0
 40
3.0077124004256488
 50
341.0438455188065063
 51
354.370284444645506
  0
ARC
  5
942F
  8
0
 10
2213.5169641531761044
 20
181.2112516629910033
 30
0.0
 40
6.8617744498417581
 50
304.8428634558471799
 51
341.4293330715365187
  0
ARC
  5
9430
  8
0
 10
2218.1512514947730779
 20
174.5540187380944133
 30
0.0
 40
1.249660033701623
 50
124.8428634558471941
 51
167.1156626635313103
  0
ARC
  5
9431
  8
0
 10
2317.1021974783320729
 20
186.2201255886479885
 30
0.0
 40
100.814340048174401
 50
186.4856690463547011
 51
188.7575560255504001
  0
ARC
  5
9432
  8
0
 10
2174.4659347410251939
 20
165.682006162592586
 30
0.0
 40
43.3092218091884718
 50
0.9795271888669956
 51
6.8809806961840563
  0
LINE
  5
9433
  8
0
 10
2217.7590804376291089
 20
167.2515751841607994
 30
0.0
 11
2217.6679756471280598
 21
168.7427947914607955
 31
0.0
  0
LINE
  5
9434
  8
0
 10
2217.6679756471280598
 20
168.7427947914607955
 30
0.0
 11
2217.6774754384259722
 21
168.7394896054082096
 31
0.0
  0
ARC
  5
9435
  8
0
 10
2217.6709034443701967
 20
168.7206003292992023
 30
0.0
 40
0.0199998964446147
 50
10.4558212503785697
 51
70.8160916069102626
  0
ARC
  5
9436
  8
0
 10
2211.7897014005361598
 20
167.6352738495671986
 30
0.0
 40
6.000507487610931
 50
356.5363615578643248
 51
10.4558212503785697
  0
ARC
  5
9437
  8
0
 10
2217.7592846425441167
 20
167.273960992434894
 30
0.0
 40
0.0199998951073698
 50
296.1760888489703234
 51
356.5363615578659733
  0
LINE
  5
9438
  8
0
 10
2217.7681072235341162
 20
167.25601223568151
 30
0.0
 11
2217.7590804376291089
 21
167.2515751841607994
 31
0.0
  0
LINE
  5
9439
  8
0
 10
2217.7270614306839889
 20
167.7224990586180979
 30
0.0
 11
2217.7302976657961153
 21
167.7226967736299059
 31
0.0
  0
LINE
  5
943A
  8
0
 10
2217.6905712451662112
 20
168.7242298567618093
 30
0.0
 11
2217.7792480046550736
 21
167.272752697130187
 31
0.0
  0
LINE
  5
943B
  8
0
 10
2219.9510190229520958
 20
181.7355483280232136
 30
0.0
 11
2221.0150830943612164
 21
181.7150128631217001
 31
0.0
  0
LINE
  5
943C
  8
0
 10
2221.0150830943612164
 20
181.7150128631217001
 30
0.0
 11
2221.1244684771281754
 21
181.5937552669608124
 31
0.0
  0
LINE
  5
943D
  8
0
 10
2221.1244684771281754
 20
181.5937552669608124
 30
0.0
 11
2222.1993225761621034
 21
181.5937552669608124
 31
0.0
  0
ARC
  5
943E
  8
0
 10
2212.9599070443450728
 20
340.1832912367905806
 30
0.0
 40
157.8447357521424976
 50
269.9180864098577217
 51
271.2744539338174263
  0
ARC
  5
943F
  8
0
 10
2214.7131305147790954
 20
261.3764114649101202
 30
0.0
 40
79.0183563356241763
 50
271.2744539338174263
 51
272.7344614357377282
  0
ARC
  5
9440
  8
0
 10
2217.5666771936648729
 20
201.6308147323040885
 30
0.0
 40
19.2046534107612601
 50
272.7344614357377282
 51
275.3316885369584952
  0
ARC
  5
9441
  8
0
 10
2219.1833148453702051
 20
184.3081601631922126
 30
0.0
 40
1.806725987712156
 50
275.3316885369584952
 51
291.1525179057892956
  0
ARC
  5
9442
  8
0
 10
2218.9685597032239457
 20
183.1232366799991098
 30
0.0
 40
2.4842206642908109
 50
325.4679293393539865
 51
358.6127506181161948
  0
ARC
  5
9443
  8
0
 10
2178.3432504874149345
 20
184.928813280811795
 30
0.0
 40
43.1491563768617183
 50
357.5218251753569803
 51
2.4782036986630001
  0
ARC
  5
9444
  8
0
 10
2197.8560498864171677
 20
186.22312226922989
 30
0.0
 40
23.6029196736914315
 50
1.387278255904044
 51
7.1899987089434694
  0
ARC
  5
9445
  8
0
 10
2174.9820831534389072
 20
184.4711114364521904
 30
0.0
 40
46.5298944019209273
 50
5.8049690198470021
 51
8.6011584074075973
  0
ARC
  5
9446
  8
0
 10
2220.8006727138149472
 20
191.4061502931654957
 30
0.0
 40
0.1894946179875189
 50
7.2015462478718328
 51
78.3365229109789567
  0
ARC
  5
9447
  8
0
 10
2219.8296039299179938
 20
182.5456391635241005
 30
0.0
 40
1.4475154231462419
 50
298.9532812059351841
 51
324.9823337911292924
  0
ARC
  5
9448
  8
0
 10
2219.603253298259915
 20
183.1730262850747977
 30
0.0
 40
2.108712464131083
 50
279.246166861659276
 51
296.0813114903933752
  0
ARC
  5
9449
  8
0
 10
2219.6154112605418049
 20
180.9190664477974053
 30
0.0
 40
0.7935944602542654
 50
91.1583421246145917
 51
106.9213211078808001
  0
ARC
  5
944A
  8
0
 10
2219.9065921316669119
 20
180.1235090102105971
 30
0.0
 40
1.6401332519168661
 50
108.5641511351721959
 51
114.1494013985361988
  0
ARC
  5
944B
  8
0
 10
2218.8887702216611615
 20
182.479280034959487
 30
0.0
 40
0.9265364047097744
 50
283.4260963153354282
 51
291.981877534563921
  0
ARC
  5
944C
  8
0
 10
2217.6948691686279744
 20
181.8061577887607996
 30
0.0
 40
0.2952755905999905
 50
216.2572425286116129
 51
230.5763942268698941
  0
ARC
  5
944D
  8
0
 10
2217.7337869314437739
 20
181.8347010380362008
 30
0.0
 40
0.3435385095102752
 50
204.8997743780593908
 51
216.2572425286116129
  0
ARC
  5
944E
  8
0
 10
2217.3536244842348424
 20
181.6582373249040074
 30
0.0
 40
0.0755831056810189
 50
24.8997743780594014
 51
45.9202926954835888
  0
ARC
  5
944F
  8
0
 10
2204.7266340011988177
 20
191.3517340301557965
 30
0.0
 40
0.2589108990300508
 50
112.0353185246852945
 51
162.4268245177080985
  0
ARC
  5
9450
  8
0
 10
2188.6549502250959449
 20
182.8975575085277114
 30
0.0
 40
33.4204615961059233
 50
7.4280745843598144
 51
12.3039963848143206
  0
ENDSEC
  0
EOF
