  0
SECTION
  2
HEADER
  9
$ACADVER
  1
AC1009
  9
$INSBASE
 10
445.948891794639394
 20
36.7229854845304118
 30
0.0
  9
$EXTMIN
 10
437.6556260670888037
 20
8.6468396532828962
 30
-0.0000000000000058
  9
$EXTMAX
 10
453.3953983253082924
 20
36.7288914994753384
 30
0.0000000000000104
  9
$LIMMIN
 10
0.0
 20
0.0
  9
$LIMMAX
 10
22.0
 20
17.0
  9
$ORTHOMODE
 70
     0
  9
$REGENMODE
 70
     1
  9
$FILLMODE
 70
     1
  9
$QTEXTMODE
 70
     0
  9
$MIRRTEXT
 70
     0
  9
$DRAGMODE
 70
     2
  9
$LTSCALE
 40
1.2099999999999991
  9
$OSMODE
 70
     7
  9
$ATTMODE
 70
     1
  9
$TEXTSIZE
 40
0.2
  9
$TRACEWID
 40
0.05
  9
$TEXTSTYLE
  7
STANDARD
  9
$CLAYER
  8
0
  9
$CELTYPE
  6
BYLAYER
  9
$CECOLOR
 62
   256
  9
$DIMSCALE
 40
1.0
  9
$DIMASZ
 40
0.1875
  9
$DIMEXO
 40
0.0625
  9
$DIMDLI
 40
0.38
  9
$DIMRND
 40
0.0
  9
$DIMDLE
 40
0.0
  9
$DIMEXE
 40
0.125
  9
$DIMTP
 40
1.5
  9
$DIMTM
 40
1.5
  9
$DIMTXT
 40
1.5
  9
$DIMCEN
 40
0.09
  9
$DIMTSZ
 40
0.0
  9
$DIMTOL
 70
     0
  9
$DIMLIM
 70
     0
  9
$DIMTIH
 70
     1
  9
$DIMTOH
 70
     1
  9
$DIMSE1
 70
     0
  9
$DIMSE2
 70
     0
  9
$DIMTAD
 70
     0
  9
$DIMZIN
 70
     4
  9
$DIMBLK
  1

  9
$DIMASO
 70
     1
  9
$DIMSHO
 70
     1
  9
$DIMPOST
  1

  9
$DIMAPOST
  1

  9
$DIMALT
 70
     0
  9
$DIMALTD
 70
     2
  9
$DIMALTF
 40
25.3999999999999986
  9
$DIMLFAC
 40
1.0
  9
$DIMTOFL
 70
     0
  9
$DIMTVP
 40
0.0
  9
$DIMTIX
 70
     0
  9
$DIMSOXD
 70
     0
  9
$DIMSAH
 70
     0
  9
$DIMBLK1
  1

  9
$DIMBLK2
  1

  9
$DIMSTYLE
  2
STANDARD
  9
$DIMCLRD
 70
     0
  9
$DIMCLRE
 70
     0
  9
$DIMCLRT
 70
     0
  9
$DIMTFAC
 40
1.0
  9
$DIMGAP
 40
0.09
  9
$LUNITS
 70
     2
  9
$LUPREC
 70
     4
  9
$SKETCHINC
 40
0.1
  9
$FILLETRAD
 40
0.0
  9
$AUNITS
 70
     0
  9
$AUPREC
 70
     0
  9
$MENU
  1
.
  9
$ELEVATION
 40
0.0
  9
$PELEVATION
 40
0.0
  9
$THICKNESS
 40
0.0
  9
$LIMCHECK
 70
     0
  9
$BLIPMODE
 70
     0
  9
$CHAMFERA
 40
0.0
  9
$CHAMFERB
 40
0.0
  9
$SKPOLY
 70
     0
  9
$TDCREATE
 40
2457827.4934837957844138
  9
$TDUPDATE
 40
2459563.6379398149438202
  9
$TDINDWG
 40
0.3894811343
  9
$TDUSRTIMER
 40
0.3894811343
  9
$USRTIMER
 70
     1
  9
$ANGBASE
 50
0.0
  9
$ANGDIR
 70
     0
  9
$PDMODE
 70
     0
  9
$PDSIZE
 40
0.3125
  9
$PLINEWID
 40
0.0
  9
$COORDS
 70
     1
  9
$SPLFRAME
 70
     0
  9
$SPLINETYPE
 70
     6
  9
$SPLINESEGS
 70
     8
  9
$ATTDIA
 70
     1
  9
$ATTREQ
 70
     1
  9
$HANDLING
 70
     1
  9
$HANDSEED
  5
5AE0
  9
$SURFTAB1
 70
     6
  9
$SURFTAB2
 70
     6
  9
$SURFTYPE
 70
     6
  9
$SURFU
 70
     6
  9
$SURFV
 70
     6
  9
$UCSNAME
  2

  9
$UCSORG
 10
0.0
 20
0.0
 30
0.0
  9
$UCSXDIR
 10
1.0
 20
0.0
 30
0.0
  9
$UCSYDIR
 10
0.0
 20
1.0
 30
0.0
  9
$PUCSNAME
  2

  9
$PUCSORG
 10
0.0
 20
0.0
 30
0.0
  9
$PUCSXDIR
 10
1.0
 20
0.0
 30
0.0
  9
$PUCSYDIR
 10
0.0
 20
1.0
 30
0.0
  9
$USERI1
 70
     0
  9
$USERI2
 70
     0
  9
$USERI3
 70
     0
  9
$USERI4
 70
     0
  9
$USERI5
 70
     0
  9
$USERR1
 40
0.0
  9
$USERR2
 40
0.0
  9
$USERR3
 40
0.0
  9
$USERR4
 40
0.0
  9
$USERR5
 40
0.0
  9
$WORLDVIEW
 70
     1
  9
$SHADEDGE
 70
     3
  9
$SHADEDIF
 70
    70
  9
$TILEMODE
 70
     1
  9
$MAXACTVP
 70
    48
  9
$PLIMCHECK
 70
     0
  9
$PEXTMIN
 10
1.0000000000000000E+20
 20
1.0000000000000000E+20
 30
1.0000000000000000E+20
  9
$PEXTMAX
 10
-1.0000000000000000E+20
 20
-1.0000000000000000E+20
 30
-1.0000000000000000E+20
  9
$PLIMMIN
 10
0.0
 20
0.0
  9
$PLIMMAX
 10
12.0
 20
9.0
  9
$UNITMODE
 70
     0
  9
$VISRETAIN
 70
     1
  9
$PLINEGEN
 70
     0
  9
$PSLTSCALE
 70
     1
  0
ENDSEC
  0
SECTION
  2
TABLES
  0
TABLE
  2
VPORT
 70
     1
  0
VPORT
  2
*ACTIVE
 70
     0
 10
0.0
 20
0.0
 11
1.0
 21
1.0
 12
234.5465845838940027
 22
15.4854163908185605
 13
0.0
 23
0.0
 14
1.0
 24
1.0
 15
0.0
 25
0.0
 16
-0.0000000000000284
 26
0.0
 36
157.2215818301446859
 17
210.9789276123046875
 27
7.2024491855605604
 37
0.0
 40
28.2831166565470404
 41
1.8876941457586609
 42
50.0
 43
0.0
 44
0.0
 50
0.0
 51
0.0
 71
     0
 72
   100
 73
     1
 74
     1
 75
     0
 76
     0
 77
     0
 78
     0
  0
ENDTAB
  0
TABLE
  2
LTYPE
 70
     2
  0
LTYPE
  2
CONTINUOUS
 70
     0
  3
Solid line
 72
    65
 73
     0
 40
0.0
  0
LTYPE
  2
PHANTOM2
 70
     0
  3
___ _ _ ___ _ _ ___ _ _ ___ _ _
 72
    65
 73
     6
 40
1.25
 49
0.625
 49
-0.125
 49
0.125
 49
-0.125
 49
0.125
 49
-0.125
  0
ENDTAB
  0
TABLE
  2
LAYER
 70
     2
  0
LAYER
  2
0
 70
     0
 62
     7
  6
CONTINUOUS
  0
LAYER
  2
DEFPOINTS
 70
     0
 62
     7
  6
CONTINUOUS
  0
ENDTAB
  0
TABLE
  2
STYLE
 70
     1
  0
STYLE
  2
STANDARD
 70
     0
 40
0.0
 41
0.8
 50
0.0
 71
     0
 42
0.2
  3
txt
  4

  0
ENDTAB
  0
TABLE
  2
VIEW
 70
     0
  0
ENDTAB
  0
TABLE
  2
UCS
 70
     0
  0
ENDTAB
  0
TABLE
  2
APPID
 70
     9
  0
APPID
  2
ACAD
 70
     0
  0
APPID
  2
ACAD_MLEADERVER
 70
     0
  0
APPID
  2
ACAD_EXEMPT_FROM_CAD_STANDARDS
 70
     0
  0
APPID
  2
ACAD_NAV_VCDISPLAY
 70
     0
  0
APPID
  2
ACADANNOMONITORALERTICONDI
 70
     0
  0
APPID
  2
ACAD_DSTYLE_DIMJAG
 70
     0
  0
APPID
  2
ACAD_DSTYLE_DIMTALN
 70
     0
  0
APPID
  2
ACDBATTR
 70
     0
  0
APPID
  2
DCO15
 70
     0
  0
ENDTAB
  0
TABLE
  2
DIMSTYLE
 70
     1
  0
DIMSTYLE
  2
STANDARD
 70
     0
  3

  4

  5

  6

  7

 40
1.0
 41
0.1875
 42
0.0625
 43
0.38
 44
0.125
 45
0.0
 46
0.0
 47
1.5
 48
1.5
140
1.5
141
0.09
142
0.0
143
25.3999999999999986
144
1.0
145
0.0
146
1.0
147
0.09
 71
     0
 72
     0
 73
     1
 74
     1
 75
     0
 76
     0
 77
     0
 78
     4
170
     0
171
     2
172
     0
173
     0
174
     0
175
     0
176
     0
177
     0
178
     0
  0
ENDTAB
  0
ENDSEC
  0
SECTION
  2
BLOCKS
  0
BLOCK
  8
0
  2
$MODEL_SPACE
 70
     0
 10
0.0
 20
0.0
 30
0.0
  3
$MODEL_SPACE
  1

  0
ENDBLK
  5
21
  8
0
  0
BLOCK
 67
     1
  8
0
  2
$PAPER_SPACE
 70
     0
 10
0.0
 20
0.0
 30
0.0
  3
$PAPER_SPACE
  1

  0
ENDBLK
  5
1D
 67
     1
  8
0
  0
ENDSEC
  0
SECTION
  2
ENTITIES
  0
ATTDEF
  5
4EF9
  8
DEFPOINTS
 10
445.9488982942889947
 20
36.7263227757481019
 30
0.0
 40
0.001
  1
K-20171T-S
  3

  2
MODELNUMBER
 70
     0
1001
ACDBATTR
1070
     0
1070
     1
  0
ATTDEF
  5
4EFA
  8
DEFPOINTS
 10
445.9488982942889947
 20
36.7246561090814296
 30
0.0
 40
0.001
  1
PATIO
  3

  2
TRADENAME
 70
     0
1001
ACDBATTR
1070
     0
1070
     1
  0
ATTDEF
  5
4EFB
  8
DEFPOINTS
 10
445.9488982942889947
 20
36.7229894424147432
 30
0.0
 40
0.001
  1
TOILET
  3

  2
PRODUCT
 70
     0
1001
ACDBATTR
1070
     0
1070
     1
  0
ARC
  5
5981
  8
0
 10
450.6780404594048264
 20
33.2844650438696235
 30
0.0
 40
11.9359786054450208
 50
174.9571419650027053
 51
185.0428580349972094
  0
ARC
  5
5982
  8
0
 10
440.7015974930752122
 20
183.2501417551306133
 30
0.0
 40
149.4242104524838908
 50
268.871089508101818
 51
269.2265340537804263
  0
ARC
  5
5983
  8
0
 10
437.7594631972806951
 20
33.7882205371890123
 30
0.0
 40
0.0667388611325182
 50
91.5550083595975366
 51
123.5366007686658065
  0
ARC
  5
5984
  8
0
 10
449.54953114338349
 20
33.0678175500265468
 30
0.0
 40
11.8814974487274796
 50
176.5337518208037011
 51
181.7616100638794876
  0
ARC
  5
5985
  8
0
 10
436.2494045062923078
 20
-118.4677455325926019
 30
0.0
 40
151.1031812111723127
 50
89.0833336475143938
 51
89.4348403437417403
  0
ARC
  5
5986
  8
0
 10
437.7468759914602856
 20
32.7012429382912515
 30
0.0
 40
0.0734950432516652
 50
224.1592069954741078
 51
264.5115276667975195
  0
ARC
  5
5987
  8
0
 10
440.4418382037814013
 20
34.5037473250518403
 30
0.0
 40
1.5695315865074371
 50
123.2162765008174006
 51
154.205299550679797
  0
ARC
  5
5988
  8
0
 10
440.8842550245806251
 20
33.7107614121595134
 30
0.0
 40
2.4761410509168411
 50
101.641970859272007
 51
121.728988537645904
  0
ARC
  5
5989
  8
0
 10
441.6973808721872956
 20
33.9741577599487101
 30
0.0
 40
2.931245159555306
 50
155.5644199484844137
 51
172.9554622846173118
  0
ARC
  5
598A
  8
0
 10
445.9488917946408151
 20
-106.1877531299959969
 30
0.0
 40
142.5499607042251
 50
88.475606544608894
 51
91.524393455391106
  0
ARC
  5
598B
  8
0
 10
441.70037741241498
 20
30.0103397650159209
 30
0.0
 40
6.2653470954697283
 50
94.470353649572715
 51
102.123039334972205
  0
ARC
  5
598C
  8
0
 10
442.9396508548466045
 20
14.7751501669149192
 30
0.0
 40
21.5508346664303794
 50
92.0820381653276172
 51
94.5980295181714865
  0
ARC
  5
598D
  8
0
 10
440.7325591721852902
 20
31.7930220876936609
 30
0.0
 40
1.838167012860104
 50
201.6531014224815124
 51
237.6599837526005103
  0
ARC
  5
598E
  8
0
 10
441.0364348925484137
 20
32.3338653126554334
 30
0.0
 40
2.457891175468919
 50
238.419453014238286
 51
255.073290627963587
  0
ARC
  5
598F
  8
0
 10
442.8135156345493897
 20
32.4974126460139701
 30
0.0
 40
4.0337784507724539
 50
183.7259292636977932
 51
200.0455825423979093
  0
ARC
  5
5990
  8
0
 10
445.9488917946397919
 20
152.7055975176656091
 30
0.0
 40
123.0150662607887995
 50
268.1829767774485163
 51
271.8170232225514837
  0
ARC
  5
5991
  8
0
 10
441.7102325165142815
 20
34.8857565001304266
 30
0.0
 40
5.0972344563040757
 50
255.1436944999036029
 51
264.6022426938366721
  0
ARC
  5
5992
  8
0
 10
442.6294157066981825
 20
43.5601225720010774
 30
0.0
 40
13.8199577179524908
 50
264.1913198926441737
 51
267.5903244833717736
  0
ARC
  5
5993
  8
0
 10
428.3707481957907817
 20
26.0398597438038486
 30
0.0
 40
11.5160365894591905
 50
5.3549381370628018
 51
19.6923641826690208
  0
ARC
  5
5994
  8
0
 10
440.8987577910094728
 20
26.06842907648306
 30
0.0
 40
1.938653333671936
 50
89.1106940978414883
 51
108.1940381734635963
  0
ARC
  5
5995
  8
0
 10
440.4428188820672858
 20
27.4042226194046386
 30
0.0
 40
0.5275273780750765
 50
106.4493398542307006
 51
140.6174858611813079
  0
ARC
  5
5996
  8
0
 10
440.8900107630049092
 20
27.1260731131804711
 30
0.0
 40
1.051907709892085
 50
144.3649460344859961
 51
178.9775424418552063
  0
ARC
  5
5997
  8
0
 10
404.2070967435067814
 20
29.1859571274501413
 30
0.0
 40
35.6895879811389634
 50
355.6990300681862891
 51
356.7214238539273197
  0
ARC
  5
5998
  8
0
 10
422.6693212123482795
 20
27.797461191264091
 30
0.0
 40
17.175224548855109
 50
348.6185277663835791
 51
355.6990300681862891
  0
ARC
  5
5999
  8
0
 10
459.2955789307362124
 20
18.6201208999033483
 30
0.0
 40
20.4838120360887217
 50
173.1957357366082988
 51
186.8042642633917012
  0
ARC
  5
599A
  8
0
 10
484.8298135216090259
 20
15.2557189842870802
 30
0.0
 40
46.2378845058317793
 50
168.5834142690247859
 51
172.8048251722962902
  0
ARC
  5
599B
  8
0
 10
445.948891794639394
 20
14.5061006399908194
 30
0.0
 40
5.858284158231001
 50
247.8914855300996862
 51
292.1085144699002853
  0
ARC
  5
599C
  8
0
 10
450.386968981249197
 20
17.8435981261855012
 30
0.0
 40
11.5494500222652103
 50
188.2153871138777106
 51
206.6402659280425098
  0
ARC
  5
599D
  8
0
 10
447.3014610059785241
 20
16.2415980769833084
 30
0.0
 40
8.0733302690363011
 50
206.2965750613240914
 51
228.942820448042113
  0
ARC
  5
599E
  8
0
 10
446.2604505679207136
 20
15.1166947769927695
 30
0.0
 40
6.5415065214670154
 50
229.3468563313815025
 51
247.3760552833198858
  0
LINE
  5
599F
  8
0
 10
440.928847033939519
 20
28.0068488931422905
 30
0.0
 11
441.6684238066393959
 21
28.0068488931422905
 31
0.0
  0
LINE
  5
59A0
  8
0
 10
441.6684238066393959
 20
28.0068488931422905
 30
0.0
 11
441.6730022242393829
 21
27.8281666364422904
 31
0.0
  0
LINE
  5
59A1
  8
0
 10
441.6717758314393905
 20
27.8794201145422917
 30
0.0
 11
441.679209175439496
 21
27.8794201145422917
 31
0.0
  0
LINE
  5
59A2
  8
0
 10
441.679209175439496
 20
27.8794201145422917
 30
0.0
 11
441.6792091754393823
 21
27.8142858011837291
 31
0.0
  0
LINE
  5
59A3
  8
0
 10
441.6901782180141822
 20
27.8059755518373208
 30
0.0
 11
441.6923042569516724
 21
28.0063767283013192
 31
0.0
  0
ARC
  5
59A4
  8
0
 10
441.7644820370330194
 20
28.0276669398511693
 30
0.0
 40
0.0711398119114796
 50
90.0765060323574147
 51
174.0148747657462138
  0
ARC
  5
59A5
  8
0
 10
442.0843220690522912
 20
28.0012969724578191
 30
0.0
 40
0.3920507223862463
 50
175.0559992453198106
 51
179.2576044415519902
  0
LINE
  5
59A6
  8
0
 10
441.7643870453393902
 20
28.0988066883422789
 30
0.0
 11
442.1226497112393758
 21
28.0988066883422789
 31
0.0
  0
ARC
  5
59A7
  8
0
 10
112.6569970518894053
 20
17.2787293627923511
 30
0.0
 40
329.7009183605861153
 50
1.857514012123644
 51
1.8680460246718471
  0
ARC
  5
59A8
  8
0
 10
431.8823084156898062
 20
27.7520321975272601
 30
0.0
 40
10.3045727873481301
 50
0.1628385374385609
 51
1.1879801693712111
  0
LINE
  5
59A9
  8
0
 10
442.1845907392388995
 20
27.9680027917423004
 30
0.0
 11
442.1969257092393946
 21
27.9680027917423004
 31
0.0
  0
LINE
  5
59AA
  8
0
 10
442.1969257092393946
 20
27.9680027917423004
 30
0.0
 11
442.1969257092393946
 21
27.7813184611422912
 31
0.0
  0
LINE
  5
59AB
  8
0
 10
442.1095255906394073
 20
27.7813184611422912
 30
0.0
 11
449.7882619691393984
 21
27.7813184608423001
 31
0.0
  0
ARC
  5
59AC
  8
0
 10
442.1225162514962221
 20
28.0394420939622684
 30
0.0
 40
0.0593647443977415
 50
6.4545913021042818
 51
89.8711914531288869
  0
ARC
  5
59AD
  8
0
 10
441.9231440182485926
 20
28.0206512388731213
 30
0.0
 40
0.2596125497197828
 50
1.2349852251357449
 51
5.6289711912118063
  0
ARC
  5
59AE
  8
0
 10
441.6978803154618163
 20
27.8309629510808882
 30
0.0
 40
0.0250347518147867
 50
186.413167782901013
 51
234.7934435129278938
  0
ARC
  5
59AF
  8
0
 10
441.7903133686610886
 20
27.9619633288822591
 30
0.0
 40
0.1853624422112085
 50
234.7934435129278938
 51
255.5445655105270077
  0
ARC
  5
59B0
  8
0
 10
441.7986637957773155
 20
27.9943559535052486
 30
0.0
 40
0.2188140753998562
 50
255.5445655105270077
 51
273.1676768427940942
  0
ARC
  5
59B1
  8
0
 10
442.1012796465071801
 20
20.0302915945662008
 30
0.0
 40
7.7510312528062491
 50
89.9390458029925668
 51
92.1480666748516626
  0
LINE
  5
59B2
  8
0
 10
442.1969257092393946
 20
27.9217429492422902
 30
0.0
 11
442.2115829440394918
 21
27.9217429492422902
 31
0.0
  0
LINE
  5
59B3
  8
0
 10
442.2017699740393937
 20
27.9217429492422902
 30
0.0
 11
442.2017699740393937
 21
28.1156405868422894
 31
0.0
  0
LINE
  5
59B4
  8
0
 10
442.2411355557393904
 20
28.15501066574231
 30
0.0
 11
442.3524375205453794
 21
28.1546670620708106
 31
0.0
  0
LINE
  5
59B5
  8
0
 10
442.4193666543393988
 20
28.2107366497423016
 30
0.0
 11
442.2815713799394075
 21
28.2107366497423016
 31
0.0
  0
LINE
  5
59B6
  8
0
 10
442.2618863394395134
 20
28.1910516103422992
 30
0.0
 11
442.2618863394395134
 21
28.1831775960422988
 31
0.0
  0
LINE
  5
59B7
  8
0
 10
442.2815713787393861
 20
28.1634925552422999
 30
0.0
 11
442.3555871268393958
 21
28.1634925552422999
 31
0.0
  0
LINE
  5
59B8
  8
0
 10
442.4390516937393727
 20
28.1910516092422903
 30
0.0
 11
442.4390516937393727
 21
28.1464175761422908
 31
0.0
  0
ARC
  5
59B9
  8
0
 10
442.4193666543393988
 20
28.1910516103422992
 30
0.0
 40
0.0196850393999952
 50
359.9999967982967064
 51
90.0000000000390656
  0
ARC
  5
59BA
  8
0
 10
442.3555871270297075
 20
28.1438075160443795
 30
0.0
 40
0.0196850391979169
 50
7.6265485282746681
 51
90.0000005536449095
  0
ARC
  5
59BB
  8
0
 10
442.2815713786686729
 20
28.191051610513
 30
0.0
 40
0.0196850392292874
 50
89.9999963014095954
 51
180.0000004968659084
  0
ARC
  5
59BC
  8
0
 10
442.2815713786686729
 20
28.1831775944715801
 30
0.0
 40
0.0196850392292799
 50
179.9999954282459953
 51
270.0000002058386031
  0
ARC
  5
59BD
  8
0
 10
442.3520323514713937
 20
28.1345941390213987
 30
0.0
 40
0.0200770117728394
 50
36.0686988779485773
 51
88.8436499308943155
  0
LINE
  5
59BE
  8
0
 10
442.3682608339016724
 20
28.1464145772423002
 30
0.0
 11
449.5295227553770019
 21
28.1464145772423002
 31
0.0
  0
ARC
  5
59BF
  8
0
 10
442.2411372503647726
 20
28.1156433893535507
 30
0.0
 40
0.0393672764252262
 50
90.0024663856866738
 51
180.0040788208179947
  0
ARC
  5
59C0
  8
0
 10
438.1168746892150239
 20
27.787802679014419
 30
0.0
 40
4.0968640256194249
 50
359.9093163769808257
 51
1.760792383817771
  0
ARC
  5
59C1
  8
0
 10
441.8804037757336118
 20
27.9086141625145103
 30
0.0
 40
0.3314392954383591
 50
0.8768265368671697
 51
4.6926166119844046
  0
ARC
  5
59C2
  8
0
 10
442.3321729721258748
 20
27.9208186168174599
 30
0.0
 40
0.1223528515480579
 50
173.0002084208919086
 51
179.5671465771563078
  0
LINE
  5
59C3
  8
0
 10
441.6984131952518169
 20
27.8009863332901794
 30
0.0
 11
441.6964920901394862
 21
27.9523505707423112
 31
0.0
  0
LINE
  5
59C4
  8
0
 10
441.767355529439385
 20
28.0208023959423009
 30
0.0
 11
442.1256441873393896
 21
28.0208023933422794
 31
0.0
  0
ARC
  5
59C5
  8
0
 10
441.766371550596773
 20
27.9509151202947201
 30
0.0
 40
0.0698942022760154
 50
89.1933565957000525
 51
178.8232066116981969
  0
ARC
  5
59C6
  8
0
 10
442.1267305423291987
 20
27.9628029099376114
 30
0.0
 40
0.058009656457978
 50
2.988743629944977
 51
91.0730488428880847
  0
ARC
  5
59C7
  8
0
 10
450.999025798269372
 20
26.06842907648306
 30
0.0
 40
1.938653333671936
 50
71.8059618265394732
 51
90.8893059021584975
  0
ARC
  5
59C8
  8
0
 10
451.4549647072113885
 20
27.4042226194046386
 30
0.0
 40
0.5275273780750765
 50
39.3825141388186921
 51
73.5506601457692852
  0
ARC
  5
59C9
  8
0
 10
451.0077728262738788
 20
27.1260731131804711
 30
0.0
 40
1.051907709892085
 50
1.022457558144775
 51
35.63505396551394
  0
ARC
  5
59CA
  8
0
 10
487.6906868457718929
 20
29.1859571274501413
 30
0.0
 40
35.6895879811389634
 50
183.2785761460725951
 51
184.3009699318137109
  0
ARC
  5
59CB
  8
0
 10
469.2284623769306791
 20
27.797461191264091
 30
0.0
 40
17.175224548855109
 50
184.3009699318137109
 51
191.3814722336163925
  0
ARC
  5
59CC
  8
0
 10
432.6022046585426892
 20
18.6201208999033305
 30
0.0
 40
20.4838120360886506
 50
353.1957357366082988
 51
6.8042642633917136
  0
ARC
  5
59CD
  8
0
 10
407.0679700676698758
 20
15.2557189842870802
 30
0.0
 40
46.2378845058317793
 50
7.1951748277036653
 51
11.4165857309751395
  0
ARC
  5
59CE
  8
0
 10
441.510814608029591
 20
17.8435981261855012
 30
0.0
 40
11.5494500222652103
 50
333.3597340719574049
 51
351.7846128861223178
  0
ARC
  5
59CF
  8
0
 10
444.5963225833003207
 20
16.2415980769833084
 30
0.0
 40
8.0733302690363011
 50
311.0571795519579155
 51
333.7034249386758802
  0
ARC
  5
59D0
  8
0
 10
445.6373330213580743
 20
15.1166947769927695
 30
0.0
 40
6.5415065214670154
 50
292.6239447166801142
 51
310.6531436686183838
  0
LINE
  5
59D1
  8
0
 10
450.9689365553394964
 20
28.0068488931422905
 30
0.0
 11
450.2293597826393921
 21
28.0068488931422905
 31
0.0
  0
LINE
  5
59D2
  8
0
 10
450.2293597826393921
 20
28.0068488931422905
 30
0.0
 11
450.224781365039405
 21
27.8281666364422904
 31
0.0
  0
LINE
  5
59D3
  8
0
 10
450.2260077578393975
 20
27.8794201145422917
 30
0.0
 11
450.2185744138394057
 21
27.8794201145422917
 31
0.0
  0
LINE
  5
59D4
  8
0
 10
450.2185744138394057
 20
27.8794201145422917
 30
0.0
 11
450.2185744138394057
 21
27.8142858011837291
 31
0.0
  0
LINE
  5
59D5
  8
0
 10
450.2076053712646058
 20
27.8059755518373208
 30
0.0
 11
450.2054793323271724
 21
28.0063767283013192
 31
0.0
  0
ARC
  5
59D6
  8
0
 10
450.1333015522458254
 20
28.0276669398511693
 30
0.0
 40
0.0711398119114796
 50
5.9851252342537462
 51
89.9234939676458538
  0
ARC
  5
59D7
  8
0
 10
449.8134615202264968
 20
28.0012969724578191
 30
0.0
 40
0.3920507223862463
 50
0.7423955584480204
 51
4.9440007546801876
  0
LINE
  5
59D8
  8
0
 10
450.1333965439393978
 20
28.0988066883422789
 30
0.0
 11
449.7751338780394121
 21
28.0988066883422789
 31
0.0
  0
ARC
  5
59D9
  8
0
 10
779.2407865373894538
 20
17.2787293627923511
 30
0.0
 40
329.7009183605861153
 50
178.1319539753280878
 51
178.1424859878763129
  0
ARC
  5
59DA
  8
0
 10
460.0154751735889818
 20
27.7520321975272601
 30
0.0
 40
10.3045727873481301
 50
178.8120198306287989
 51
179.8371614625613972
  0
LINE
  5
59DB
  8
0
 10
449.7131928500398885
 20
27.9680027917423004
 30
0.0
 11
449.7008578800393934
 21
27.9680027917423004
 31
0.0
  0
LINE
  5
59DC
  8
0
 10
449.7008578800393934
 20
27.9680027917423004
 30
0.0
 11
449.7008578800393934
 21
27.7813184611422912
 31
0.0
  0
ARC
  5
59DD
  8
0
 10
449.7752673377826227
 20
28.0394420939622684
 30
0.0
 40
0.0593647443977415
 50
90.1288085468743532
 51
173.5454086978957093
  0
ARC
  5
59DE
  8
0
 10
449.9746395710301954
 20
28.0206512388731213
 30
0.0
 40
0.2596125497197828
 50
174.3710288087881963
 51
178.7650147748641984
  0
ARC
  5
59DF
  8
0
 10
450.1999032738169717
 20
27.8309629510808882
 30
0.0
 40
0.0250347518147867
 50
305.2065564870720777
 51
353.5868322170990155
  0
ARC
  5
59E0
  8
0
 10
450.1074702206176994
 20
27.9619633288822591
 30
0.0
 40
0.1853624422112085
 50
284.4554344894698943
 51
305.2065564870720777
  0
ARC
  5
59E1
  8
0
 10
450.0991197935014725
 20
27.9943559535052486
 30
0.0
 40
0.2188140753998562
 50
266.8323231572059058
 51
284.4554344894698943
  0
ARC
  5
59E2
  8
0
 10
449.7965042817617132
 20
20.0303037624735509
 30
0.0
 40
7.7510190807432089
 50
87.8519324578679743
 51
90.0609274484773721
  0
LINE
  5
59E3
  8
0
 10
449.7008578800393934
 20
27.9217429492422902
 30
0.0
 11
449.6862006452395235
 21
27.9217429492422902
 31
0.0
  0
LINE
  5
59E4
  8
0
 10
449.6960136152393943
 20
27.9217429492422902
 30
0.0
 11
449.6960136152393943
 21
28.1156405868422894
 31
0.0
  0
LINE
  5
59E5
  8
0
 10
449.6566480335395113
 20
28.15501066574231
 30
0.0
 11
449.5453460687334086
 21
28.1546670620708106
 31
0.0
  0
LINE
  5
59E6
  8
0
 10
449.4784169349393892
 20
28.2107366497423016
 30
0.0
 11
449.6162122093393805
 21
28.2107366497423016
 31
0.0
  0
LINE
  5
59E7
  8
0
 10
449.6358972498393882
 20
28.1910516103422992
 30
0.0
 11
449.6358972498393882
 21
28.1831775960422988
 31
0.0
  0
LINE
  5
59E8
  8
0
 10
449.6162122105395156
 20
28.1634925552422999
 30
0.0
 11
449.5421964624393922
 21
28.1634925552422999
 31
0.0
  0
LINE
  5
59E9
  8
0
 10
449.4587318955394153
 20
28.1910516092422903
 30
0.0
 11
449.4587318955394153
 21
28.1464175761422908
 31
0.0
  0
ARC
  5
59EA
  8
0
 10
449.4784169349393892
 20
28.1910516103422992
 30
0.0
 40
0.0196850393999952
 50
89.9999999999576659
 51
180.0000032017032936
  0
ARC
  5
59EB
  8
0
 10
449.5421964622491942
 20
28.1438075160443795
 30
0.0
 40
0.0196850391979169
 50
89.9999994463518362
 51
172.3734514717253035
  0
ARC
  5
59EC
  8
0
 10
449.616212210610172
 20
28.191051610513
 30
0.0
 40
0.0196850392292874
 50
359.99999950313412
 51
90.0000036985903904
  0
ARC
  5
59ED
  8
0
 10
449.616212210610172
 20
28.1831775944715801
 30
0.0
 40
0.0196850392292799
 50
269.9999997941581
 51
0.0000045717539294
  0
ARC
  5
59EE
  8
0
 10
449.545751237807508
 20
28.1345941390213987
 30
0.0
 40
0.0200770117728394
 50
91.1563500691056845
 51
143.9313011220513943
  0
ARC
  5
59EF
  8
0
 10
449.6566463389140154
 20
28.1156433893535507
 30
0.0
 40
0.0393672764252262
 50
359.9959211791818916
 51
89.9975336143100861
  0
ARC
  5
59F0
  8
0
 10
453.7809089000638778
 20
27.787802679014419
 30
0.0
 40
4.0968640256194249
 50
178.239207616182199
 51
180.0906836230192027
  0
ARC
  5
59F1
  8
0
 10
450.0173798135452898
 20
27.9086141625145103
 30
0.0
 40
0.3314392954383591
 50
175.3073833880156087
 51
179.1231734631327868
  0
ARC
  5
59F2
  8
0
 10
449.5656106171529132
 20
27.9208186168174599
 30
0.0
 40
0.1223528515480579
 50
0.4328534228436728
 51
6.9997915791080381
  0
LINE
  5
59F3
  8
0
 10
450.1993703940270279
 20
27.8009863332901794
 30
0.0
 11
450.2012914991394155
 21
27.9523505707423112
 31
0.0
  0
LINE
  5
59F4
  8
0
 10
450.130428059839403
 20
28.0208023959423009
 30
0.0
 11
449.7721394019393983
 21
28.0208023933422794
 31
0.0
  0
ARC
  5
59F5
  8
0
 10
450.1314120386820719
 20
27.9509151202947201
 30
0.0
 40
0.0698942022760154
 50
1.1767933883017561
 51
90.806643404303216
  0
ARC
  5
59F6
  8
0
 10
449.7710530469495893
 20
27.9628029099376114
 30
0.0
 40
0.058009656457978
 50
88.9269511571118869
 51
177.0112563700550083
  0
ARC
  5
59F8
  8
0
 10
437.7650613897243943
 20
33.7815035269906119
 30
0.0
 40
0.075436591669313
 50
124.2622183731935053
 51
176.4463002284049935
  0
ARC
  5
59F9
  8
0
 10
437.7558185097461774
 20
32.7043754454041391
 30
0.0
 40
0.0821892880197188
 50
181.2602329495981905
 51
221.3817953375481125
  0
ARC
  5
59FA
  8
0
 10
424.4737313398799188
 20
33.4335712544882284
 30
0.0
 40
14.2165689873554708
 50
356.7035903353666981
 51
1.636388243410172
  0
ARC
  5
59FB
  8
0
 10
440.1380540880551848
 20
34.4047087713938993
 30
0.0
 40
1.618386551336511
 50
135.9331739905377106
 51
173.8841203558567088
  0
ARC
  5
59FC
  8
0
 10
440.3475853240931883
 20
34.1041676908921971
 30
0.0
 40
1.9792122525189639
 50
107.7535857478300017
 51
133.8999873912497947
  0
ARC
  5
59FD
  8
0
 10
441.0953145898500907
 20
31.9659576452237708
 30
0.0
 40
4.2440202121836519
 50
96.1205265109013141
 51
108.5653702626766943
  0
ARC
  5
59FE
  8
0
 10
456.6971142521862248
 20
35.7303785269849996
 30
0.0
 40
18.4239059036463999
 50
194.5131910894398004
 51
198.3818907698621956
  0
ARC
  5
59FF
  8
0
 10
451.9351549525907785
 20
34.0002886560193076
 30
0.0
 40
13.3889968697954505
 50
185.9306603911578009
 51
192.4521612369138097
  0
ARC
  5
5A00
  8
0
 10
443.04706768077898
 20
34.1387187148578732
 30
0.0
 40
4.5394093756301181
 50
174.4577823720321135
 51
183.7491261221890966
  0
ARC
  5
5A01
  8
0
 10
441.2197431298740185
 20
33.2844650438696235
 30
0.0
 40
11.9359786054450208
 50
354.9571419650026769
 51
5.0428580349972441
  0
ARC
  5
5A02
  8
0
 10
451.4559453854973867
 20
34.5037473250518403
 30
0.0
 40
1.5695315865074371
 50
25.7947004493201995
 51
56.7837234991825923
  0
ARC
  5
5A03
  8
0
 10
451.0135285646982197
 20
33.7107614121595134
 30
0.0
 40
2.4761410509168411
 50
58.2710114623540321
 51
78.358029140727993
  0
ARC
  5
5A04
  8
0
 10
450.2004027170914924
 20
33.9741577599487101
 30
0.0
 40
2.931245159555306
 50
7.0445377153826874
 51
24.4355800515155401
  0
ARC
  5
5A05
  8
0
 10
450.197406176863808
 20
30.0103397650159209
 30
0.0
 40
6.2653470954697283
 50
77.8769606650277382
 51
85.5296463504273135
  0
ARC
  5
5A06
  8
0
 10
448.9581327344322972
 20
14.7751501669149192
 30
0.0
 40
21.5508346664303794
 50
85.4019704818317251
 51
87.917961834672397
  0
ARC
  5
5A07
  8
0
 10
451.1652244170933841
 20
31.7930220876936609
 30
0.0
 40
1.838167012860104
 50
302.3400162473996033
 51
338.3468985775177202
  0
ARC
  5
5A08
  8
0
 10
450.8613486967303743
 20
32.3338653126554334
 30
0.0
 40
2.457891175468919
 50
284.9267093720363277
 51
301.580546985761714
  0
ARC
  5
5A09
  8
0
 10
449.084267954729512
 20
32.4974126460139701
 30
0.0
 40
4.0337784507724539
 50
339.9544174576020055
 51
356.2740707363021784
  0
ARC
  5
5A0A
  8
0
 10
450.1875510727646201
 20
34.8857565001304266
 30
0.0
 40
5.0972344563040757
 50
275.3977573061600879
 51
284.8563055000964255
  0
ARC
  5
5A0B
  8
0
 10
449.2683678825806055
 20
43.5601225720010774
 30
0.0
 40
13.8199577179524908
 50
272.4096755166282264
 51
275.8086801073558263
  0
ARC
  5
5A0C
  8
0
 10
463.52703539348812
 20
26.0398597438038486
 30
0.0
 40
11.5160365894591905
 50
160.3076358173310041
 51
174.6450618629372116
  0
ARC
  5
5A0D
  8
0
 10
451.7597295012236032
 20
34.4047087713938993
 30
0.0
 40
1.618386551336511
 50
6.1158796441432939
 51
44.0668260094622326
  0
ARC
  5
5A0E
  8
0
 10
451.5501982651857134
 20
34.1041676908921971
 30
0.0
 40
1.9792122525189639
 50
46.1000126087501485
 51
72.2464142521700268
  0
ARC
  5
5A0F
  8
0
 10
450.8024689994286973
 20
31.9659576452237708
 30
0.0
 40
4.2440202121836519
 50
71.4346297373233199
 51
83.8794734890987002
  0
ARC
  5
5A10
  8
0
 10
435.2006693370926769
 20
35.7303785269849996
 30
0.0
 40
18.4239059036463999
 50
341.6181092301378044
 51
345.486808910560228
  0
ARC
  5
5A11
  8
0
 10
435.9206362053396902
 20
34.6554840241292084
 30
0.0
 40
17.4787198214844786
 50
348.3076080143762852
 51
357.3320702387313759
  0
ARC
  5
5A12
  8
0
 10
448.8507159084998079
 20
34.1387187148578732
 30
0.0
 40
4.5394093756301181
 50
356.250873877810875
 51
5.5422176279678421
  0
ARC
  5
5A13
  8
0
 10
509.9211769700833088
 20
35.7002768506115231
 30
0.0
 40
71.2643857846771311
 50
181.7494466945649094
 51
182.1862047490627106
  0
LINE
  5
5A14
  8
0
 10
438.7086738784893782
 20
32.9817389764598303
 30
0.0
 11
438.709495000689401
 21
32.9423776206598333
 31
0.0
  0
LINE
  5
5A15
  8
0
 10
438.709495000689401
 20
32.9423776206598333
 30
0.0
 11
438.6952990709893925
 21
32.9425056446598319
 31
0.0
  0
LINE
  5
5A16
  8
0
 10
438.6952990709893925
 20
32.9425056446598319
 30
0.0
 11
438.6925359036894179
 21
32.9818841429598208
 31
0.0
  0
LINE
  5
5A17
  8
0
 10
438.6925359036894179
 20
32.9818841429598208
 30
0.0
 11
438.6914970837020178
 21
33.004037433059807
 31
0.0
  0
LINE
  5
5A18
  8
0
 10
438.7078146405982011
 20
33.0040374330598425
 30
0.0
 11
438.6838099627619272
 21
33.0040374330598212
 31
0.0
  0
ENDSEC
  0
EOF
